  0
SECTION
  2
HEADER
  9
$ACADVER
  1
AC1015
  9
$ACADMAINTVER
 70
     6
  9
$DWGCODEPAGE
  3
ANSI_932
  9
$INSBASE
 10
0.0
 20
0.0
 30
0.0
  9
$EXTMIN
 10
-328.089645120795
 20
-222.1650634925199
 30
0.0
  9
$EXTMAX
 10
312.7498965051806
 20
248.9877526568071
 30
0.0
  9
$LIMMIN
 10
-210.0
 20
-148.5
  9
$LIMMAX
 10
210.0
 20
148.5
  9
$ORTHOMODE
 70
     0
  9
$REGENMODE
 70
     1
  9
$FILLMODE
 70
     1
  9
$QTEXTMODE
 70
     0
  9
$MIRRTEXT
 70
     1
  9
$LTSCALE
 40
0.25
  9
$ATTMODE
 70
     1
  9
$TEXTSIZE
 40
0.2
  9
$TRACEWID
 40
0.05
  9
$TEXTSTYLE
  7
Standard
  9
$CLAYER
  8
0
  9
$CELTYPE
  6
ByLayer
  9
$CECOLOR
 62
   256
  9
$CELTSCALE
 40
1.0
  9
$DISPSILH
 70
     0
  9
$DIMSCALE
 40
1.0
  9
$DIMASZ
 40
1.499999284744263
  9
$DIMEXO
 40
1.0
  9
$DIMDLI
 40
10.0
  9
$DIMRND
 40
0.0
  9
$DIMDLE
 40
0.0
  9
$DIMEXE
 40
1.0
  9
$DIMTP
 40
0.0
  9
$DIMTM
 40
0.0
  9
$DIMTXT
 40
3.0
  9
$DIMCEN
 40
0.0
  9
$DIMTSZ
 40
0.0
  9
$DIMTOL
 70
     0
  9
$DIMLIM
 70
     0
  9
$DIMTIH
 70
     0
  9
$DIMTOH
 70
     0
  9
$DIMSE1
 70
     0
  9
$DIMSE2
 70
     0
  9
$DIMTAD
 70
     1
  9
$DIMZIN
 70
     8
  9
$DIMBLK
  1

  9
$DIMASO
 70
     1
  9
$DIMSHO
 70
     1
  9
$DIMPOST
  1

  9
$DIMAPOST
  1

  9
$DIMALT
 70
     0
  9
$DIMALTD
 70
     2
  9
$DIMALTF
 40
0.0393700787401575
  9
$DIMLFAC
 40
1.0
  9
$DIMTOFL
 70
     0
  9
$DIMTVP
 40
0.0
  9
$DIMTIX
 70
     0
  9
$DIMSOXD
 70
     0
  9
$DIMSAH
 70
     0
  9
$DIMBLK1
  1

  9
$DIMBLK2
  1

  9
$DIMSTYLE
  2
Standard
  9
$DIMCLRD
 70
     0
  9
$DIMCLRE
 70
     0
  9
$DIMCLRT
 70
     0
  9
$DIMTFAC
 40
0.65
  9
$DIMGAP
 40
0.09
  9
$DIMJUST
 70
     0
  9
$DIMSD1
 70
     0
  9
$DIMSD2
 70
     0
  9
$DIMTOLJ
 70
     0
  9
$DIMTZIN
 70
     0
  9
$DIMALTZ
 70
     0
  9
$DIMALTTZ
 70
     0
  9
$DIMUPT
 70
     0
  9
$DIMDEC
 70
     2
  9
$DIMTDEC
 70
     2
  9
$DIMALTU
 70
     2
  9
$DIMALTTD
 70
     2
  9
$DIMTXSTY
  7
Standard
  9
$DIMAUNIT
 70
     0
  9
$DIMADEC
 70
     2
  9
$DIMALTRND
 40
0.0
  9
$DIMAZIN
 70
     2
  9
$DIMDSEP
 70
    46
  9
$DIMATFIT
 70
     3
  9
$DIMFRAC
 70
     0
  9
$DIMLDRBLK
  1

  9
$DIMLUNIT
 70
     2
  9
$DIMLWD
 70
    -2
  9
$DIMLWE
 70
    -2
  9
$DIMTMOVE
 70
     0
  9
$LUNITS
 70
     2
  9
$LUPREC
 70
     4
  9
$SKETCHINC
 40
0.1
  9
$FILLETRAD
 40
0.5
  9
$AUNITS
 70
     0
  9
$AUPREC
 70
     0
  9
$MENU
  1
.
  9
$ELEVATION
 40
0.0
  9
$PELEVATION
 40
0.0
  9
$THICKNESS
 40
0.0
  9
$LIMCHECK
 70
     0
  9
$CHAMFERA
 40
0.0
  9
$CHAMFERB
 40
0.0
  9
$CHAMFERC
 40
0.0
  9
$CHAMFERD
 40
0.0
  9
$SKPOLY
 70
     0
  9
$TDCREATE
 40
2459928.578185243
  9
$TDUCREATE
 40
2459928.203185243
  9
$TDUPDATE
 40
2459928.578185775
  9
$TDUUPDATE
 40
2459928.203185775
  9
$TDINDWG
 40
0.0000000116
  9
$TDUSRTIMER
 40
0.0000000116
  9
$USRTIMER
 70
     1
  9
$ANGBASE
 50
0.0
  9
$ANGDIR
 70
     0
  9
$PDMODE
 70
     0
  9
$PDSIZE
 40
1.0
  9
$PLINEWID
 40
0.0
  9
$SPLFRAME
 70
     0
  9
$SPLINETYPE
 70
     6
  9
$SPLINESEGS
 70
     8
  9
$HANDSEED
  5
2D7
  9
$SURFTAB1
 70
     6
  9
$SURFTAB2
 70
     6
  9
$SURFTYPE
 70
     6
  9
$SURFU
 70
     6
  9
$SURFV
 70
     6
  9
$UCSBASE
  2

  9
$UCSNAME
  2

  9
$UCSORG
 10
0.0
 20
0.0
 30
0.0
  9
$UCSXDIR
 10
1.0
 20
0.0
 30
0.0
  9
$UCSYDIR
 10
0.0
 20
1.0
 30
0.0
  9
$UCSORTHOREF
  2

  9
$UCSORTHOVIEW
 70
     0
  9
$UCSORGTOP
 10
0.0
 20
0.0
 30
0.0
  9
$UCSORGBOTTOM
 10
0.0
 20
0.0
 30
0.0
  9
$UCSORGLEFT
 10
0.0
 20
0.0
 30
0.0
  9
$UCSORGRIGHT
 10
0.0
 20
0.0
 30
0.0
  9
$UCSORGFRONT
 10
0.0
 20
0.0
 30
0.0
  9
$UCSORGBACK
 10
0.0
 20
0.0
 30
0.0
  9
$PUCSBASE
  2

  9
$PUCSNAME
  2

  9
$PUCSORG
 10
0.0
 20
0.0
 30
0.0
  9
$PUCSXDIR
 10
1.0
 20
0.0
 30
0.0
  9
$PUCSYDIR
 10
0.0
 20
1.0
 30
0.0
  9
$PUCSORTHOREF
  2

  9
$PUCSORTHOVIEW
 70
     0
  9
$PUCSORGTOP
 10
0.0
 20
0.0
 30
0.0
  9
$PUCSORGBOTTOM
 10
0.0
 20
0.0
 30
0.0
  9
$PUCSORGLEFT
 10
0.0
 20
0.0
 30
0.0
  9
$PUCSORGRIGHT
 10
0.0
 20
0.0
 30
0.0
  9
$PUCSORGFRONT
 10
0.0
 20
0.0
 30
0.0
  9
$PUCSORGBACK
 10
0.0
 20
0.0
 30
0.0
  9
$USERI1
 70
     0
  9
$USERI2
 70
     0
  9
$USERI3
 70
     0
  9
$USERI4
 70
     0
  9
$USERI5
 70
     0
  9
$USERR1
 40
0.0
  9
$USERR2
 40
0.0
  9
$USERR3
 40
0.0
  9
$USERR4
 40
0.0
  9
$USERR5
 40
0.0
  9
$WORLDVIEW
 70
     1
  9
$SHADEDGE
 70
     3
  9
$SHADEDIF
 70
    70
  9
$TILEMODE
 70
     1
  9
$MAXACTVP
 70
    64
  9
$PINSBASE
 10
0.0
 20
0.0
 30
0.0
  9
$PLIMCHECK
 70
     0
  9
$PEXTMIN
 10
1.000000000000000E+20
 20
1.000000000000000E+20
 30
1.000000000000000E+20
  9
$PEXTMAX
 10
-1.000000000000000E+20
 20
-1.000000000000000E+20
 30
-1.000000000000000E+20
  9
$PLIMMIN
 10
0.0
 20
0.0
  9
$PLIMMAX
 10
12.0
 20
9.0
  9
$UNITMODE
 70
     0
  9
$VISRETAIN
 70
     0
  9
$PLINEGEN
 70
     1
  9
$PSLTSCALE
 70
     0
  9
$TREEDEPTH
 70
  3020
  9
$CMLSTYLE
  2
Standard
  9
$CMLJUST
 70
     0
  9
$CMLSCALE
 40
1.0
  9
$PROXYGRAPHICS
 70
     0
  9
$MEASUREMENT
 70
     1
  9
$CELWEIGHT
370
    -1
  9
$ENDCAPS
280
     0
  9
$JOINSTYLE
280
     0
  9
$LWDISPLAY
290
     1
  9
$INSUNITS
 70
     4
  9
$HYPERLINKBASE
  1

  9
$STYLESHEET
  1

  9
$XEDIT
290
     1
  9
$CEPSNTYPE
380
     0
  9
$PSTYLEMODE
290
     1
  9
$FINGERPRINTGUID
  2
{ffc0a65a-b48a-4505-a230-27a5090c259f}
  9
$VERSIONGUID
  2
{FAEB1C32-E019-11D5-929B-00C0DF256EC4}
  9
$EXTNAMES
290
     1
  9
$PSVPSCALE
 40
0.0
  9
$OLESTARTUP
290
     0
  0
ENDSEC
  0
SECTION
  2
CLASSES
  0
CLASS
  1
ACDBDICTIONARYWDFLT
  2
AcDbDictionaryWithDefault
  3
ObjectDBX Classes
 90
        0
280
     0
281
     0
  0
CLASS
  1
VISUALSTYLE
  2
AcDbVisualStyle
  3
ObjectDBX Classes
 90
     4095
280
     0
281
     0
  0
CLASS
  1
MATERIAL
  2
AcDbMaterial
  3
ObjectDBX Classes
 90
     1153
280
     0
281
     0
  0
CLASS
  1
SCALE
  2
AcDbScale
  3
ObjectDBX Classes
 90
     1153
280
     0
281
     0
  0
CLASS
  1
TABLESTYLE
  2
AcDbTableStyle
  3
ObjectDBX Classes
 90
     4095
280
     0
281
     0
  0
CLASS
  1
MLEADERSTYLE
  2
AcDbMLeaderStyle
  3
ACDB_MLEADERSTYLE_CLASS
 90
     4095
280
     0
281
     0
  0
CLASS
  1
SUN
  2
AcDbSun
  3
SCENEOE
 90
     1153
280
     0
281
     0
  0
CLASS
  1
DICTIONARYVAR
  2
AcDbDictionaryVar
  3
ObjectDBX Classes
 90
        0
280
     0
281
     0
  0
CLASS
  1
ACDBPLACEHOLDER
  2
AcDbPlaceHolder
  3
ObjectDBX Classes
 90
        0
280
     0
281
     0
  0
CLASS
  1
LAYOUT
  2
AcDbLayout
  3
ObjectDBX Classes
 90
        0
280
     0
281
     0
  0
ENDSEC
  0
SECTION
  2
TABLES
  0
TABLE
  2
VPORT
  5
8
102
{ACAD_XDICTIONARY
360
29A
102
}
330
0
100
AcDbSymbolTable
 70
     1
  0
VPORT
  5
29
330
8
100
AcDbSymbolTableRecord
100
AcDbViewportTableRecord
  2
*Active
 70
     0
 10
0.0
 20
0.0
 11
1.0
 21
1.0
 12
-7.669874307807195
 22
31.99057678150319
 13
0.0
 23
0.0
 14
0.5
 24
0.5
 15
0.5
 25
0.5
 16
0.0
 26
0.0
 36
1.0
 17
0.0
 27
0.0
 37
0.0
 40
122.2903238040777
 41
1.781706331090494
 42
50.0
 43
0.0
 44
0.0
 50
0.0
 51
0.0
 71
     0
 72
  1000
 73
     1
 74
     1
 75
     0
 76
     0
 77
     0
 78
     0
281
     0
 65
     1
110
0.0
120
0.0
130
0.0
111
1.0
121
0.0
131
0.0
112
0.0
122
1.0
132
0.0
 79
     0
146
0.0
  0
ENDTAB
  0
TABLE
  2
LTYPE
  5
5
330
0
100
AcDbSymbolTable
 70
    67
  0
LTYPE
  5
14
330
5
100
AcDbSymbolTableRecord
100
AcDbLinetypeTableRecord
  2
ByBlock
 70
     0
  3

 72
    65
 73
     0
 40
0.0
  0
LTYPE
  5
15
330
5
100
AcDbSymbolTableRecord
100
AcDbLinetypeTableRecord
  2
ByLayer
 70
     0
  3

 72
    65
 73
     0
 40
0.0
  0
LTYPE
  5
16
330
5
100
AcDbSymbolTableRecord
100
AcDbLinetypeTableRecord
  2
Continuous
 70
     0
  3
Solid line
 72
    65
 73
     0
 40
0.0
  0
LTYPE
  5
6F
330
5
100
AcDbSymbolTableRecord
100
AcDbLinetypeTableRecord
  2
HIDDENX2
 70
     0
  3
Hidden (2x) ____ ____ ____ ____ ____ ____ ____ 
 72
    65
 73
     2
 40
19.05
 49
12.7
 74
     0
 49
-6.35
 74
     0
  0
LTYPE
  5
70
330
5
100
AcDbSymbolTableRecord
100
AcDbLinetypeTableRecord
  2
HIDDEN
 70
     0
  3
Hidden __ __ __ __ __ __ __ __ __ __ __ __ __ __
 72
    65
 73
     2
 40
9.524999999999999
 49
6.35
 74
     0
 49
-3.175
 74
     0
  0
LTYPE
  5
71
330
5
100
AcDbSymbolTableRecord
100
AcDbLinetypeTableRecord
  2
HIDDEN2
 70
     0
  3
Hidden (.5x) _ _ _ _ _ _ _ _ _ _ _ _ _ _ _ _ _ 
 72
    65
 73
     2
 40
4.762499999999999
 49
3.175
 74
     0
 49
-1.5875
 74
     0
  0
LTYPE
  5
72
330
5
100
AcDbSymbolTableRecord
100
AcDbLinetypeTableRecord
  2
DASHED
 70
     0
  3
Dashed __ __ __ __ __ __ __ __ __ __ __ __ __ _
 72
    65
 73
     2
 40
19.05
 49
12.7
 74
     0
 49
-6.35
 74
     0
  0
LTYPE
  5
73
330
5
100
AcDbSymbolTableRecord
100
AcDbLinetypeTableRecord
  2
DASHED2
 70
     0
  3
Dashed (.5x) _ _ _ _ _ _ _ _ _ _ _ _ _ _ _ _ _ 
 72
    65
 73
     2
 40
9.524999999999999
 49
6.35
 74
     0
 49
-3.175
 74
     0
  0
LTYPE
  5
74
330
5
100
AcDbSymbolTableRecord
100
AcDbLinetypeTableRecord
  2
DASHEDX2
 70
     0
  3
Dashed (2x) ____  ____  ____  ____  ____  ___
 72
    65
 73
     2
 40
38.09999999999999
 49
25.4
 74
     0
 49
-12.7
 74
     0
  0
LTYPE
  5
75
330
5
100
AcDbSymbolTableRecord
100
AcDbLinetypeTableRecord
  2
DOTX2
 70
     0
  3
Dot (2x) .  .  .  .  .  .  .  .  .  .  .  .  .  .
 72
    65
 73
     2
 40
12.7
 49
0.0
 74
     0
 49
-12.7
 74
     0
  0
LTYPE
  5
76
330
5
100
AcDbSymbolTableRecord
100
AcDbLinetypeTableRecord
  2
DOT
 70
     0
  3
Dot . . . . . . . . . . . . . . . . . . . . . . . .
 72
    65
 73
     2
 40
6.35
 49
0.0
 74
     0
 49
-6.35
 74
     0
  0
LTYPE
  5
77
330
5
100
AcDbSymbolTableRecord
100
AcDbLinetypeTableRecord
  2
DOT2
 70
     0
  3
Dot (.5x) ........................................
 72
    65
 73
     2
 40
3.175
 49
0.0
 74
     0
 49
-3.175
 74
     0
  0
LTYPE
  5
78
330
5
100
AcDbSymbolTableRecord
100
AcDbLinetypeTableRecord
  2
CENTERX2
 70
     0
  3
Center (2x) ________  __  ________  __  _____
 72
    65
 73
     4
 40
101.6
 49
63.5
 74
     0
 49
-12.7
 74
     0
 49
12.7
 74
     0
 49
-12.7
 74
     0
  0
LTYPE
  5
79
330
5
100
AcDbSymbolTableRecord
100
AcDbLinetypeTableRecord
  2
CENTER
 70
     0
  3
Center ____ _ ____ _ ____ _ ____ _ ____ _ ____
 72
    65
 73
     4
 40
50.8
 49
31.75
 74
     0
 49
-6.35
 74
     0
 49
6.35
 74
     0
 49
-6.35
 74
     0
  0
LTYPE
  5
7A
330
5
100
AcDbSymbolTableRecord
100
AcDbLinetypeTableRecord
  2
CENTER2
 70
     0
  3
Center (.5x) ___ _ ___ _ ___ _ ___ _ ___ _ ___
 72
    65
 73
     4
 40
28.575
 49
19.05
 74
     0
 49
-3.175
 74
     0
 49
3.175
 74
     0
 49
-3.175
 74
     0
  0
LTYPE
  5
7B
330
5
100
AcDbSymbolTableRecord
100
AcDbLinetypeTableRecord
  2
DASHDOTX2
 70
     0
  3
Dash dot (2x) ____  .  ____  .  ____  .  ___
 72
    65
 73
     4
 40
50.8
 49
25.4
 74
     0
 49
-12.7
 74
     0
 49
0.0
 74
     0
 49
-12.7
 74
     0
  0
LTYPE
  5
7C
330
5
100
AcDbSymbolTableRecord
100
AcDbLinetypeTableRecord
  2
DASHDOT
 70
     0
  3
Dash dot __ . __ . __ . __ . __ . __ . __ . __
 72
    65
 73
     4
 40
25.4
 49
12.7
 74
     0
 49
-6.35
 74
     0
 49
0.0
 74
     0
 49
-6.35
 74
     0
  0
LTYPE
  5
7D
330
5
100
AcDbSymbolTableRecord
100
AcDbLinetypeTableRecord
  2
DASHDOT2
 70
     0
  3
Dash dot (.5x) _._._._._._._._._._._._._._._.
 72
    65
 73
     4
 40
12.7
 49
6.35
 74
     0
 49
-3.175
 74
     0
 49
0.0
 74
     0
 49
-3.175
 74
     0
  0
LTYPE
  5
7E
330
5
100
AcDbSymbolTableRecord
100
AcDbLinetypeTableRecord
  2
DIVIDEX2
 70
     0
  3
Divide (2x) ________  .  .  ________  .  .  _
 72
    65
 73
     6
 40
63.5
 49
25.4
 74
     0
 49
-12.7
 74
     0
 49
0.0
 74
     0
 49
-12.7
 74
     0
 49
0.0
 74
     0
 49
-12.7
 74
     0
  0
LTYPE
  5
7F
330
5
100
AcDbSymbolTableRecord
100
AcDbLinetypeTableRecord
  2
DIVIDE
 70
     0
  3
Divide ____ . . ____ . . ____ . . ____ . . ____
 72
    65
 73
     6
 40
31.75
 49
12.7
 74
     0
 49
-6.35
 74
     0
 49
0.0
 74
     0
 49
-6.35
 74
     0
 49
0.0
 74
     0
 49
-6.35
 74
     0
  0
LTYPE
  5
80
330
5
100
AcDbSymbolTableRecord
100
AcDbLinetypeTableRecord
  2
DIVIDE2
 70
     0
  3
Divide (.5x) __..__..__..__..__..__..__..__.._
 72
    65
 73
     6
 40
15.875
 49
6.35
 74
     0
 49
-3.175
 74
     0
 49
0.0
 74
     0
 49
-3.175
 74
     0
 49
0.0
 74
     0
 49
-3.175
 74
     0
  0
LTYPE
  5
81
330
5
100
AcDbSymbolTableRecord
100
AcDbLinetypeTableRecord
  2
BORDERX2
 70
     0
  3
Border (2x) ____  ____  .  ____  ____  .  ___
 72
    65
 73
     6
 40
88.89999999999999
 49
25.4
 74
     0
 49
-12.7
 74
     0
 49
25.4
 74
     0
 49
-12.7
 74
     0
 49
0.0
 74
     0
 49
-12.7
 74
     0
  0
LTYPE
  5
82
330
5
100
AcDbSymbolTableRecord
100
AcDbLinetypeTableRecord
  2
BORDER
 70
     0
  3
Border __ __ . __ __ . __ __ . __ __ . __ __ .
 72
    65
 73
     6
 40
44.45
 49
12.7
 74
     0
 49
-6.35
 74
     0
 49
12.7
 74
     0
 49
-6.35
 74
     0
 49
0.0
 74
     0
 49
-6.35
 74
     0
  0
LTYPE
  5
83
330
5
100
AcDbSymbolTableRecord
100
AcDbLinetypeTableRecord
  2
BORDER2
 70
     0
  3
Border (.5x) __.__.__.__.__.__.__.__.__.__.__.
 72
    65
 73
     6
 40
22.225
 49
6.35
 74
     0
 49
-3.175
 74
     0
 49
6.35
 74
     0
 49
-3.175
 74
     0
 49
0.0
 74
     0
 49
-3.175
 74
     0
  0
LTYPE
  5
84
330
5
100
AcDbSymbolTableRecord
100
AcDbLinetypeTableRecord
  2
PHANTOMX2
 70
     0
  3
Phantom (2x) ____________    ____    ____   _
 72
    65
 73
     6
 40
127.0
 49
63.5
 74
     0
 49
-12.7
 74
     0
 49
12.7
 74
     0
 49
-12.7
 74
     0
 49
12.7
 74
     0
 49
-12.7
 74
     0
  0
LTYPE
  5
85
330
5
100
AcDbSymbolTableRecord
100
AcDbLinetypeTableRecord
  2
PHANTOM
 70
     0
  3
Phantom ______  __  __  ______  __  __  ______ 
 72
    65
 73
     6
 40
63.5
 49
31.75
 74
     0
 49
-6.35
 74
     0
 49
6.35
 74
     0
 49
-6.35
 74
     0
 49
6.35
 74
     0
 49
-6.35
 74
     0
  0
LTYPE
  5
86
330
5
100
AcDbSymbolTableRecord
100
AcDbLinetypeTableRecord
  2
PHANTOM2
 70
     0
  3
Phantom (.5x) ___ _ _ ___ _ _ ___ _ _ ___ _ _
 72
    65
 73
     6
 40
31.75
 49
15.875
 74
     0
 49
-3.175
 74
     0
 49
3.175
 74
     0
 49
-3.175
 74
     0
 49
3.175
 74
     0
 49
-3.175
 74
     0
  0
LTYPE
  5
87
330
5
100
AcDbSymbolTableRecord
100
AcDbLinetypeTableRecord
  2
ACAD_ISO06W100
 70
     0
  3
ISO long-dash triple-dot ____ ... ____ ... ____
 72
    65
 73
     8
 40
36.0
 49
24.0
 74
     0
 49
-3.0
 74
     0
 49
0.0
 74
     0
 49
-3.0
 74
     0
 49
0.0
 74
     0
 49
-3.0
 74
     0
 49
0.0
 74
     0
 49
-3.0
 74
     0
  0
LTYPE
  5
88
330
5
100
AcDbSymbolTableRecord
100
AcDbLinetypeTableRecord
  2
ACAD_ISO13W100
 70
     0
  3
ISO double-dash double-dot __ __ . . __ __ . . _
 72
    65
 73
     8
 40
36.0
 49
12.0
 74
     0
 49
-3.0
 74
     0
 49
12.0
 74
     0
 49
-3.0
 74
     0
 49
0.0
 74
     0
 49
-3.0
 74
     0
 49
0.0
 74
     0
 49
-3.0
 74
     0
  0
LTYPE
  5
89
330
5
100
AcDbSymbolTableRecord
100
AcDbLinetypeTableRecord
  2
ACAD_ISO14W100
 70
     0
  3
ISO dash triple-dot __ . . . __ . . . __ . . . _
 72
    65
 73
     8
 40
24.0
 49
12.0
 74
     0
 49
-3.0
 74
     0
 49
0.0
 74
     0
 49
-3.0
 74
     0
 49
0.0
 74
     0
 49
-3.0
 74
     0
 49
0.0
 74
     0
 49
-3.0
 74
     0
  0
LTYPE
  5
8A
330
5
100
AcDbSymbolTableRecord
100
AcDbLinetypeTableRecord
  2
ACAD_ISO02W100
 70
     0
  3
ISO dash __ __ __ __ __ __ __ __ __ __ __ __ __
 72
    65
 73
     2
 40
15.0
 49
12.0
 74
     0
 49
-3.0
 74
     0
  0
LTYPE
  5
8B
330
5
100
AcDbSymbolTableRecord
100
AcDbLinetypeTableRecord
  2
ACAD_ISO03W100
 70
     0
  3
ISO dash space __    __    __    __    __    __
 72
    65
 73
     2
 40
30.0
 49
12.0
 74
     0
 49
-18.0
 74
     0
  0
LTYPE
  5
8C
330
5
100
AcDbSymbolTableRecord
100
AcDbLinetypeTableRecord
  2
ACAD_ISO04W100
 70
     0
  3
ISO long-dash dot ____ . ____ . ____ . ____ . _
 72
    65
 73
     4
 40
30.0
 49
24.0
 74
     0
 49
-3.0
 74
     0
 49
0.0
 74
     0
 49
-3.0
 74
     0
  0
LTYPE
  5
8D
330
5
100
AcDbSymbolTableRecord
100
AcDbLinetypeTableRecord
  2
ACAD_ISO05W100
 70
     0
  3
ISO long-dash double-dot ____ .. ____ .. ____ . 
 72
    65
 73
     6
 40
33.0
 49
24.0
 74
     0
 49
-3.0
 74
     0
 49
0.0
 74
     0
 49
-3.0
 74
     0
 49
0.0
 74
     0
 49
-3.0
 74
     0
  0
LTYPE
  5
8E
330
5
100
AcDbSymbolTableRecord
100
AcDbLinetypeTableRecord
  2
ACAD_ISO07W100
 70
     0
  3
ISO dot . . . . . . . . . . . . . . . . . . . . 
 72
    65
 73
     2
 40
3.0
 49
0.0
 74
     0
 49
-3.0
 74
     0
  0
LTYPE
  5
8F
330
5
100
AcDbSymbolTableRecord
100
AcDbLinetypeTableRecord
  2
ACAD_ISO08W100
 70
     0
  3
ISO long-dash short-dash ____ __ ____ __ ____ _
 72
    65
 73
     4
 40
36.0
 49
24.0
 74
     0
 49
-3.0
 74
     0
 49
6.0
 74
     0
 49
-3.0
 74
     0
  0
LTYPE
  5
90
330
5
100
AcDbSymbolTableRecord
100
AcDbLinetypeTableRecord
  2
ACAD_ISO09W100
 70
     0
  3
ISO long-dash double-short-dash ____ __ __ ____
 72
    65
 73
     6
 40
45.0
 49
24.0
 74
     0
 49
-3.0
 74
     0
 49
6.0
 74
     0
 49
-3.0
 74
     0
 49
6.0
 74
     0
 49
-3.0
 74
     0
  0
LTYPE
  5
91
330
5
100
AcDbSymbolTableRecord
100
AcDbLinetypeTableRecord
  2
ACAD_ISO10W100
 70
     0
  3
ISO dash dot __ . __ . __ . __ . __ . __ . __ . 
 72
    65
 73
     4
 40
18.0
 49
12.0
 74
     0
 49
-3.0
 74
     0
 49
0.0
 74
     0
 49
-3.0
 74
     0
  0
LTYPE
  5
92
330
5
100
AcDbSymbolTableRecord
100
AcDbLinetypeTableRecord
  2
ACAD_ISO11W100
 70
     0
  3
ISO double-dash dot __ __ . __ __ . __ __ . __ _
 72
    65
 73
     6
 40
33.0
 49
12.0
 74
     0
 49
-3.0
 74
     0
 49
12.0
 74
     0
 49
-3.0
 74
     0
 49
0.0
 74
     0
 49
-3.0
 74
     0
  0
LTYPE
  5
93
330
5
100
AcDbSymbolTableRecord
100
AcDbLinetypeTableRecord
  2
ACAD_ISO12W100
 70
     0
  3
ISO dash double-dot __ . . __ . . __ . . __ . . 
 72
    65
 73
     6
 40
21.0
 49
12.0
 74
     0
 49
-3.0
 74
     0
 49
0.0
 74
     0
 49
-3.0
 74
     0
 49
0.0
 74
     0
 49
-3.0
 74
     0
  0
LTYPE
  5
94
330
5
100
AcDbSymbolTableRecord
100
AcDbLinetypeTableRecord
  2
ACAD_ISO15W100
 70
     0
  3
ISO double-dash triple-dot __ __ . . . __ __ . .
 72
    65
 73
    10
 40
39.0
 49
12.0
 74
     0
 49
-3.0
 74
     0
 49
12.0
 74
     0
 49
-3.0
 74
     0
 49
0.0
 74
     0
 49
-3.0
 74
     0
 49
0.0
 74
     0
 49
-3.0
 74
     0
 49
0.0
 74
     0
 49
-3.0
 74
     0
  0
LTYPE
  5
95
330
5
100
AcDbSymbolTableRecord
100
AcDbLinetypeTableRecord
  2
JIS_02_0.7
 70
     0
  3
HIDDEN0.75 _ _ _ _ _ _ _ _ _ _ _ _ _ _ _ _ _ 
 72
    65
 73
     2
 40
1.35
 49
0.75
 74
     0
 49
-0.6
 74
     0
  0
LTYPE
  5
96
330
5
100
AcDbSymbolTableRecord
100
AcDbLinetypeTableRecord
  2
JIS_02_1.0
 70
     0
  3
HIDDEN01 _ _ _ _ _ _ _ _ _ _ _ _ _ _ _ _ _ 
 72
    65
 73
     2
 40
2.0
 49
1.0
 74
     0
 49
-1.0
 74
     0
  0
LTYPE
  5
97
330
5
100
AcDbSymbolTableRecord
100
AcDbLinetypeTableRecord
  2
JIS_02_1.2
 70
     0
  3
HIDDEN01.25  _ _ _ _ _ _ _ _ _ _ _ _ _ _ _ _ _ 
 72
    65
 73
     2
 40
2.5
 49
1.25
 74
     0
 49
-1.25
 74
     0
  0
LTYPE
  5
98
330
5
100
AcDbSymbolTableRecord
100
AcDbLinetypeTableRecord
  2
JIS_02_2.0
 70
     0
  3
HIDDEN02 __ __ __ __ __ __ __ __ __ __ __ 
 72
    65
 73
     2
 40
3.0
 49
2.0
 74
     0
 49
-1.0
 74
     0
  0
LTYPE
  5
99
330
5
100
AcDbSymbolTableRecord
100
AcDbLinetypeTableRecord
  2
JIS_02_4.0
 70
     0
  3
HIDDEN04 ____ ____ ____ ____ ____ ____ ____ 
 72
    65
 73
     2
 40
5.5
 49
4.0
 74
     0
 49
-1.5
 74
     0
  0
LTYPE
  5
9A
330
5
100
AcDbSymbolTableRecord
100
AcDbLinetypeTableRecord
  2
JIS_08_11
 70
     0
  3
1SASEN11 ___ _ ___ _ ___ _ ___ _ ___ _ ___
 72
    65
 73
     4
 40
12.8
 49
11.0
 74
     0
 49
-0.6
 74
     0
 49
0.6
 74
     0
 49
-0.6
 74
     0
  0
LTYPE
  5
9B
330
5
100
AcDbSymbolTableRecord
100
AcDbLinetypeTableRecord
  2
JIS_08_15
 70
     0
  3
1SASEN15 ____ _ ____ _ ____ _ ____ _ ____ 
 72
    65
 73
     4
 40
17.25
 49
15.0
 74
     0
 49
-0.75
 74
     0
 49
0.75
 74
     0
 49
-0.75
 74
     0
  0
LTYPE
  5
9C
330
5
100
AcDbSymbolTableRecord
100
AcDbLinetypeTableRecord
  2
JIS_08_25
 70
     0
  3
1SASEN25 ________  __  ________  __  _____
 72
    65
 73
     4
 40
28.0
 49
25.0
 74
     0
 49
-1.125
 74
     0
 49
0.75
 74
     0
 49
-1.125
 74
     0
  0
LTYPE
  5
9D
330
5
100
AcDbSymbolTableRecord
100
AcDbLinetypeTableRecord
  2
JIS_08_37
 70
     0
  3
1SASEN37 ________  __  ________  __  _____
 72
    65
 73
     4
 40
40.5
 49
37.5
 74
     0
 49
-1.125
 74
     0
 49
0.75
 74
     0
 49
-1.125
 74
     0
  0
LTYPE
  5
9E
330
5
100
AcDbSymbolTableRecord
100
AcDbLinetypeTableRecord
  2
JIS_08_50
 70
     0
  3
1SASEN50 _______________  __  ____________
 72
    65
 73
     4
 40
53.0
 49
50.0
 74
     0
 49
-1.125
 74
     0
 49
0.75
 74
     0
 49
-1.125
 74
     0
  0
LTYPE
  5
9F
330
5
100
AcDbSymbolTableRecord
100
AcDbLinetypeTableRecord
  2
JIS_09_08
 70
     0
  3
2SASEN8 __ _ _ __ _ _ __ _ _ __ _ _ __ _ _ 
 72
    65
 73
     6
 40
10.75
 49
8.0
 74
     0
 49
-0.55
 74
     0
 49
0.55
 74
     0
 49
-0.55
 74
     0
 49
0.55
 74
     0
 49
-0.55
 74
     0
  0
LTYPE
  5
A0
330
5
100
AcDbSymbolTableRecord
100
AcDbLinetypeTableRecord
  2
JIS_09_15
 70
     0
  3
2SASEN15 ___ _ _ ___ _ _ ___ _ _ ___ _ _ ___ 
 72
    65
 73
     6
 40
18.9
 49
15.0
 74
     0
 49
-0.9
 74
     0
 49
0.6
 74
     0
 49
-0.9
 74
     0
 49
0.6
 74
     0
 49
-0.9
 74
     0
  0
LTYPE
  5
A1
330
5
100
AcDbSymbolTableRecord
100
AcDbLinetypeTableRecord
  2
JIS_09_29
 70
     0
  3
2SASEN29 ______　__  __  ______　__  __  ___
 72
    65
 73
     6
 40
34.0
 49
29.0
 74
     0
 49
-1.2
 74
     0
 49
0.7
 74
     0
 49
-1.2
 74
     0
 49
0.7
 74
     0
 49
-1.2
 74
     0
  0
LTYPE
  5
A2
330
5
100
AcDbSymbolTableRecord
100
AcDbLinetypeTableRecord
  2
JIS_09_50
 70
     0
  3
2SASEN50 ____________　__  __  _____________
 72
    65
 73
     6
 40
55.0
 49
50.0
 74
     0
 49
-1.2
 74
     0
 49
0.7
 74
     0
 49
-1.2
 74
     0
 49
0.7
 74
     0
 49
-1.2
 74
     0
  0
LTYPE
  5
A3
330
5
100
AcDbSymbolTableRecord
100
AcDbLinetypeTableRecord
  2
SXF_破線
 70
     0
  3
02 dashed -- -- -- -- -- --
 72
    65
 73
     2
 40
7.5
 49
6.0
 74
     0
 49
-1.5
 74
     0
  0
LTYPE
  5
A4
330
5
100
AcDbSymbolTableRecord
100
AcDbLinetypeTableRecord
  2
SXF_跳び破線
 70
     0
  3
03 dashed_spaced --  --  --  --
 72
    65
 73
     2
 40
12.0
 49
6.0
 74
     0
 49
-6.0
 74
     0
  0
LTYPE
  5
A5
330
5
100
AcDbSymbolTableRecord
100
AcDbLinetypeTableRecord
  2
SXF_一点長鎖線
 70
     0
  3
04 long_dashed_dotted ---- . ---- . ----
 72
    65
 73
     4
 40
15.25
 49
12.0
 74
     0
 49
-1.5
 74
     0
 49
0.25
 74
     0
 49
-1.5
 74
     0
  0
LTYPE
  5
A6
330
5
100
AcDbSymbolTableRecord
100
AcDbLinetypeTableRecord
  2
SXF_二点長鎖線
 70
     0
  3
05 long_dashed_double-dotted ---- . . ---- 
 72
    65
 73
     6
 40
17.0
 49
12.0
 74
     0
 49
-1.5
 74
     0
 49
0.25
 74
     0
 49
-1.5
 74
     0
 49
0.25
 74
     0
 49
-1.5
 74
     0
  0
LTYPE
  5
A7
330
5
100
AcDbSymbolTableRecord
100
AcDbLinetypeTableRecord
  2
SXF_三点長鎖線
 70
     0
  3
06 long_dashed_triplicate-dotted ---- ... ---- 
 72
    65
 73
     8
 40
18.75
 49
12.0
 74
     0
 49
-1.5
 74
     0
 49
0.25
 74
     0
 49
-1.5
 74
     0
 49
0.25
 74
     0
 49
-1.5
 74
     0
 49
0.25
 74
     0
 49
-1.5
 74
     0
  0
LTYPE
  5
A8
330
5
100
AcDbSymbolTableRecord
100
AcDbLinetypeTableRecord
  2
SXF_点線
 70
     0
  3
07 dotted . . . . . . . . . . . . 
 72
    65
 73
     2
 40
1.75
 49
0.25
 74
     0
 49
-1.5
 74
     0
  0
LTYPE
  5
A9
330
5
100
AcDbSymbolTableRecord
100
AcDbLinetypeTableRecord
  2
SXF_一点鎖線
 70
     0
  3
08 chain ---- - --- - --- - ---
 72
    65
 73
     4
 40
18.5
 49
12.0
 74
     0
 49
-1.5
 74
     0
 49
3.5
 74
     0
 49
-1.5
 74
     0
  0
LTYPE
  5
AA
330
5
100
AcDbSymbolTableRecord
100
AcDbLinetypeTableRecord
  2
SXF_二点鎖線
 70
     0
  3
09 chain_double_dash ---- - - ---- - - ----
 72
    65
 73
     6
 40
23.5
 49
12.0
 74
     0
 49
-1.5
 74
     0
 49
3.5
 74
     0
 49
-1.5
 74
     0
 49
3.5
 74
     0
 49
-1.5
 74
     0
  0
LTYPE
  5
AB
330
5
100
AcDbSymbolTableRecord
100
AcDbLinetypeTableRecord
  2
SXF_一点短鎖線
 70
     0
  3
10 dashed_dotted -- . -- . -- . --
 72
    65
 73
     4
 40
9.25
 49
6.0
 74
     0
 49
-1.5
 74
     0
 49
0.25
 74
     0
 49
-1.5
 74
     0
  0
LTYPE
  5
AC
330
5
100
AcDbSymbolTableRecord
100
AcDbLinetypeTableRecord
  2
SXF_一点二短鎖線
 70
     0
  3
11 double-dashed_dotted -- -- . -- --
 72
    65
 73
     6
 40
16.75
 49
6.0
 74
     0
 49
-1.5
 74
     0
 49
6.0
 74
     0
 49
-1.5
 74
     0
 49
0.25
 74
     0
 49
-1.5
 74
     0
  0
LTYPE
  5
AD
330
5
100
AcDbSymbolTableRecord
100
AcDbLinetypeTableRecord
  2
SXF_二点短鎖線
 70
     0
  3
12 dashed_double_dotted -- . . -- . . --
 72
    65
 73
     6
 40
11.0
 49
6.0
 74
     0
 49
-1.5
 74
     0
 49
0.25
 74
     0
 49
-1.5
 74
     0
 49
0.25
 74
     0
 49
-1.5
 74
     0
  0
LTYPE
  5
AE
330
5
100
AcDbSymbolTableRecord
100
AcDbLinetypeTableRecord
  2
SXF_二点二短鎖線
 70
     0
  3
13 double-dashed_double-dotted -- -- . . -- --
 72
    65
 73
     8
 40
18.5
 49
6.0
 74
     0
 49
-1.5
 74
     0
 49
6.0
 74
     0
 49
-1.5
 74
     0
 49
0.25
 74
     0
 49
-1.5
 74
     0
 49
0.25
 74
     0
 49
-1.5
 74
     0
  0
LTYPE
  5
AF
330
5
100
AcDbSymbolTableRecord
100
AcDbLinetypeTableRecord
  2
SXF_三点短鎖線
 70
     0
  3
14 dashed triplicate-dotted -- . . . -- . . . --
 72
    65
 73
     8
 40
12.75
 49
6.0
 74
     0
 49
-1.5
 74
     0
 49
0.25
 74
     0
 49
-1.5
 74
     0
 49
0.25
 74
     0
 49
-1.5
 74
     0
 49
0.25
 74
     0
 49
-1.5
 74
     0
  0
LTYPE
  5
B0
330
5
100
AcDbSymbolTableRecord
100
AcDbLinetypeTableRecord
  2
SXF_三点二短鎖線
 70
     0
  3
15 double-dashed triplicate-dotted -- -- . . . -- -- 
 72
    65
 73
    10
 40
20.25
 49
6.0
 74
     0
 49
-1.5
 74
     0
 49
6.0
 74
     0
 49
-1.5
 74
     0
 49
0.25
 74
     0
 49
-1.5
 74
     0
 49
0.25
 74
     0
 49
-1.5
 74
     0
 49
0.25
 74
     0
 49
-1.5
 74
     0
  0
ENDTAB
  0
TABLE
  2
LAYER
  5
2
330
0
100
AcDbSymbolTable
 70
     7
  0
LAYER
  5
10
330
2
100
AcDbSymbolTableRecord
100
AcDbLayerTableRecord
  2
0
 70
     0
 62
     7
  6
Continuous
370
    -3
390
F
  0
LAYER
  5
B1
330
2
100
AcDbSymbolTableRecord
100
AcDbLayerTableRecord
  2
Layer0001
 70
     0
 62
     7
  6
Continuous
370
    -3
390
F
  0
LAYER
  5
B2
330
2
100
AcDbSymbolTableRecord
100
AcDbLayerTableRecord
  2
Layer0002
 70
     0
 62
     7
  6
Continuous
370
    -3
390
F
  0
LAYER
  5
B3
330
2
100
AcDbSymbolTableRecord
100
AcDbLayerTableRecord
  2
Layer0003
 70
     0
 62
     7
  6
Continuous
370
    -3
390
F
  0
LAYER
  5
B4
330
2
100
AcDbSymbolTableRecord
100
AcDbLayerTableRecord
  2
Layer0004
 70
     0
 62
     7
  6
Continuous
370
    -3
390
F
  0
LAYER
  5
B5
330
2
100
AcDbSymbolTableRecord
100
AcDbLayerTableRecord
  2
Layer0005
 70
     0
 62
     7
  6
Continuous
370
    -3
390
F
  0
LAYER
  5
B6
330
2
100
AcDbSymbolTableRecord
100
AcDbLayerTableRecord
  2
Layer0006
 70
     0
 62
     7
  6
Continuous
370
    -3
390
F
  0
ENDTAB
  0
TABLE
  2
STYLE
  5
3
330
0
100
AcDbSymbolTable
 70
     1
  0
STYLE
  5
11
330
3
100
AcDbSymbolTableRecord
100
AcDbTextStyleTableRecord
  2
Standard
 70
     0
 40
0.0
 41
1.0
 50
0.0
 71
     0
 42
0.2
  3
txt.shx
  4
bigfont.shx
  0
ENDTAB
  0
TABLE
  2
VIEW
  5
6
330
0
100
AcDbSymbolTable
 70
     0
  0
ENDTAB
  0
TABLE
  2
UCS
  5
7
330
0
100
AcDbSymbolTable
 70
     0
  0
ENDTAB
  0
TABLE
  2
APPID
  5
9
330
0
100
AcDbSymbolTable
 70
     3
  0
APPID
  5
12
330
9
100
AcDbSymbolTableRecord
100
AcDbRegAppTableRecord
  2
ACAD
 70
     0
  0
APPID
  5
6E
330
9
100
AcDbSymbolTableRecord
100
AcDbRegAppTableRecord
  2
DaFusionOut
 70
     0
  0
APPID
  5
2D4
330
9
100
AcDbSymbolTableRecord
100
AcDbRegAppTableRecord
  2
ACAD_MLEADERVER
 70
     0
  0
ENDTAB
  0
TABLE
  2
DIMSTYLE
  5
A
330
0
100
AcDbSymbolTable
 70
     1
100
AcDbDimStyleTable
  0
DIMSTYLE
105
27
330
A
100
AcDbSymbolTableRecord
100
AcDbDimStyleTableRecord
  2
Standard
 70
     0
178
     0
340
11
  0
ENDTAB
  0
TABLE
  2
BLOCK_RECORD
  5
1
330
0
100
AcDbSymbolTable
 70
    17
  0
BLOCK_RECORD
  5
1F
330
1
100
AcDbSymbolTableRecord
100
AcDbBlockTableRecord
  2
*Model_Space
340
22
  0
BLOCK_RECORD
  5
1B
330
1
100
AcDbSymbolTableRecord
100
AcDbBlockTableRecord
  2
*Paper_Space
340
1E
  0
BLOCK_RECORD
  5
23
330
1
100
AcDbSymbolTableRecord
100
AcDbBlockTableRecord
  2
*Paper_Space0
340
26
  0
BLOCK_RECORD
  5
B8
330
1
100
AcDbSymbolTableRecord
100
AcDbBlockTableRecord
  2
DC_GROUP_NAB-32_1
340
0
102
{BLKREFS
331
287
102
}
  0
BLOCK_RECORD
  5
BB
330
1
100
AcDbSymbolTableRecord
100
AcDbBlockTableRecord
  2
DC_GROUP_NAB-32_2
340
0
102
{BLKREFS
331
288
102
}
  0
BLOCK_RECORD
  5
BE
330
1
100
AcDbSymbolTableRecord
100
AcDbBlockTableRecord
  2
DC_GROUP_NAB-32_3
340
0
102
{BLKREFS
331
289
102
}
  0
BLOCK_RECORD
  5
C1
330
1
100
AcDbSymbolTableRecord
100
AcDbBlockTableRecord
  2
DC_GROUP_NAB-32_4
340
0
102
{BLKREFS
331
28A
102
}
  0
BLOCK_RECORD
  5
C4
330
1
100
AcDbSymbolTableRecord
100
AcDbBlockTableRecord
  2
DC_GROUP_NAB-32_5
340
0
102
{BLKREFS
331
28B
102
}
  0
BLOCK_RECORD
  5
C7
330
1
100
AcDbSymbolTableRecord
100
AcDbBlockTableRecord
  2
DC_GROUP_NAB-32_6
340
0
102
{BLKREFS
331
28C
102
}
  0
BLOCK_RECORD
  5
CA
330
1
100
AcDbSymbolTableRecord
100
AcDbBlockTableRecord
  2
DC_GROUP_NAB-32_7
340
0
102
{BLKREFS
331
118
102
}
  0
BLOCK_RECORD
  5
CD
330
1
100
AcDbSymbolTableRecord
100
AcDbBlockTableRecord
  2
DC_GROUP_NAB-32_8
340
0
102
{BLKREFS
331
119
102
}
  0
BLOCK_RECORD
  5
D0
330
1
100
AcDbSymbolTableRecord
100
AcDbBlockTableRecord
  2
DC_GROUP_NAB-32_9
340
0
102
{BLKREFS
331
11A
102
}
  0
BLOCK_RECORD
  5
D3
330
1
100
AcDbSymbolTableRecord
100
AcDbBlockTableRecord
  2
DC_GROUP_NAB-32_10
340
0
102
{BLKREFS
331
11B
102
}
  0
BLOCK_RECORD
  5
D6
330
1
100
AcDbSymbolTableRecord
100
AcDbBlockTableRecord
  2
DC_GROUP_NAB-32_11
340
0
102
{BLKREFS
331
11C
102
}
  0
BLOCK_RECORD
  5
D9
330
1
100
AcDbSymbolTableRecord
100
AcDbBlockTableRecord
  2
DC_GROUP_NAB-32_12
340
0
102
{BLKREFS
331
11D
102
}
  0
BLOCK_RECORD
  5
DC
330
1
100
AcDbSymbolTableRecord
100
AcDbBlockTableRecord
  2
DC_GROUP_NAB-32_13
340
0
102
{BLKREFS
331
28D
102
}
  0
BLOCK_RECORD
  5
DF
330
1
100
AcDbSymbolTableRecord
100
AcDbBlockTableRecord
  2
DC_GROUP_NAB-32_14
340
0
102
{BLKREFS
331
28E
102
}
  0
BLOCK_RECORD
  5
E2
330
1
100
AcDbSymbolTableRecord
100
AcDbBlockTableRecord
  2
DC_GROUP_NAB-32_15
340
0
102
{BLKREFS
331
28F
102
}
  0
BLOCK_RECORD
  5
E5
330
1
100
AcDbSymbolTableRecord
100
AcDbBlockTableRecord
  2
DC_GROUP_NAB-32_16
340
0
102
{BLKREFS
331
290
102
}
  0
ENDTAB
  0
ENDSEC
  0
SECTION
  2
BLOCKS
  0
BLOCK
  5
20
330
1F
100
AcDbEntity
  8
0
100
AcDbBlockBegin
  2
*Model_Space
 70
     0
 10
0.0
 20
0.0
 30
0.0
  3
*Model_Space
  1

  0
ENDBLK
  5
21
330
1F
100
AcDbEntity
  8
0
100
AcDbBlockEnd
  0
BLOCK
  5
1C
330
1B
100
AcDbEntity
 67
     1
  8
0
100
AcDbBlockBegin
  2
*Paper_Space
 70
     0
 10
0.0
 20
0.0
 30
0.0
  3
*Paper_Space
  1

  0
ENDBLK
  5
1D
330
1B
100
AcDbEntity
 67
     1
  8
0
100
AcDbBlockEnd
  0
BLOCK
  5
24
330
23
100
AcDbEntity
  8
0
100
AcDbBlockBegin
  2
*Paper_Space0
 70
     0
 10
0.0
 20
0.0
 30
0.0
  3
*Paper_Space0
  1

  0
ENDBLK
  5
25
330
23
100
AcDbEntity
  8
0
100
AcDbBlockEnd
  0
BLOCK
  5
B9
330
B8
100
AcDbEntity
  8
0
100
AcDbBlockBegin
  2
DC_GROUP_NAB-32_1
 70
     0
 10
0.0
 20
0.0
 30
0.0
  3
DC_GROUP_NAB-32_1
  1

  0
LINE
  5
E8
330
B8
100
AcDbEntity
  8
Layer0005
  6
Continuous
 62
    91
370
    25
100
AcDbLine
 10
-95.76327640741675
 20
-11.95566037735853
 30
0.0
 11
-71.26328403681113
 21
-11.95566037735853
 31
0.0
  0
LINE
  5
E9
330
B8
100
AcDbEntity
  8
Layer0005
  6
Continuous
 62
    91
370
    25
100
AcDbLine
 10
-95.76327640741681
 20
-21.45566037735847
 30
0.0
 11
-71.26328403681113
 21
-21.45566037735847
 31
0.0
  0
LINE
  5
EA
330
B8
100
AcDbEntity
  8
Layer0005
  6
Continuous
 62
    91
370
    25
100
AcDbLine
 10
-98.96328091588919
 20
-22.50566056809333
 30
0.0
 11
-100.4632808658442
 21
-22.50566056809339
 31
0.0
  0
LINE
  5
EB
330
B8
100
AcDbEntity
  8
Layer0005
  6
Continuous
 62
    91
370
    25
100
AcDbLine
 10
-100.4632808658442
 20
-22.50566056809339
 30
0.0
 11
-100.4632811042628
 21
-10.90566018662366
 31
0.0
  0
LINE
  5
EC
330
B8
100
AcDbEntity
  8
Layer0005
  6
Continuous
 62
    91
370
    25
100
AcDbLine
 10
-100.4632811042628
 20
-10.90566018662366
 30
0.0
 11
-98.96328105421782
 21
-10.90566018662361
 31
0.0
  0
LINE
  5
ED
330
B8
100
AcDbEntity
  8
Layer0005
  6
Continuous
 62
    91
370
    25
100
AcDbLine
 10
-98.96328105421782
 20
-10.90566018662361
 30
0.0
 11
-98.96328091588919
 21
-22.50566056809333
 31
0.0
  0
LINE
  5
EE
330
B8
100
AcDbEntity
  8
Layer0005
  6
Continuous
 62
    91
370
    25
100
AcDbLine
 10
-100.4632809850535
 20
-15.95566037735847
 30
0.0
 11
-98.96328097610984
 21
-17.45566037735853
 31
0.0
  0
LINE
  5
EF
330
B8
100
AcDbEntity
  8
Layer0005
  6
Continuous
 62
    91
370
    25
100
AcDbLine
 10
-100.4632809850535
 20
-22.47916037735848
 30
0.0
 11
-104.9589657600535
 21
-22.47916037735848
 31
0.0
  0
LINE
  5
F0
330
B8
100
AcDbEntity
  8
Layer0005
  6
Continuous
 62
    91
370
    25
100
AcDbLine
 10
-100.4632809850535
 20
-10.93216037735851
 30
0.0
 11
-104.9589657600535
 21
-10.93216037735851
 31
0.0
  0
LINE
  5
F1
330
B8
100
AcDbEntity
  8
Layer0005
  6
Continuous
 62
    91
370
    25
100
AcDbLine
 10
-104.9589657600535
 20
-22.47916037735848
 30
0.0
 11
-105.4632809850535
 21
-21.6056603773585
 31
0.0
  0
LINE
  5
F2
330
B8
100
AcDbEntity
  8
Layer0005
  6
Continuous
 62
    91
370
    25
100
AcDbLine
 10
-104.9589657600535
 20
-10.93216037735851
 30
0.0
 11
-105.4632809850535
 21
-11.80566037735855
 31
0.0
  0
LINE
  5
F3
330
B8
100
AcDbEntity
  8
Layer0005
  6
Continuous
 62
    91
370
    25
100
AcDbLine
 10
-105.4632809850535
 20
-11.80566037735855
 30
0.0
 11
-105.4632809850535
 21
-21.6056603773585
 31
0.0
  0
ARC
  5
F4
330
B8
100
AcDbEntity
  8
Layer0005
  6
Continuous
 62
    91
370
    25
100
AcDbCircle
 10
-95.85206598505351
 20
-16.70566037735847
 30
0.0
 40
9.553479999999999
100
AcDbArc
 50
162.4111099243163
 51
197.5888900756834
  0
ARC
  5
F5
330
B8
100
AcDbEntity
  8
Layer0005
  6
Continuous
 62
    91
370
    25
100
AcDbCircle
 10
-102.8497059850535
 20
-21.03578537735848
 30
0.0
 40
2.55584
100
AcDbArc
 50
145.6111106872558
 51
214.3888854980467
  0
ARC
  5
F6
330
B8
100
AcDbEntity
  8
Layer0005
  6
Continuous
 62
    91
370
    25
100
AcDbCircle
 10
-102.8497059850536
 20
-12.37553537735852
 30
0.0
 40
2.55584
100
AcDbArc
 50
145.6111106872558
 51
214.3888854980467
  0
LINE
  5
F7
330
B8
100
AcDbEntity
  8
Layer0005
  6
Continuous
 62
    91
370
    25
100
AcDbLine
 10
-100.4632809850535
 20
-19.59241037735853
 30
0.0
 11
-104.9589657600536
 21
-19.59241037735853
 31
0.0
  0
LINE
  5
F8
330
B8
100
AcDbEntity
  8
Layer0005
  6
Continuous
 62
    91
370
    25
100
AcDbLine
 10
-100.4632809850535
 20
-13.81891037735852
 30
0.0
 11
-104.9589657600535
 21
-13.81891037735852
 31
0.0
  0
LINE
  5
F9
330
B8
100
AcDbEntity
  8
0
  6
Continuous
 62
    91
370
    25
100
AcDbLine
 10
-105.4632809850535
 20
-14.31687545022095
 30
0.0
 11
-105.8520659850535
 21
-14.70566049656776
 31
0.0
  0
LINE
  5
FA
330
B8
100
AcDbEntity
  8
0
  6
Continuous
 62
    91
370
    25
100
AcDbLine
 10
-105.8520659850535
 20
-14.70566049656776
 30
0.0
 11
-105.8520659850535
 21
-18.70566061577705
 31
0.0
  0
LINE
  5
FB
330
B8
100
AcDbEntity
  8
0
  6
Continuous
 62
    91
370
    25
100
AcDbLine
 10
-105.8520659850535
 20
-18.70566061577705
 30
0.0
 11
-105.4632809850535
 21
-19.09444552308355
 31
0.0
  0
ENDBLK
  5
BA
330
B8
100
AcDbEntity
  8
0
100
AcDbBlockEnd
  0
BLOCK
  5
BC
330
BB
100
AcDbEntity
  8
0
100
AcDbBlockBegin
  2
DC_GROUP_NAB-32_2
 70
     0
 10
0.0
 20
0.0
 30
0.0
  3
DC_GROUP_NAB-32_2
  1

  0
CIRCLE
  5
FC
330
BB
100
AcDbEntity
  8
0
  6
Continuous
 62
     4
370
    13
100
AcDbCircle
 10
11.06691080979417
 20
60.11414477603623
 30
0.0
 40
2.458500000000001
  0
CIRCLE
  5
FD
330
BB
100
AcDbEntity
  8
0
  6
Continuous
 62
    91
370
    25
100
AcDbCircle
 10
11.06691080979417
 20
60.11414477603623
 30
0.0
 40
3.0
  0
ENDBLK
  5
BD
330
BB
100
AcDbEntity
  8
0
100
AcDbBlockEnd
  0
BLOCK
  5
BF
330
BE
100
AcDbEntity
  8
0
100
AcDbBlockBegin
  2
DC_GROUP_NAB-32_3
 70
     0
 10
0.0
 20
0.0
 30
0.0
  3
DC_GROUP_NAB-32_3
  1

  0
CIRCLE
  5
FE
330
BE
100
AcDbEntity
  8
0
  6
Continuous
 62
     4
370
    13
100
AcDbCircle
 10
11.06691080979412
 20
-3.525465530753049
 30
0.0
 40
2.458500000000001
  0
CIRCLE
  5
FF
330
BE
100
AcDbEntity
  8
0
  6
Continuous
 62
    91
370
    25
100
AcDbCircle
 10
11.06691080979412
 20
-3.525465530753049
 30
0.0
 40
3.0
  0
ENDBLK
  5
C0
330
BE
100
AcDbEntity
  8
0
100
AcDbBlockEnd
  0
BLOCK
  5
C2
330
C1
100
AcDbEntity
  8
0
100
AcDbBlockBegin
  2
DC_GROUP_NAB-32_4
 70
     0
 10
0.0
 20
0.0
 30
0.0
  3
DC_GROUP_NAB-32_4
  1

  0
CIRCLE
  5
100
330
C1
100
AcDbEntity
  8
0
  6
Continuous
 62
     4
370
    13
100
AcDbCircle
 10
74.70652111658342
 20
-3.525465530753085
 30
0.0
 40
2.458500000000001
  0
CIRCLE
  5
101
330
C1
100
AcDbEntity
  8
0
  6
Continuous
 62
    91
370
    25
100
AcDbCircle
 10
74.70652111658342
 20
-3.525465530753085
 30
0.0
 40
3.0
  0
ENDBLK
  5
C3
330
C1
100
AcDbEntity
  8
0
100
AcDbBlockEnd
  0
BLOCK
  5
C5
330
C4
100
AcDbEntity
  8
0
100
AcDbBlockBegin
  2
DC_GROUP_NAB-32_5
 70
     0
 10
0.0
 20
0.0
 30
0.0
  3
DC_GROUP_NAB-32_5
  1

  0
CIRCLE
  5
102
330
C4
100
AcDbEntity
  8
0
  6
Continuous
 62
     4
370
    13
100
AcDbCircle
 10
74.70652111658343
 20
60.1141447760362
 30
0.0
 40
2.458500000000001
  0
CIRCLE
  5
103
330
C4
100
AcDbEntity
  8
0
  6
Continuous
 62
    91
370
    25
100
AcDbCircle
 10
74.70652111658343
 20
60.1141447760362
 30
0.0
 40
3.0
  0
ENDBLK
  5
C6
330
C4
100
AcDbEntity
  8
0
100
AcDbBlockEnd
  0
BLOCK
  5
C8
330
C7
100
AcDbEntity
  8
0
100
AcDbBlockBegin
  2
DC_GROUP_NAB-32_6
 70
     0
 10
0.0
 20
0.0
 30
0.0
  3
DC_GROUP_NAB-32_6
  1

  0
LINE
  5
104
330
C7
100
AcDbEntity
  8
Layer0001
  6
Continuous
 62
    91
370
    25
100
AcDbLine
 10
-50.81426192728698
 20
-22.45563737735832
 30
0.0
 11
-54.81328403681121
 21
-22.45563737735832
 31
0.0
  0
LINE
  5
105
330
C7
100
AcDbEntity
  8
Layer0001
  6
Continuous
 62
    91
370
    25
100
AcDbLine
 10
-54.81328403681121
 20
-10.95568337735832
 30
0.0
 11
-50.81426192728698
 21
-10.95568337735832
 31
0.0
  0
LINE
  5
106
330
C7
100
AcDbEntity
  8
Layer0001
  6
Continuous
 62
    91
370
    25
100
AcDbLine
 10
-50.61330083681122
 20
-21.70564037735832
 30
0.0
 11
-50.81426192728698
 21
-22.45563737735832
 31
0.0
  0
LINE
  5
107
330
C7
100
AcDbEntity
  8
Layer0001
  6
Continuous
 62
    91
370
    25
100
AcDbLine
 10
-50.81426192728698
 20
-10.95568337735832
 30
0.0
 11
-50.61330083681122
 21
-11.70568037735832
 31
0.0
  0
LINE
  5
108
330
C7
100
AcDbEntity
  8
Layer0001
  6
Continuous
 62
    91
370
    25
100
AcDbLine
 10
-50.81426192728698
 20
-10.95582927140248
 30
0.0
 11
-54.81328403681121
 21
-10.95582927140248
 31
0.0
  0
LINE
  5
109
330
C7
100
AcDbEntity
  8
Layer0001
  6
Continuous
 62
    91
370
    25
100
AcDbLine
 10
-54.81328403681121
 20
-10.95582927140248
 30
0.0
 11
-54.81328403681121
 21
-22.45549148331417
 31
0.0
  0
LINE
  5
10A
330
C7
100
AcDbEntity
  8
Layer0001
  6
Continuous
 62
    91
370
    25
100
AcDbLine
 10
-54.81328403681121
 20
-22.45549148331417
 30
0.0
 11
-50.81426192728698
 21
-22.45549148331416
 31
0.0
  0
LINE
  5
10B
330
C7
100
AcDbEntity
  8
Layer0001
  6
Continuous
 62
    91
370
    25
100
AcDbLine
 10
-50.61330083681122
 20
-11.70568037735832
 30
0.0
 11
-50.61330083681122
 21
-21.70564037735832
 31
0.0
  0
LINE
  5
10C
330
C7
100
AcDbEntity
  8
Layer0001
  6
Continuous
 62
    91
370
    25
100
AcDbLine
 10
-49.91330363681122
 20
-21.70564037735832
 30
0.0
 11
-50.61330083681122
 21
-21.70564037735832
 31
0.0
  0
LINE
  5
10D
330
C7
100
AcDbEntity
  8
Layer0001
  6
Continuous
 62
    91
370
    25
100
AcDbLine
 10
-50.61330083681122
 20
-11.70568037735832
 30
0.0
 11
-49.91330363681122
 21
-11.70568037735832
 31
0.0
  0
LINE
  5
10E
330
C7
100
AcDbEntity
  8
Layer0001
  6
Continuous
 62
    91
370
    25
100
AcDbLine
 10
-54.81328403681121
 20
-13.79527208648593
 30
0.0
 11
-50.81426192728698
 21
-13.79527208648593
 31
0.0
  0
LINE
  5
10F
330
C7
100
AcDbEntity
  8
Layer0001
  6
Continuous
 62
    91
370
    25
100
AcDbLine
 10
-50.81426192728698
 20
-13.79527208648593
 30
0.0
 11
-50.81426192728698
 21
-13.86621756227488
 31
0.0
  0
LINE
  5
110
330
C7
100
AcDbEntity
  8
Layer0001
  6
Continuous
 62
    91
370
    25
100
AcDbLine
 10
-50.81426192728698
 20
-13.86621756227488
 30
0.0
 11
-54.81328403681121
 21
-13.86621756227488
 31
0.0
  0
LINE
  5
111
330
C7
100
AcDbEntity
  8
Layer0001
  6
Continuous
 62
    91
370
    25
100
AcDbLine
 10
-50.81426192728698
 20
-19.54510319244177
 30
0.0
 11
-50.81426192728698
 21
-19.61604866823072
 31
0.0
  0
LINE
  5
112
330
C7
100
AcDbEntity
  8
Layer0001
  6
Continuous
 62
    91
370
    25
100
AcDbLine
 10
-50.81426192728698
 20
-19.61604866823072
 30
0.0
 11
-54.81328403681121
 21
-19.61604866823072
 31
0.0
  0
LINE
  5
113
330
C7
100
AcDbEntity
  8
Layer0001
  6
Continuous
 62
    91
370
    25
100
AcDbLine
 10
-54.81328403681121
 20
-19.54510319244177
 30
0.0
 11
-50.81426192728698
 21
-19.54510319244177
 31
0.0
  0
LINE
  5
114
330
C7
100
AcDbEntity
  8
Layer0001
  6
Continuous
 62
    91
370
    25
100
AcDbLine
 10
-49.71330443681121
 20
-11.90567957735832
 30
0.0
 11
-49.71330443681121
 21
-21.50564117735832
 31
0.0
  0
ARC
  5
115
330
C7
100
AcDbEntity
  8
Layer0001
  6
Continuous
 62
    91
370
    25
100
AcDbCircle
 10
-49.91330363681122
 20
-21.50564117735832
 30
0.0
 40
0.1999992000000006
100
AcDbArc
 50
270.0
 51
0.0
  0
ARC
  5
116
330
C7
100
AcDbEntity
  8
Layer0001
  6
Continuous
 62
    91
370
    25
100
AcDbCircle
 10
-49.91330363681122
 20
-11.90567957735832
 30
0.0
 40
0.1999992000000002
100
AcDbArc
 50
0.000000000000007
 51
90.00000000000001
  0
LINE
  5
117
330
C7
100
AcDbEntity
  8
Layer0002
  6
Continuous
 62
    91
370
    25
100
AcDbLine
 10
-49.91330363681122
 20
-11.70568037735832
 30
0.0
 11
-49.91330363681122
 21
-21.70564037735832
 31
0.0
  0
INSERT
  5
118
330
C7
100
AcDbEntity
  8
Layer0001
  6
Continuous
100
AcDbBlockReference
  2
DC_GROUP_NAB-32_7
 10
0.0
 20
0.0
 30
0.0
  0
INSERT
  5
119
330
C7
100
AcDbEntity
  8
Layer0001
  6
Continuous
100
AcDbBlockReference
  2
DC_GROUP_NAB-32_8
 10
0.0
 20
0.0
 30
0.0
  0
INSERT
  5
11A
330
C7
100
AcDbEntity
  8
Layer0001
  6
Continuous
100
AcDbBlockReference
  2
DC_GROUP_NAB-32_9
 10
0.0
 20
0.0
 30
0.0
  0
INSERT
  5
11B
330
C7
100
AcDbEntity
  8
Layer0001
  6
Continuous
100
AcDbBlockReference
  2
DC_GROUP_NAB-32_10
 10
0.0
 20
0.0
 30
0.0
  0
INSERT
  5
11C
330
C7
100
AcDbEntity
  8
Layer0001
  6
Continuous
100
AcDbBlockReference
  2
DC_GROUP_NAB-32_11
 10
0.0
 20
0.0
 30
0.0
  0
INSERT
  5
11D
330
C7
100
AcDbEntity
  8
Layer0001
  6
Continuous
100
AcDbBlockReference
  2
DC_GROUP_NAB-32_12
 10
0.0
 20
0.0
 30
0.0
  0
ENDBLK
  5
C9
330
C7
100
AcDbEntity
  8
0
100
AcDbBlockEnd
  0
BLOCK
  5
CB
330
CA
100
AcDbEntity
  8
0
100
AcDbBlockBegin
  2
DC_GROUP_NAB-32_7
 70
     0
 10
0.0
 20
0.0
 30
0.0
  3
DC_GROUP_NAB-32_7
  1

  0
LINE
  5
11E
330
CA
100
AcDbEntity
  8
Layer0001
  6
Continuous
 62
    91
370
    25
100
AcDbLine
 10
-50.61330083681122
 20
-12.3755506789442
 30
0.0
 11
-50.61934982506398
 21
-12.13875350161561
 31
0.0
  0
LINE
  5
11F
330
CA
100
AcDbEntity
  8
Layer0001
  6
Continuous
 62
    91
370
    25
100
AcDbLine
 10
-50.61934982506398
 20
-12.13875350161561
 30
0.0
 11
-50.63716803090077
 21
-11.90206604624863
 31
0.0
  0
LINE
  5
120
330
CA
100
AcDbEntity
  8
Layer0001
  6
Continuous
 62
    91
370
    25
100
AcDbLine
 10
-50.63716803090077
 20
-11.90206604624863
 30
0.0
 11
-50.66626231593932
 21
-11.66568997517334
 31
0.0
  0
LINE
  5
121
330
CA
100
AcDbEntity
  8
Layer0001
  6
Continuous
 62
    91
370
    25
100
AcDbLine
 10
-50.66626231593932
 20
-11.66568997517334
 30
0.0
 11
-50.70619893749955
 21
-11.42861005360407
 31
0.0
  0
LINE
  5
122
330
CA
100
AcDbEntity
  8
Layer0001
  6
Continuous
 62
    91
370
    25
100
AcDbLine
 10
-50.70619893749955
 20
-11.42861005360407
 30
0.0
 11
-50.75587029000936
 21
-11.19196184974681
 31
0.0
  0
LINE
  5
123
330
CA
100
AcDbEntity
  8
Layer0001
  6
Continuous
 62
    91
370
    25
100
AcDbLine
 10
-50.75587029000936
 20
-11.19196184974681
 30
0.0
 11
-50.81426192728698
 21
-10.95582927140248
 31
0.0
  0
ENDBLK
  5
CC
330
CA
100
AcDbEntity
  8
0
100
AcDbBlockEnd
  0
BLOCK
  5
CE
330
CD
100
AcDbEntity
  8
0
100
AcDbBlockBegin
  2
DC_GROUP_NAB-32_8
 70
     0
 10
0.0
 20
0.0
 30
0.0
  3
DC_GROUP_NAB-32_8
  1

  0
LINE
  5
124
330
CD
100
AcDbEntity
  8
Layer0001
  6
Continuous
 62
    91
370
    25
100
AcDbLine
 10
-50.81426192728698
 20
-22.45549148331416
 30
0.0
 11
-50.75610723737988
 21
-22.22039276804743
 31
0.0
  0
LINE
  5
125
330
CD
100
AcDbEntity
  8
Layer0001
  6
Continuous
 62
    91
370
    25
100
AcDbLine
 10
-50.75610723737988
 20
-22.22039276804743
 30
0.0
 11
-50.70659239490475
 21
-21.98478288846824
 31
0.0
  0
LINE
  5
126
330
CD
100
AcDbEntity
  8
Layer0001
  6
Continuous
 62
    91
370
    25
100
AcDbLine
 10
-50.70659239490475
 20
-21.98478288846824
 30
0.0
 11
-50.66671900785799
 21
-21.7487443830557
 31
0.0
  0
LINE
  5
127
330
CD
100
AcDbEntity
  8
Layer0001
  6
Continuous
 62
    91
370
    25
100
AcDbLine
 10
-50.66671900785799
 20
-21.7487443830557
 30
0.0
 11
-50.63737657522103
 21
-21.51133348958281
 31
0.0
  0
LINE
  5
128
330
CD
100
AcDbEntity
  8
Layer0001
  6
Continuous
 62
    91
370
    25
100
AcDbLine
 10
-50.63737657522103
 20
-21.51133348958281
 30
0.0
 11
-50.6194033536776
 21
-21.27360734998648
 31
0.0
  0
LINE
  5
129
330
CD
100
AcDbEntity
  8
Layer0001
  6
Continuous
 62
    91
370
    25
100
AcDbLine
 10
-50.6194033536776
 20
-21.27360734998648
 30
0.0
 11
-50.61330083681122
 21
-21.03577007577244
 31
0.0
  0
ENDBLK
  5
CF
330
CD
100
AcDbEntity
  8
0
100
AcDbBlockEnd
  0
BLOCK
  5
D1
330
D0
100
AcDbEntity
  8
0
100
AcDbBlockBegin
  2
DC_GROUP_NAB-32_9
 70
     0
 10
0.0
 20
0.0
 30
0.0
  3
DC_GROUP_NAB-32_9
  1

  0
LINE
  5
12A
330
D0
100
AcDbEntity
  8
Layer0001
  6
Continuous
 62
    91
370
    25
100
AcDbLine
 10
-50.61330083681122
 20
-21.03577007577244
 30
0.0
 11
-50.61934982506398
 21
-20.79897289844385
 31
0.0
  0
LINE
  5
12B
330
D0
100
AcDbEntity
  8
Layer0001
  6
Continuous
 62
    91
370
    25
100
AcDbLine
 10
-50.61934982506398
 20
-20.79897289844385
 30
0.0
 11
-50.63716803090077
 21
-20.56228544307687
 31
0.0
  0
LINE
  5
12C
330
D0
100
AcDbEntity
  8
Layer0001
  6
Continuous
 62
    91
370
    25
100
AcDbLine
 10
-50.63716803090077
 20
-20.56228544307687
 30
0.0
 11
-50.66626231593932
 21
-20.32590937200158
 31
0.0
  0
LINE
  5
12D
330
D0
100
AcDbEntity
  8
Layer0001
  6
Continuous
 62
    91
370
    25
100
AcDbLine
 10
-50.66626231593932
 20
-20.32590937200158
 30
0.0
 11
-50.70619893749955
 21
-20.08882945043231
 31
0.0
  0
LINE
  5
12E
330
D0
100
AcDbEntity
  8
Layer0001
  6
Continuous
 62
    91
370
    25
100
AcDbLine
 10
-50.70619893749955
 20
-20.08882945043231
 30
0.0
 11
-50.75587029000936
 21
-19.85218124657505
 31
0.0
  0
LINE
  5
12F
330
D0
100
AcDbEntity
  8
Layer0001
  6
Continuous
 62
    91
370
    25
100
AcDbLine
 10
-50.75587029000936
 20
-19.85218124657505
 30
0.0
 11
-50.81426192728698
 21
-19.61604866823072
 31
0.0
  0
ENDBLK
  5
D2
330
D0
100
AcDbEntity
  8
0
100
AcDbBlockEnd
  0
BLOCK
  5
D4
330
D3
100
AcDbEntity
  8
0
100
AcDbBlockBegin
  2
DC_GROUP_NAB-32_10
 70
     0
 10
0.0
 20
0.0
 30
0.0
  3
DC_GROUP_NAB-32_10
  1

  0
LINE
  5
130
330
D3
100
AcDbEntity
  8
Layer0001
  6
Continuous
 62
    91
370
    25
100
AcDbLine
 10
-50.81426192728698
 20
-19.54510319244177
 30
0.0
 11
-50.77161627299091
 21
-19.20715638279373
 31
0.0
  0
LINE
  5
131
330
D3
100
AcDbEntity
  8
Layer0001
  6
Continuous
 62
    91
370
    25
100
AcDbLine
 10
-50.77161627299091
 20
-19.20715638279373
 30
0.0
 11
-50.73328766817274
 21
-18.86863834907768
 31
0.0
  0
LINE
  5
132
330
D3
100
AcDbEntity
  8
Layer0001
  6
Continuous
 62
    91
370
    25
100
AcDbLine
 10
-50.73328766817274
 20
-18.86863834907768
 30
0.0
 11
-50.6822336012178
 21
-18.32996914992251
 31
0.0
  0
LINE
  5
133
330
D3
100
AcDbEntity
  8
Layer0001
  6
Continuous
 62
    91
370
    25
100
AcDbLine
 10
-50.6822336012178
 20
-18.32996914992251
 30
0.0
 11
-50.64445658927511
 21
-17.79021729216144
 31
0.0
  0
LINE
  5
134
330
D3
100
AcDbEntity
  8
Layer0001
  6
Continuous
 62
    91
370
    25
100
AcDbLine
 10
-50.64445658927511
 20
-17.79021729216144
 30
0.0
 11
-50.62118750325966
 21
-17.24815709137912
 31
0.0
  0
LINE
  5
135
330
D3
100
AcDbEntity
  8
Layer0001
  6
Continuous
 62
    91
370
    25
100
AcDbLine
 10
-50.62118750325966
 20
-17.24815709137912
 30
0.0
 11
-50.61330083681122
 21
-16.70566037735832
 31
0.0
  0
ENDBLK
  5
D5
330
D3
100
AcDbEntity
  8
0
100
AcDbBlockEnd
  0
BLOCK
  5
D7
330
D6
100
AcDbEntity
  8
0
100
AcDbBlockBegin
  2
DC_GROUP_NAB-32_11
 70
     0
 10
0.0
 20
0.0
 30
0.0
  3
DC_GROUP_NAB-32_11
  1

  0
LINE
  5
136
330
D6
100
AcDbEntity
  8
Layer0001
  6
Continuous
 62
    91
370
    25
100
AcDbLine
 10
-50.81426192728698
 20
-13.79527208648593
 30
0.0
 11
-50.75610723737988
 21
-13.56017337121919
 31
0.0
  0
LINE
  5
137
330
D6
100
AcDbEntity
  8
Layer0001
  6
Continuous
 62
    91
370
    25
100
AcDbLine
 10
-50.75610723737988
 20
-13.56017337121919
 30
0.0
 11
-50.70659239490475
 21
-13.32456349164001
 31
0.0
  0
LINE
  5
138
330
D6
100
AcDbEntity
  8
Layer0001
  6
Continuous
 62
    91
370
    25
100
AcDbLine
 10
-50.70659239490475
 20
-13.32456349164001
 30
0.0
 11
-50.66671900785799
 21
-13.08852498622747
 31
0.0
  0
LINE
  5
139
330
D6
100
AcDbEntity
  8
Layer0001
  6
Continuous
 62
    91
370
    25
100
AcDbLine
 10
-50.66671900785799
 20
-13.08852498622747
 30
0.0
 11
-50.63737657522103
 21
-12.85111409275458
 31
0.0
  0
LINE
  5
13A
330
D6
100
AcDbEntity
  8
Layer0001
  6
Continuous
 62
    91
370
    25
100
AcDbLine
 10
-50.63737657522103
 20
-12.85111409275458
 30
0.0
 11
-50.6194033536776
 21
-12.61338795315825
 31
0.0
  0
LINE
  5
13B
330
D6
100
AcDbEntity
  8
Layer0001
  6
Continuous
 62
    91
370
    25
100
AcDbLine
 10
-50.6194033536776
 20
-12.61338795315825
 30
0.0
 11
-50.61330083681122
 21
-12.3755506789442
 31
0.0
  0
ENDBLK
  5
D8
330
D6
100
AcDbEntity
  8
0
100
AcDbBlockEnd
  0
BLOCK
  5
DA
330
D9
100
AcDbEntity
  8
0
100
AcDbBlockBegin
  2
DC_GROUP_NAB-32_12
 70
     0
 10
0.0
 20
0.0
 30
0.0
  3
DC_GROUP_NAB-32_12
  1

  0
LINE
  5
13C
330
D9
100
AcDbEntity
  8
Layer0001
  6
Continuous
 62
    91
370
    25
100
AcDbLine
 10
-50.61330083681122
 20
-16.70566037735832
 30
0.0
 11
-50.61934982506398
 21
-16.23206602270115
 31
0.0
  0
LINE
  5
13D
330
D9
100
AcDbEntity
  8
Layer0001
  6
Continuous
 62
    91
370
    25
100
AcDbLine
 10
-50.61934982506398
 20
-16.23206602270115
 30
0.0
 11
-50.63716803090077
 21
-15.75869111196719
 31
0.0
  0
LINE
  5
13E
330
D9
100
AcDbEntity
  8
Layer0001
  6
Continuous
 62
    91
370
    25
100
AcDbLine
 10
-50.63716803090077
 20
-15.75869111196719
 30
0.0
 11
-50.66626231593932
 21
-15.2859389698166
 31
0.0
  0
LINE
  5
13F
330
D9
100
AcDbEntity
  8
Layer0001
  6
Continuous
 62
    91
370
    25
100
AcDbLine
 10
-50.66626231593932
 20
-15.2859389698166
 30
0.0
 11
-50.70619893749955
 21
-14.81177912667807
 31
0.0
  0
LINE
  5
140
330
D9
100
AcDbEntity
  8
Layer0001
  6
Continuous
 62
    91
370
    25
100
AcDbLine
 10
-50.70619893749955
 20
-14.81177912667807
 30
0.0
 11
-50.75587029000936
 21
-14.33848271896354
 31
0.0
  0
LINE
  5
141
330
D9
100
AcDbEntity
  8
Layer0001
  6
Continuous
 62
    91
370
    25
100
AcDbLine
 10
-50.75587029000936
 20
-14.33848271896354
 30
0.0
 11
-50.81426192728698
 21
-13.86621756227488
 31
0.0
  0
ENDBLK
  5
DB
330
D9
100
AcDbEntity
  8
0
100
AcDbBlockEnd
  0
BLOCK
  5
DD
330
DC
100
AcDbEntity
  8
0
100
AcDbBlockBegin
  2
DC_GROUP_NAB-32_13
 70
     0
 10
0.0
 20
0.0
 30
0.0
  3
DC_GROUP_NAB-32_13
  1

  0
LINE
  5
142
330
DC
100
AcDbEntity
  8
Layer0003
  6
Continuous
 62
    91
370
    25
100
AcDbLine
 10
11.06691080977038
 20
64.11412877607754
 30
0.0
 11
11.06691080980528
 21
63.11414477613812
 31
0.0
  0
LINE
  5
143
330
DC
100
AcDbEntity
  8
Layer0003
  6
Continuous
 62
    91
370
    25
100
AcDbLine
 10
8.46883459847696
 20
61.6141447761814
 30
0.0
 11
7.602823051039085
 21
62.11413677607754
 31
0.0
  0
LINE
  5
144
330
DC
100
AcDbEntity
  8
Layer0003
  6
Continuous
 62
    91
370
    25
100
AcDbLine
 10
13.66498702118359
 20
61.61414477609483
 30
0.0
 11
14.53099856850167
 21
62.11413677607754
 31
0.0
  0
LINE
  5
145
330
DC
100
AcDbEntity
  8
Layer0003
  6
Continuous
 62
    91
370
    25
100
AcDbLine
 10
11.06691080980528
 20
57.11414477613812
 30
0.0
 11
11.06691080977037
 21
56.11416077607754
 31
0.0
  0
LINE
  5
146
330
DC
100
AcDbEntity
  8
Layer0003
  6
Continuous
 62
    91
370
    25
100
AcDbLine
 10
7.602823051039078
 20
58.11415277607755
 30
0.0
 11
8.468834598476956
 21
58.61414477609483
 31
0.0
  0
LINE
  5
147
330
DC
100
AcDbEntity
  8
Layer0003
  6
Continuous
 62
    91
370
    25
100
AcDbLine
 10
14.53099856850167
 20
58.11415277607753
 30
0.0
 11
13.66498702118358
 21
58.61414477618139
 31
0.0
  0
CIRCLE
  5
148
330
DC
100
AcDbEntity
  8
Layer0003
  6
Continuous
 62
    91
370
    25
100
AcDbCircle
 10
11.06691080977038
 20
60.11414477607754
 30
0.0
 40
3.999983999999996
  0
CIRCLE
  5
149
330
DC
100
AcDbEntity
  8
Layer0003
  6
Continuous
 62
    91
370
    25
100
AcDbCircle
 10
11.06691080977038
 20
60.11414477607754
 30
0.0
 40
4.999979999999997
  0
ARC
  5
14A
330
DC
100
AcDbEntity
  8
Layer0001
  6
Continuous
 62
    91
370
    25
100
AcDbCircle
 10
11.06691080980528
 20
60.11414477613812
 30
0.0
 40
5.74997700006991
100
AcDbArc
 50
239.5918457939563
 51
240.4081542060447
  0
ARC
  5
14B
330
DC
100
AcDbEntity
  8
Layer0001
  6
Continuous
 62
    91
370
    25
100
AcDbCircle
 10
11.0669108097468
 20
60.11414477611858
 30
0.0
 40
5.749977000047324
100
AcDbArc
 50
299.5918457939532
 51
300.4081542060449
  0
LINE
  5
14C
330
DC
100
AcDbEntity
  8
Layer0001
  6
Continuous
 62
    91
370
    25
100
AcDbLine
 10
8.15652251889798
 20
65.07316438653301
 30
0.0
 11
5.317079703814539
 21
60.15510516562207
 31
0.0
  0
ARC
  5
14D
330
DC
100
AcDbEntity
  8
Layer0001
  6
Continuous
 62
    91
370
    25
100
AcDbCircle
 10
11.06691080980337
 20
60.11414477607761
 30
0.0
 40
5.749977000032994
100
AcDbArc
 50
179.5918457939537
 51
180.4081542060475
  0
LINE
  5
14E
330
DC
100
AcDbEntity
  8
Layer0001
  6
Continuous
 62
    91
370
    25
100
AcDbLine
 10
5.317079703814539
 20
60.07318438653301
 30
0.0
 11
8.15652251889798
 21
55.15512516562207
 31
0.0
  0
LINE
  5
14F
330
DC
100
AcDbEntity
  8
Layer0001
  6
Continuous
 62
    91
370
    25
100
AcDbLine
 10
8.22746799468693
 20
55.11416477607753
 30
0.0
 11
13.90635362485382
 21
55.11416477607754
 31
0.0
  0
LINE
  5
150
330
DC
100
AcDbEntity
  8
Layer0001
  6
Continuous
 62
    91
370
    25
100
AcDbLine
 10
13.97729910064277
 20
55.15512516562208
 30
0.0
 11
16.81674191572622
 21
60.07318438653301
 31
0.0
  0
ARC
  5
151
330
DC
100
AcDbEntity
  8
Layer0001
  6
Continuous
 62
    91
370
    25
100
AcDbCircle
 10
11.0669108097204
 20
60.11414477607755
 30
0.0
 40
5.749977000049979
100
AcDbArc
 50
359.5918457939543
 51
0.4081542060456992
  0
LINE
  5
152
330
DC
100
AcDbEntity
  8
Layer0001
  6
Continuous
 62
    91
370
    25
100
AcDbLine
 10
16.81674191572622
 20
60.15510516562207
 30
0.0
 11
13.97729910064277
 21
65.07316438653301
 31
0.0
  0
ARC
  5
153
330
DC
100
AcDbEntity
  8
Layer0001
  6
Continuous
 62
    91
370
    25
100
AcDbCircle
 10
11.06691080975149
 20
60.11414477604464
 30
0.0
 40
5.749977000037936
100
AcDbArc
 50
59.59184579395441
 51
60.40815420604759
  0
LINE
  5
154
330
DC
100
AcDbEntity
  8
Layer0001
  6
Continuous
 62
    91
370
    25
100
AcDbLine
 10
13.90635362485382
 20
65.11412477607755
 30
0.0
 11
8.227467994686926
 21
65.11412477607755
 31
0.0
  0
ARC
  5
155
330
DC
100
AcDbEntity
  8
Layer0001
  6
Continuous
 62
    91
370
    25
100
AcDbCircle
 10
11.06691080979417
 20
60.11414477603623
 30
0.0
 40
5.74997700004768
100
AcDbArc
 50
119.5918457939536
 51
120.4081542060453
  0
ENDBLK
  5
DE
330
DC
100
AcDbEntity
  8
0
100
AcDbBlockEnd
  0
BLOCK
  5
E0
330
DF
100
AcDbEntity
  8
0
100
AcDbBlockBegin
  2
DC_GROUP_NAB-32_14
 70
     0
 10
0.0
 20
0.0
 30
0.0
  3
DC_GROUP_NAB-32_14
  1

  0
LINE
  5
156
330
DF
100
AcDbEntity
  8
Layer0003
  6
Continuous
 62
    91
370
    25
100
AcDbLine
 10
11.06691080977033
 20
0.474518469288256
 30
0.0
 11
11.06691080980523
 21
-0.5254655306511609
 31
0.0
  0
LINE
  5
157
330
DF
100
AcDbEntity
  8
Layer0003
  6
Continuous
 62
    91
370
    25
100
AcDbLine
 10
8.46883459847691
 20
-2.025465530607875
 30
0.0
 11
7.602823051039035
 21
-1.525473530711736
 31
0.0
  0
LINE
  5
158
330
DF
100
AcDbEntity
  8
Layer0003
  6
Continuous
 62
    91
370
    25
100
AcDbLine
 10
13.66498702118354
 20
-2.025465530694447
 30
0.0
 11
14.53099856850162
 21
-1.525473530711736
 31
0.0
  0
LINE
  5
159
330
DF
100
AcDbEntity
  8
Layer0003
  6
Continuous
 62
    91
370
    25
100
AcDbLine
 10
11.06691080980523
 20
-6.525465530651161
 30
0.0
 11
11.06691080977032
 21
-7.525449530711739
 31
0.0
  0
LINE
  5
15A
330
DF
100
AcDbEntity
  8
Layer0003
  6
Continuous
 62
    91
370
    25
100
AcDbLine
 10
7.602823051039028
 20
-5.525457530711734
 30
0.0
 11
8.468834598476906
 21
-5.025465530694447
 31
0.0
  0
LINE
  5
15B
330
DF
100
AcDbEntity
  8
Layer0003
  6
Continuous
 62
    91
370
    25
100
AcDbLine
 10
14.53099856850162
 20
-5.525457530711748
 30
0.0
 11
13.66498702118353
 21
-5.025465530607889
 31
0.0
  0
CIRCLE
  5
15C
330
DF
100
AcDbEntity
  8
Layer0003
  6
Continuous
 62
    91
370
    25
100
AcDbCircle
 10
11.06691080977033
 20
-3.525465530711742
 30
0.0
 40
3.999983999999996
  0
CIRCLE
  5
15D
330
DF
100
AcDbEntity
  8
Layer0003
  6
Continuous
 62
    91
370
    25
100
AcDbCircle
 10
11.06691080977033
 20
-3.525465530711742
 30
0.0
 40
4.999979999999997
  0
ARC
  5
15E
330
DF
100
AcDbEntity
  8
Layer0001
  6
Continuous
 62
    91
370
    25
100
AcDbCircle
 10
11.06691080980523
 20
-3.525465530651161
 30
0.0
 40
5.74997700006991
100
AcDbArc
 50
239.5918457939563
 51
240.4081542060447
  0
ARC
  5
15F
330
DF
100
AcDbEntity
  8
Layer0001
  6
Continuous
 62
    91
370
    25
100
AcDbCircle
 10
11.06691080974675
 20
-3.525465530670701
 30
0.0
 40
5.749977000047324
100
AcDbArc
 50
299.5918457939532
 51
300.4081542060449
  0
LINE
  5
160
330
DF
100
AcDbEntity
  8
Layer0001
  6
Continuous
 62
    91
370
    25
100
AcDbLine
 10
8.15652251889793
 20
1.433554079743729
 30
0.0
 11
5.317079703814489
 21
-3.484505141167205
 31
0.0
  0
ARC
  5
161
330
DF
100
AcDbEntity
  8
Layer0001
  6
Continuous
 62
    91
370
    25
100
AcDbCircle
 10
11.06691080980332
 20
-3.525465530711671
 30
0.0
 40
5.749977000032994
100
AcDbArc
 50
179.5918457939537
 51
180.4081542060475
  0
LINE
  5
162
330
DF
100
AcDbEntity
  8
Layer0001
  6
Continuous
 62
    91
370
    25
100
AcDbLine
 10
5.317079703814489
 20
-3.566425920256265
 30
0.0
 11
8.15652251889793
 21
-8.484485141167212
 31
0.0
  0
LINE
  5
163
330
DF
100
AcDbEntity
  8
Layer0001
  6
Continuous
 62
    91
370
    25
100
AcDbLine
 10
8.22746799468688
 20
-8.52544553071175
 30
0.0
 11
13.90635362485378
 21
-8.525445530711735
 31
0.0
  0
LINE
  5
164
330
DF
100
AcDbEntity
  8
Layer0001
  6
Continuous
 62
    91
370
    25
100
AcDbLine
 10
13.97729910064272
 20
-8.484485141167198
 30
0.0
 11
16.81674191572617
 21
-3.566425920256265
 31
0.0
  0
ARC
  5
165
330
DF
100
AcDbEntity
  8
Layer0001
  6
Continuous
 62
    91
370
    25
100
AcDbCircle
 10
11.06691080972035
 20
-3.525465530711728
 30
0.0
 40
5.749977000049979
100
AcDbArc
 50
359.5918457939543
 51
0.4081542060456992
  0
LINE
  5
166
330
DF
100
AcDbEntity
  8
Layer0001
  6
Continuous
 62
    91
370
    25
100
AcDbLine
 10
16.81674191572617
 20
-3.484505141167205
 30
0.0
 11
13.97729910064272
 21
1.433554079743729
 31
0.0
  0
ARC
  5
167
330
DF
100
AcDbEntity
  8
Layer0001
  6
Continuous
 62
    91
370
    25
100
AcDbCircle
 10
11.06691080975144
 20
-3.52546553074464
 30
0.0
 40
5.749977000037936
100
AcDbArc
 50
59.59184579395441
 51
60.40815420604759
  0
LINE
  5
168
330
DF
100
AcDbEntity
  8
Layer0001
  6
Continuous
 62
    91
370
    25
100
AcDbLine
 10
13.90635362485378
 20
1.474514469288266
 30
0.0
 11
8.227467994686876
 21
1.474514469288266
 31
0.0
  0
ARC
  5
169
330
DF
100
AcDbEntity
  8
Layer0001
  6
Continuous
 62
    91
370
    25
100
AcDbCircle
 10
11.06691080979412
 20
-3.525465530753053
 30
0.0
 40
5.74997700004768
100
AcDbArc
 50
119.5918457939536
 51
120.4081542060453
  0
ENDBLK
  5
E1
330
DF
100
AcDbEntity
  8
0
100
AcDbBlockEnd
  0
BLOCK
  5
E3
330
E2
100
AcDbEntity
  8
0
100
AcDbBlockBegin
  2
DC_GROUP_NAB-32_15
 70
     0
 10
0.0
 20
0.0
 30
0.0
  3
DC_GROUP_NAB-32_15
  1

  0
LINE
  5
16A
330
E2
100
AcDbEntity
  8
Layer0003
  6
Continuous
 62
    91
370
    25
100
AcDbLine
 10
74.70652111655963
 20
0.4745184692882205
 30
0.0
 11
74.70652111659453
 21
-0.5254655306511964
 31
0.0
  0
LINE
  5
16B
330
E2
100
AcDbEntity
  8
Layer0003
  6
Continuous
 62
    91
370
    25
100
AcDbLine
 10
72.1084449052662
 20
-2.02546553060791
 30
0.0
 11
71.24243335782833
 21
-1.525473530711771
 31
0.0
  0
LINE
  5
16C
330
E2
100
AcDbEntity
  8
Layer0003
  6
Continuous
 62
    91
370
    25
100
AcDbLine
 10
77.30459732797283
 20
-2.025465530694483
 30
0.0
 11
78.17060887529091
 21
-1.525473530711771
 31
0.0
  0
LINE
  5
16D
330
E2
100
AcDbEntity
  8
Layer0003
  6
Continuous
 62
    91
370
    25
100
AcDbLine
 10
74.70652111659453
 20
-6.525465530651196
 30
0.0
 11
74.70652111655961
 21
-7.525449530711775
 31
0.0
  0
LINE
  5
16E
330
E2
100
AcDbEntity
  8
Layer0003
  6
Continuous
 62
    91
370
    25
100
AcDbLine
 10
71.24243335782832
 20
-5.525457530711769
 30
0.0
 11
72.1084449052662
 21
-5.025465530694483
 31
0.0
  0
LINE
  5
16F
330
E2
100
AcDbEntity
  8
Layer0003
  6
Continuous
 62
    91
370
    25
100
AcDbLine
 10
78.17060887529091
 20
-5.525457530711783
 30
0.0
 11
77.30459732797283
 21
-5.025465530607924
 31
0.0
  0
CIRCLE
  5
170
330
E2
100
AcDbEntity
  8
Layer0003
  6
Continuous
 62
    91
370
    25
100
AcDbCircle
 10
74.70652111655963
 20
-3.525465530711777
 30
0.0
 40
3.999983999999996
  0
CIRCLE
  5
171
330
E2
100
AcDbEntity
  8
Layer0003
  6
Continuous
 62
    91
370
    25
100
AcDbCircle
 10
74.70652111655963
 20
-3.525465530711777
 30
0.0
 40
4.999979999999997
  0
ARC
  5
172
330
E2
100
AcDbEntity
  8
Layer0001
  6
Continuous
 62
    91
370
    25
100
AcDbCircle
 10
74.70652111659453
 20
-3.525465530651196
 30
0.0
 40
5.74997700006991
100
AcDbArc
 50
239.5918457939563
 51
240.4081542060447
  0
ARC
  5
173
330
E2
100
AcDbEntity
  8
Layer0001
  6
Continuous
 62
    91
370
    25
100
AcDbCircle
 10
74.70652111653604
 20
-3.525465530670736
 30
0.0
 40
5.749977000047324
100
AcDbArc
 50
299.5918457939532
 51
300.4081542060449
  0
LINE
  5
174
330
E2
100
AcDbEntity
  8
Layer0001
  6
Continuous
 62
    91
370
    25
100
AcDbLine
 10
71.79613282568722
 20
1.433554079743693
 30
0.0
 11
68.95669001060378
 21
-3.48450514116724
 31
0.0
  0
ARC
  5
175
330
E2
100
AcDbEntity
  8
Layer0001
  6
Continuous
 62
    91
370
    25
100
AcDbCircle
 10
74.70652111659261
 20
-3.525465530711706
 30
0.0
 40
5.749977000032994
100
AcDbArc
 50
179.5918457939537
 51
180.4081542060475
  0
LINE
  5
176
330
E2
100
AcDbEntity
  8
Layer0001
  6
Continuous
 62
    91
370
    25
100
AcDbLine
 10
68.95669001060378
 20
-3.5664259202563
 30
0.0
 11
71.79613282568722
 21
-8.484485141167248
 31
0.0
  0
LINE
  5
177
330
E2
100
AcDbEntity
  8
Layer0001
  6
Continuous
 62
    91
370
    25
100
AcDbLine
 10
71.86707830147617
 20
-8.525445530711785
 30
0.0
 11
77.54596393164307
 21
-8.525445530711771
 31
0.0
  0
LINE
  5
178
330
E2
100
AcDbEntity
  8
Layer0001
  6
Continuous
 62
    91
370
    25
100
AcDbLine
 10
77.61690940743202
 20
-8.484485141167234
 30
0.0
 11
80.45635222251546
 21
-3.5664259202563
 31
0.0
  0
ARC
  5
179
330
E2
100
AcDbEntity
  8
Layer0001
  6
Continuous
 62
    91
370
    25
100
AcDbCircle
 10
74.70652111650963
 20
-3.525465530711763
 30
0.0
 40
5.749977000049979
100
AcDbArc
 50
359.5918457939543
 51
0.4081542060456992
  0
LINE
  5
17A
330
E2
100
AcDbEntity
  8
Layer0001
  6
Continuous
 62
    91
370
    25
100
AcDbLine
 10
80.45635222251546
 20
-3.48450514116724
 30
0.0
 11
77.61690940743202
 21
1.433554079743693
 31
0.0
  0
ARC
  5
17B
330
E2
100
AcDbEntity
  8
Layer0001
  6
Continuous
 62
    91
370
    25
100
AcDbCircle
 10
74.70652111654074
 20
-3.525465530744675
 30
0.0
 40
5.749977000037936
100
AcDbArc
 50
59.59184579395441
 51
60.40815420604759
  0
LINE
  5
17C
330
E2
100
AcDbEntity
  8
Layer0001
  6
Continuous
 62
    91
370
    25
100
AcDbLine
 10
77.54596393164307
 20
1.474514469288231
 30
0.0
 11
71.86707830147617
 21
1.474514469288231
 31
0.0
  0
ARC
  5
17D
330
E2
100
AcDbEntity
  8
Layer0001
  6
Continuous
 62
    91
370
    25
100
AcDbCircle
 10
74.70652111658342
 20
-3.525465530753088
 30
0.0
 40
5.74997700004768
100
AcDbArc
 50
119.5918457939536
 51
120.4081542060453
  0
ENDBLK
  5
E4
330
E2
100
AcDbEntity
  8
0
100
AcDbBlockEnd
  0
BLOCK
  5
E6
330
E5
100
AcDbEntity
  8
0
100
AcDbBlockBegin
  2
DC_GROUP_NAB-32_16
 70
     0
 10
0.0
 20
0.0
 30
0.0
  3
DC_GROUP_NAB-32_16
  1

  0
LINE
  5
17E
330
E5
100
AcDbEntity
  8
Layer0003
  6
Continuous
 62
    91
370
    25
100
AcDbLine
 10
74.70652111655964
 20
64.11412877607751
 30
0.0
 11
74.70652111659456
 21
63.11414477613809
 31
0.0
  0
LINE
  5
17F
330
E5
100
AcDbEntity
  8
Layer0003
  6
Continuous
 62
    91
370
    25
100
AcDbLine
 10
72.10844490526623
 20
61.61414477618138
 30
0.0
 11
71.24243335782836
 21
62.11413677607752
 31
0.0
  0
LINE
  5
180
330
E5
100
AcDbEntity
  8
Layer0003
  6
Continuous
 62
    91
370
    25
100
AcDbLine
 10
77.30459732797286
 20
61.6141447760948
 30
0.0
 11
78.17060887529092
 21
62.11413677607752
 31
0.0
  0
LINE
  5
181
330
E5
100
AcDbEntity
  8
Layer0003
  6
Continuous
 62
    91
370
    25
100
AcDbLine
 10
74.70652111659454
 20
57.11414477613809
 30
0.0
 11
74.70652111655963
 21
56.11416077607751
 31
0.0
  0
LINE
  5
182
330
E5
100
AcDbEntity
  8
Layer0003
  6
Continuous
 62
    91
370
    25
100
AcDbLine
 10
71.24243335782833
 20
58.1141527760775
 30
0.0
 11
72.10844490526623
 21
58.6141447760948
 31
0.0
  0
LINE
  5
183
330
E5
100
AcDbEntity
  8
Layer0003
  6
Continuous
 62
    91
370
    25
100
AcDbLine
 10
78.17060887529092
 20
58.1141527760775
 30
0.0
 11
77.30459732797286
 21
58.61414477618135
 31
0.0
  0
CIRCLE
  5
184
330
E5
100
AcDbEntity
  8
Layer0003
  6
Continuous
 62
    91
370
    25
100
AcDbCircle
 10
74.70652111655964
 20
60.1141447760775
 30
0.0
 40
3.999983999999996
  0
CIRCLE
  5
185
330
E5
100
AcDbEntity
  8
Layer0003
  6
Continuous
 62
    91
370
    25
100
AcDbCircle
 10
74.70652111655964
 20
60.1141447760775
 30
0.0
 40
4.999979999999997
  0
ARC
  5
186
330
E5
100
AcDbEntity
  8
Layer0001
  6
Continuous
 62
    91
370
    25
100
AcDbCircle
 10
74.70652111659456
 20
60.11414477613809
 30
0.0
 40
5.74997700006991
100
AcDbArc
 50
239.5918457939563
 51
240.4081542060447
  0
ARC
  5
187
330
E5
100
AcDbEntity
  8
Layer0001
  6
Continuous
 62
    91
370
    25
100
AcDbCircle
 10
74.70652111653607
 20
60.11414477611854
 30
0.0
 40
5.749977000047324
100
AcDbArc
 50
299.5918457939532
 51
300.4081542060449
  0
LINE
  5
188
330
E5
100
AcDbEntity
  8
Layer0001
  6
Continuous
 62
    91
370
    25
100
AcDbLine
 10
71.79613282568724
 20
65.07316438653297
 30
0.0
 11
68.95669001060381
 21
60.15510516562205
 31
0.0
  0
ARC
  5
189
330
E5
100
AcDbEntity
  8
Layer0001
  6
Continuous
 62
    91
370
    25
100
AcDbCircle
 10
74.70652111659263
 20
60.11414477607758
 30
0.0
 40
5.749977000032994
100
AcDbArc
 50
179.5918457939537
 51
180.4081542060475
  0
LINE
  5
18A
330
E5
100
AcDbEntity
  8
Layer0001
  6
Continuous
 62
    91
370
    25
100
AcDbLine
 10
68.95669001060381
 20
60.07318438653297
 30
0.0
 11
71.79613282568724
 21
55.15512516562202
 31
0.0
  0
LINE
  5
18B
330
E5
100
AcDbEntity
  8
Layer0001
  6
Continuous
 62
    91
370
    25
100
AcDbLine
 10
71.8670783014762
 20
55.1141647760775
 30
0.0
 11
77.54596393164309
 21
55.1141647760775
 31
0.0
  0
LINE
  5
18C
330
E5
100
AcDbEntity
  8
Layer0001
  6
Continuous
 62
    91
370
    25
100
AcDbLine
 10
77.61690940743205
 20
55.15512516562205
 30
0.0
 11
80.45635222251548
 21
60.07318438653297
 31
0.0
  0
ARC
  5
18D
330
E5
100
AcDbEntity
  8
Layer0001
  6
Continuous
 62
    91
370
    25
100
AcDbCircle
 10
74.70652111650966
 20
60.11414477607752
 30
0.0
 40
5.749977000049979
100
AcDbArc
 50
359.5918457939543
 51
0.4081542060456992
  0
LINE
  5
18E
330
E5
100
AcDbEntity
  8
Layer0001
  6
Continuous
 62
    91
370
    25
100
AcDbLine
 10
80.45635222251548
 20
60.15510516562205
 30
0.0
 11
77.61690940743205
 21
65.07316438653297
 31
0.0
  0
ARC
  5
18F
330
E5
100
AcDbEntity
  8
Layer0001
  6
Continuous
 62
    91
370
    25
100
AcDbCircle
 10
74.70652111654076
 20
60.11414477604461
 30
0.0
 40
5.749977000037936
100
AcDbArc
 50
59.59184579395441
 51
60.40815420604759
  0
LINE
  5
190
330
E5
100
AcDbEntity
  8
Layer0001
  6
Continuous
 62
    91
370
    25
100
AcDbLine
 10
77.54596393164309
 20
65.11412477607752
 30
0.0
 11
71.8670783014762
 21
65.11412477607752
 31
0.0
  0
ARC
  5
191
330
E5
100
AcDbEntity
  8
Layer0001
  6
Continuous
 62
    91
370
    25
100
AcDbCircle
 10
74.70652111658343
 20
60.1141447760362
 30
0.0
 40
5.74997700004768
100
AcDbArc
 50
119.5918457939536
 51
120.4081542060453
  0
ENDBLK
  5
E7
330
E5
100
AcDbEntity
  8
0
100
AcDbBlockEnd
  0
ENDSEC
  0
SECTION
  2
ENTITIES
  0
LINE
  5
192
330
1F
100
AcDbEntity
  8
Layer0004
  6
CENTER
 62
     4
370
    25
100
AcDbLine
 10
-13.36328403681124
 20
28.29433962264156
 30
0.0
 11
99.13671596318876
 21
28.29433962264156
 31
0.0
  0
LINE
  5
193
330
1F
100
AcDbEntity
  8
Layer0004
  6
CENTER
 62
     4
370
    25
100
AcDbLine
 10
42.88671596318876
 20
84.54433962264156
 30
0.0
 11
42.88671596318876
 21
-27.95566037735844
 31
0.0
  0
CIRCLE
  5
194
330
1F
100
AcDbEntity
  8
Layer0004
  6
CENTER
 62
     4
370
    25
100
AcDbCircle
 10
42.88671596318878
 20
28.29433962264157
 30
0.0
 40
45.0
  0
LINE
  5
195
330
1F
100
AcDbEntity
  8
Layer0004
  6
CENTER
 62
     4
370
    25
100
AcDbLine
 10
69.83631104961661
 20
1.344744536213668
 30
0.0
 11
79.29076651987214
 21
-8.109710934041857
 31
0.0
  0
LINE
  5
196
330
1F
100
AcDbEntity
  8
Layer0004
  6
CENTER
 62
     4
370
    25
100
AcDbLine
 10
69.83631104961668
 20
55.24393470906938
 30
0.0
 11
79.29076651987222
 21
64.6983901793249
 31
0.0
  0
LINE
  5
197
330
1F
100
AcDbEntity
  8
Layer0004
  6
CENTER
 62
     4
370
    25
100
AcDbLine
 10
15.93712087676098
 20
55.24393470906948
 30
0.0
 11
6.482665406505458
 21
64.69839017932502
 31
0.0
  0
LINE
  5
198
330
1F
100
AcDbEntity
  8
Layer0004
  6
CENTER
 62
     4
370
    25
100
AcDbLine
 10
15.93712087676086
 20
1.344744536213769
 30
0.0
 11
6.482665406505326
 21
-8.109710934041754
 31
0.0
  0
ARC
  5
199
330
1F
100
AcDbEntity
  8
Layer0004
  6
CENTER
 62
     4
370
    25
100
AcDbCircle
 10
42.88671596318876
 20
28.29433962264156
 30
0.0
 40
40.0
100
AcDbArc
 50
97.62004001818427
 51
125.6006547345674
  0
LINE
  5
19A
330
1F
100
AcDbEntity
  8
Layer0004
  6
CENTER
 62
     4
370
    25
100
AcDbLine
 10
63.17688005503543
 20
84.04110730201928
 30
0.0
 11
55.18034025843552
 21
62.07079477709081
 31
0.0
  0
LINE
  5
19B
330
1F
100
AcDbEntity
  8
Layer0004
  6
CENTER
 62
     4
370
    25
100
AcDbLine
 10
24.02370342978872
 20
72.73281232601505
 30
0.0
 11
29.2138075575664
 21
60.50569323771842
 31
0.0
  0
LINE
  5
19C
330
1F
100
AcDbEntity
  8
Layer0004
  6
CENTER
 62
     4
370
    25
100
AcDbLine
 10
-110.7632840368111
 20
28.29433962264153
 30
0.0
 11
-51.81328403681123
 21
28.29433962264125
 31
0.0
  0
LINE
  5
19D
330
1F
100
AcDbEntity
  8
Layer0004
  6
CENTER
 62
     4
370
    25
100
AcDbLine
 10
-59.14455113140404
 20
73.29433962264113
 30
0.0
 11
-52.61650290591407
 21
73.29433962264113
 31
0.0
  0
LINE
  5
19E
330
1F
100
AcDbEntity
  8
Layer0004
  6
Continuous
 62
     4
370
    25
100
AcDbLine
 10
-90.56328403681127
 20
54.29433962264113
 30
0.0
 11
-91.06328403681121
 21
54.29433962264113
 31
0.0
  0
LINE
  5
19F
330
1F
100
AcDbEntity
  8
Layer0004
  6
Continuous
 62
     4
370
    25
100
AcDbLine
 10
-91.06328403681121
 20
54.29433962264113
 30
0.0
 11
-91.06328403681121
 21
51.79433962264113
 31
0.0
  0
LINE
  5
1A0
330
1F
100
AcDbEntity
  8
Layer0004
  6
Continuous
 62
     4
370
    25
100
AcDbLine
 10
-91.06328403681121
 20
51.79433962264113
 30
0.0
 11
-90.56328403681127
 21
51.79433962264113
 31
0.0
  0
LINE
  5
1A1
330
1F
100
AcDbEntity
  8
Layer0004
  6
Continuous
 62
     4
370
    25
100
AcDbLine
 10
-90.56328403681127
 20
2.294339622641189
 30
0.0
 11
-91.06328403681127
 21
2.294339622641189
 31
0.0
  0
LINE
  5
1A2
330
1F
100
AcDbEntity
  8
Layer0004
  6
Continuous
 62
     4
370
    25
100
AcDbLine
 10
-91.06328403681127
 20
2.294339622641189
 30
0.0
 11
-91.06328403681127
 21
4.794339622641189
 31
0.0
  0
LINE
  5
1A3
330
1F
100
AcDbEntity
  8
Layer0004
  6
Continuous
 62
     4
370
    25
100
AcDbLine
 10
-91.06328403681127
 20
4.794339622641189
 30
0.0
 11
-90.56328403681121
 21
4.794339622641189
 31
0.0
  0
LINE
  5
1A4
330
1F
100
AcDbEntity
  8
Layer0004
  6
Continuous
 62
     4
370
    25
100
AcDbLine
 10
-95.76328403681126
 20
51.79433962264113
 30
0.0
 11
-95.26328403681126
 21
51.79433962264119
 31
0.0
  0
LINE
  5
1A5
330
1F
100
AcDbEntity
  8
Layer0004
  6
Continuous
 62
     4
370
    25
100
AcDbLine
 10
-95.26328403681126
 20
51.79433962264119
 30
0.0
 11
-95.26328403681126
 21
54.29433962264113
 31
0.0
  0
LINE
  5
1A6
330
1F
100
AcDbEntity
  8
Layer0004
  6
Continuous
 62
     4
370
    25
100
AcDbLine
 10
-95.26328403681126
 20
54.29433962264113
 30
0.0
 11
-95.76328403681126
 21
54.29433962264113
 31
0.0
  0
LINE
  5
1A7
330
1F
100
AcDbEntity
  8
Layer0004
  6
Continuous
 62
     4
370
    25
100
AcDbLine
 10
-95.76328403681131
 20
4.794339622641189
 30
0.0
 11
-95.26328403681126
 21
4.794339622641189
 31
0.0
  0
LINE
  5
1A8
330
1F
100
AcDbEntity
  8
Layer0004
  6
Continuous
 62
     4
370
    25
100
AcDbLine
 10
-95.26328403681126
 20
4.794339622641189
 30
0.0
 11
-95.26328403681126
 21
2.294339622641189
 31
0.0
  0
LINE
  5
1A9
330
1F
100
AcDbEntity
  8
Layer0004
  6
Continuous
 62
     4
370
    25
100
AcDbLine
 10
-95.26328403681126
 20
2.294339622641189
 30
0.0
 11
-95.76328403681126
 21
2.294339622641189
 31
0.0
  0
LINE
  5
1AA
330
1F
100
AcDbEntity
  8
Layer0005
  6
Continuous
 62
    91
370
    25
100
AcDbLine
 10
-71.2632840368111
 20
-11.95566037735847
 30
0.0
 11
-71.26328403681109
 21
-16.70566037735836
 31
0.0
  0
LINE
  5
1AB
330
1F
100
AcDbEntity
  8
Layer0005
  6
Continuous
 62
    91
370
    25
100
AcDbLine
 10
-71.26328403681109
 20
-13.70566037735847
 30
0.0
 11
-61.26328403681114
 21
-13.70566037735841
 31
0.0
  0
LINE
  5
1AC
330
1F
100
AcDbEntity
  8
Layer0005
  6
Continuous
 62
    91
370
    25
100
AcDbLine
 10
-71.26328403681111
 20
-21.45566037735841
 30
0.0
 11
-71.26328403681113
 21
-16.70566037735853
 31
0.0
  0
LINE
  5
1AD
330
1F
100
AcDbEntity
  8
Layer0005
  6
Continuous
 62
    91
370
    25
100
AcDbLine
 10
-71.26328403681109
 20
-19.70566037735841
 30
0.0
 11
-61.26328403681114
 21
-19.70566037735841
 31
0.0
  0
LINE
  5
1AE
330
1F
100
AcDbEntity
  8
Layer0005
  6
Continuous
 62
    91
370
    25
100
AcDbLine
 10
-49.71330443681121
 20
-19.7056603773583
 30
0.0
 11
-45.2632840368111
 21
-19.7056603773583
 31
0.0
  0
LINE
  5
1AF
330
1F
100
AcDbEntity
  8
Layer0005
  6
Continuous
 62
    91
370
    25
100
AcDbLine
 10
-49.71330443681121
 20
-13.7056603773583
 30
0.0
 11
-45.26328403681113
 21
-13.7056603773583
 31
0.0
  0
LINE
  5
1B0
330
1F
100
AcDbEntity
  8
Layer0005
  6
Continuous
 62
    91
370
    25
100
AcDbLine
 10
-45.2632840368111
 20
-19.7056603773583
 30
0.0
 11
-44.2632840368111
 21
-18.7056603773583
 31
0.0
  0
LINE
  5
1B1
330
1F
100
AcDbEntity
  8
Layer0005
  6
Continuous
 62
    91
370
    25
100
AcDbLine
 10
-45.26328403681113
 20
-13.7056603773583
 30
0.0
 11
-44.26328403681116
 21
-14.7056603773583
 31
0.0
  0
LINE
  5
1B2
330
1F
100
AcDbEntity
  8
Layer0005
  6
Continuous
 62
    91
370
    25
100
AcDbLine
 10
-44.26328403681116
 20
-14.7056603773583
 30
0.0
 11
-44.2632840368111
 21
-18.7056603773583
 31
0.0
  0
LINE
  5
1B3
330
1F
100
AcDbEntity
  8
Layer0005
  6
Continuous
 62
    91
370
    25
100
AcDbLine
 10
-45.26328403681113
 20
-13.7056603773583
 30
0.0
 11
-45.2632840368111
 21
-19.7056603773583
 31
0.0
  0
LINE
  5
1B4
330
1F
100
AcDbEntity
  8
Layer0005
  6
Continuous
 62
    91
370
    25
100
AcDbLine
 10
-61.26328403681109
 20
-13.70566037735836
 30
0.0
 11
-61.26328403681109
 21
-19.70566037735836
 31
0.0
  0
LINE
  5
1B5
330
1F
100
AcDbEntity
  8
Layer0005
  6
Continuous
 62
    91
370
    25
100
AcDbLine
 10
-61.26328403681109
 20
-13.70566037735836
 30
0.0
 11
-57.11328403681125
 21
-13.70566037735832
 31
0.0
  0
LINE
  5
1B6
330
1F
100
AcDbEntity
  8
Layer0005
  6
Continuous
 62
    91
370
    25
100
AcDbLine
 10
-61.26328403681111
 20
-19.7056603773583
 30
0.0
 11
-57.11328403681124
 21
-19.7056603773583
 31
0.0
  0
LINE
  5
1B7
330
1F
100
AcDbEntity
  8
Layer0005
  6
Continuous
 62
    91
370
    25
100
AcDbLine
 10
-98.963288683612
 20
-10.90566018662355
 30
0.0
 11
-98.96328854528338
 21
-22.50566056809328
 31
0.0
  0
LINE
  5
1B8
330
1F
100
AcDbEntity
  8
Layer0005
  6
Continuous
 62
     4
370
    25
100
AcDbLine
 10
-49.71330443681121
 20
-19.10566037735833
 30
0.0
 11
-44.66328403681109
 21
-19.10566037735833
 31
0.0
  0
LINE
  5
1B9
330
1F
100
AcDbEntity
  8
Layer0005
  6
Continuous
 62
     4
370
    25
100
AcDbLine
 10
-49.71330443681121
 20
-14.30566037735832
 30
0.0
 11
-44.66328403681111
 21
-14.30566037735832
 31
0.0
  0
LINE
  5
1BA
330
1F
100
AcDbEntity
  8
Layer0005
  6
Continuous
 62
     4
370
    25
100
AcDbLine
 10
-61.26328403681113
 20
-14.30566037735832
 30
0.0
 11
-57.11328403681124
 21
-14.30566037735832
 31
0.0
  0
LINE
  5
1BB
330
1F
100
AcDbEntity
  8
Layer0005
  6
Continuous
 62
     4
370
    25
100
AcDbLine
 10
-61.2632840368111
 20
-19.10566037735833
 30
0.0
 11
-57.11328403681124
 21
-19.1056603773583
 31
0.0
  0
LINE
  5
1BC
330
1F
100
AcDbEntity
  8
Layer0005
  6
CENTER
 62
     4
370
    25
100
AcDbLine
 10
-85.99624949640774
 20
-10.95566037735853
 30
0.0
 11
-56.59768745240386
 21
-10.95566037735853
 31
0.0
  0
LINE
  5
1BD
330
1F
100
AcDbEntity
  8
Layer0005
  6
CENTER
 62
     4
370
    25
100
AcDbLine
 10
-85.95034915732226
 20
-22.45566037735853
 30
0.0
 11
-56.59768745240386
 21
-22.45566037735853
 31
0.0
  0
LINE
  5
1BE
330
1F
100
AcDbEntity
  8
Layer0005
  6
CENTER
 62
     4
370
    25
100
AcDbLine
 10
-56.59768745240385
 20
-12.83066037735841
 30
0.0
 11
-71.6640718357063
 21
-12.83066037735847
 31
0.0
  0
LINE
  5
1BF
330
1F
100
AcDbEntity
  8
Layer0005
  6
CENTER
 62
     4
370
    25
100
AcDbLine
 10
-72.93065903915523
 20
-20.58066037735841
 30
0.0
 11
-56.83931001659406
 21
-20.58066037735841
 31
0.0
  0
CIRCLE
  5
1C0
330
1F
100
AcDbEntity
  8
Layer0004
  6
Continuous
 62
    91
370
    25
100
AcDbCircle
 10
-84.06328403681123
 20
-10.95566037735853
 30
0.0
 40
1.0
  0
ARC
  5
1C1
330
1F
100
AcDbEntity
  8
Layer0004
  6
Continuous
 62
    91
370
    25
100
AcDbCircle
 10
-85.06328403681125
 20
-22.45566037735847
 30
0.0
 40
1.0
100
AcDbArc
 50
269.9999999999997
 51
89.9999999999999
  0
ARC
  5
1C2
330
1F
100
AcDbEntity
  8
Layer0004
  6
Continuous
 62
    91
370
    25
100
AcDbCircle
 10
-57.11328403681124
 20
-10.95566037735841
 30
0.0
 40
1.0
100
AcDbArc
 50
89.99999999999987
 51
269.9999999999997
  0
CIRCLE
  5
1C3
330
1F
100
AcDbEntity
  8
Layer0004
  6
Continuous
 62
    91
370
    25
100
AcDbCircle
 10
-58.11328403681128
 20
-22.45566037735841
 30
0.0
 40
1.0
  0
CIRCLE
  5
1C4
330
1F
100
AcDbEntity
  8
Layer0004
  6
Continuous
 62
    91
370
    25
100
AcDbCircle
 10
-70.51328403681106
 20
-12.83066037735847
 30
0.0
 40
0.75
  0
ARC
  5
1C5
330
1F
100
AcDbEntity
  8
Layer0004
  6
Continuous
 62
    91
370
    25
100
AcDbCircle
 10
-57.11328403681119
 20
-12.83066037735847
 30
0.0
 40
0.75
100
AcDbArc
 50
90.00000000000034
 51
270.0000000000001
  0
ARC
  5
1C6
330
1F
100
AcDbEntity
  8
Layer0004
  6
Continuous
 62
    91
370
    25
100
AcDbCircle
 10
-71.26328403681116
 20
-20.58066037735841
 30
0.0
 40
0.75
100
AcDbArc
 50
270.0000000000013
 51
89.99999999999837
  0
CIRCLE
  5
1C7
330
1F
100
AcDbEntity
  8
Layer0004
  6
Continuous
 62
    91
370
    25
100
AcDbCircle
 10
-57.86328403681125
 20
-20.58066037735841
 30
0.0
 40
0.75
  0
LINE
  5
1C8
330
1F
100
AcDbEntity
  8
Layer0004
  6
Continuous
 62
    91
370
    25
100
AcDbLine
 10
-97.76328403681111
 20
18.29433962264153
 30
0.0
 11
-97.76328403681111
 21
40.29433962264153
 31
0.0
  0
LINE
  5
1C9
330
1F
100
AcDbEntity
  8
Layer0004
  6
Continuous
 62
    91
370
    25
100
AcDbLine
 10
-97.76328403681111
 20
40.29433962264153
 30
0.0
 11
-81.76328403681111
 21
40.29433962264153
 31
0.0
  0
LINE
  5
1CA
330
1F
100
AcDbEntity
  8
Layer0004
  6
Continuous
 62
    91
370
    25
100
AcDbLine
 10
-90.56328403681127
 20
73.29433962264119
 30
0.0
 11
-88.26328403681124
 21
73.29433962264113
 31
0.0
  0
LINE
  5
1CB
330
1F
100
AcDbEntity
  8
Layer0004
  6
Continuous
 62
    91
370
    25
100
AcDbLine
 10
-90.56328403681127
 20
73.29433962264119
 30
0.0
 11
-90.56328403681127
 21
40.29433962264142
 31
0.0
  0
LINE
  5
1CC
330
1F
100
AcDbEntity
  8
Layer0004
  6
Continuous
 62
    91
370
    25
100
AcDbLine
 10
-90.56328403681121
 20
-11.95566037735847
 30
0.0
 11
-90.56328403681127
 21
18.29433962264147
 31
0.0
  0
LINE
  5
1CD
330
1F
100
AcDbEntity
  8
Layer0004
  6
Continuous
 62
    91
370
    25
100
AcDbLine
 10
-95.76328403681126
 20
67.29433962264147
 30
0.0
 11
-90.56328403681121
 21
67.29433962264142
 31
0.0
  0
LINE
  5
1CE
330
1F
100
AcDbEntity
  8
Layer0004
  6
Continuous
 62
    91
370
    25
100
AcDbLine
 10
-95.76328403681126
 20
-10.70566037735915
 30
0.0
 11
-90.56328403681127
 21
-10.70566037735915
 31
0.0
  0
LINE
  5
1CF
330
1F
100
AcDbEntity
  8
Layer0004
  6
Continuous
 62
    91
370
    25
100
AcDbLine
 10
-81.76328403681111
 20
18.29433962264153
 30
0.0
 11
-81.76328403681111
 21
40.29433962264153
 31
0.0
  0
LINE
  5
1D0
330
1F
100
AcDbEntity
  8
Layer0004
  6
Continuous
 62
    91
370
    25
100
AcDbLine
 10
-88.26328403681124
 20
80.79433962264085
 30
0.0
 11
-85.06328403681125
 21
80.79433962264085
 31
0.0
  0
LINE
  5
1D1
330
1F
100
AcDbEntity
  8
Layer0004
  6
Continuous
 62
    91
370
    25
100
AcDbLine
 10
-84.81328403681125
 20
65.79433962264113
 30
0.0
 11
-62.11328403681125
 21
65.79433962264108
 31
0.0
  0
ARC
  5
1D2
330
1F
100
AcDbEntity
  8
Layer0004
  6
Continuous
 62
    91
370
    25
100
AcDbCircle
 10
-62.11328403681125
 20
60.79433962264119
 30
0.0
 40
5.0
100
AcDbArc
 50
0.0
 51
89.9999999999999
  0
LINE
  5
1D3
330
1F
100
AcDbEntity
  8
Layer0004
  6
Continuous
 62
    91
370
    25
100
AcDbLine
 10
-57.11328403681125
 20
60.79433962264108
 30
0.0
 11
-57.11328403681124
 21
80.7943396226409
 31
0.0
  0
LINE
  5
1D4
330
1F
100
AcDbEntity
  8
Layer0004
  6
Continuous
 62
    91
370
    25
100
AcDbLine
 10
-57.11328403681124
 20
80.7943396226409
 30
0.0
 11
-54.81328403681123
 21
80.79433962264085
 31
0.0
  0
LINE
  5
1D5
330
1F
100
AcDbEntity
  8
Layer0004
  6
Continuous
 62
    91
370
    25
100
AcDbLine
 10
-54.81328403681123
 20
80.79433962264085
 30
0.0
 11
-54.81328403681123
 21
-24.2056603773591
 31
0.0
  0
LINE
  5
1D6
330
1F
100
AcDbEntity
  8
Layer0004
  6
Continuous
 62
    91
370
    25
100
AcDbLine
 10
-84.81328403681125
 20
41.2943396226409
 30
0.0
 11
-54.81328403681123
 21
41.29433962264085
 31
0.0
  0
LINE
  5
1D7
330
1F
100
AcDbEntity
  8
Layer0004
  6
Continuous
 62
    91
370
    25
100
AcDbLine
 10
-88.26328403681127
 20
-24.2056603773591
 30
0.0
 11
-85.0632840368112
 21
-24.2056603773591
 31
0.0
  0
LINE
  5
1D8
330
1F
100
AcDbEntity
  8
Layer0004
  6
Continuous
 62
    91
370
    25
100
AcDbLine
 10
-85.0632840368112
 20
-24.2056603773591
 30
0.0
 11
-85.06328403681125
 21
-21.45566037735875
 31
0.0
  0
LINE
  5
1D9
330
1F
100
AcDbEntity
  8
Layer0004
  6
Continuous
 62
    91
370
    25
100
AcDbLine
 10
-84.81328403681123
 20
-9.20566037735938
 30
0.0
 11
-62.11328403681122
 21
-9.20566037735938
 31
0.0
  0
ARC
  5
1DA
330
1F
100
AcDbEntity
  8
Layer0004
  6
Continuous
 62
    91
370
    25
100
AcDbCircle
 10
-62.11328403681122
 20
-4.205660377359379
 30
0.0
 40
5.0
100
AcDbArc
 50
269.9999999999997
 51
359.9999999999997
  0
LINE
  5
1DB
330
1F
100
AcDbEntity
  8
Layer0004
  6
Continuous
 62
    91
370
    25
100
AcDbLine
 10
-57.11328403681124
 20
-24.2056603773591
 30
0.0
 11
-57.11328403681125
 21
-4.205660377359379
 31
0.0
  0
LINE
  5
1DC
330
1F
100
AcDbEntity
  8
Layer0004
  6
Continuous
 62
    91
370
    25
100
AcDbLine
 10
-57.11328403681124
 20
-24.2056603773591
 30
0.0
 11
-54.81328403681123
 21
-24.2056603773591
 31
0.0
  0
LINE
  5
1DD
330
1F
100
AcDbEntity
  8
Layer0004
  6
Continuous
 62
    91
370
    25
100
AcDbLine
 10
-84.81328403681123
 20
15.2943396226409
 30
0.0
 11
-54.81328403681125
 21
15.2943396226409
 31
0.0
  0
LINE
  5
1DE
330
1F
100
AcDbEntity
  8
Layer0004
  6
Continuous
 62
    91
370
    25
100
AcDbLine
 10
-88.26328403681127
 20
-24.2056603773591
 30
0.0
 11
-88.26328403681124
 21
-21.45566037735875
 31
0.0
  0
LINE
  5
1DF
330
1F
100
AcDbEntity
  8
Layer0004
  6
Continuous
 62
    91
370
    25
100
AcDbLine
 10
-85.06328403681125
 20
-11.95566037735875
 30
0.0
 11
-85.06328403681125
 21
18.29433962264153
 31
0.0
  0
LINE
  5
1E0
330
1F
100
AcDbEntity
  8
Layer0004
  6
Continuous
 62
    91
370
    25
100
AcDbLine
 10
-85.06328403681125
 20
40.29433962264153
 30
0.0
 11
-85.06328403681125
 21
80.79433962264085
 31
0.0
  0
LINE
  5
1E1
330
1F
100
AcDbEntity
  8
Layer0004
  6
Continuous
 62
    91
370
    25
100
AcDbLine
 10
-84.81328403681123
 20
-9.20566037735938
 30
0.0
 11
-84.81328403681123
 21
18.29433962264153
 31
0.0
  0
LINE
  5
1E2
330
1F
100
AcDbEntity
  8
Layer0004
  6
Continuous
 62
    91
370
    25
100
AcDbLine
 10
-84.81328403681124
 20
40.29433962264153
 30
0.0
 11
-84.81328403681125
 21
65.79433962264113
 31
0.0
  0
LINE
  5
1E3
330
1F
100
AcDbEntity
  8
Layer0004
  6
Continuous
 62
    91
370
    25
100
AcDbLine
 10
-88.26328403681124
 20
-11.95566037735853
 30
0.0
 11
-88.26328403681124
 21
18.29433962264153
 31
0.0
  0
LINE
  5
1E4
330
1F
100
AcDbEntity
  8
Layer0004
  6
Continuous
 62
    91
370
    25
100
AcDbLine
 10
-88.26328403681124
 20
40.29433962264153
 30
0.0
 11
-88.26328403681124
 21
80.79433962264085
 31
0.0
  0
LINE
  5
1E5
330
1F
100
AcDbEntity
  8
Layer0006
  6
DIVIDE
 62
     4
370
    25
100
AcDbLine
 10
-84.06328403681123
 20
-9.955660377358527
 30
0.0
 11
-57.11328403681124
 21
-9.955660377358527
 31
0.0
  0
LINE
  5
1E6
330
1F
100
AcDbEntity
  8
Layer0006
  6
DIVIDE
 62
     4
370
    25
100
AcDbLine
 10
-71.2632840368111
 20
-11.95566037735847
 30
0.0
 11
-57.11328403681124
 21
-11.95566037735847
 31
0.0
  0
LINE
  5
1E7
330
1F
100
AcDbEntity
  8
Layer0006
  6
DIVIDE
 62
     4
370
    25
100
AcDbLine
 10
-70.5132840368111
 20
-12.08066037735841
 30
0.0
 11
-57.11328403681124
 21
-12.08066037735841
 31
0.0
  0
LINE
  5
1E8
330
1F
100
AcDbEntity
  8
Layer0006
  6
DIVIDE
 62
     4
370
    25
100
AcDbLine
 10
-70.51328403681107
 20
-13.58066037735841
 30
0.0
 11
-57.11328403681125
 21
-13.58066037735841
 31
0.0
  0
LINE
  5
1E9
330
1F
100
AcDbEntity
  8
Layer0006
  6
DIVIDE
 62
     4
370
    25
100
AcDbLine
 10
-71.26328403681113
 20
-19.83066037735841
 30
0.0
 11
-57.11328403681119
 21
-19.83066037735847
 31
0.0
  0
LINE
  5
1EA
330
1F
100
AcDbEntity
  8
Layer0006
  6
DIVIDE
 62
     4
370
    25
100
AcDbLine
 10
-71.2632840368111
 20
-21.33066037735847
 30
0.0
 11
-57.11328403681131
 21
-21.33066037735841
 31
0.0
  0
LINE
  5
1EB
330
1F
100
AcDbEntity
  8
Layer0006
  6
DIVIDE
 62
     4
370
    25
100
AcDbLine
 10
-71.26328403681111
 20
-21.45566037735841
 30
0.0
 11
-57.11328403681128
 21
-21.45566037735841
 31
0.0
  0
LINE
  5
1EC
330
1F
100
AcDbEntity
  8
Layer0006
  6
DIVIDE
 62
     4
370
    25
100
AcDbLine
 10
-85.06328403681125
 20
-23.45566037735847
 30
0.0
 11
-58.11328403681127
 21
-23.45566037735858
 31
0.0
  0
ARC
  5
1ED
330
1F
100
AcDbEntity
  8
0
  6
Continuous
 62
    91
370
    25
100
AcDbCircle
 10
42.88671596318878
 20
28.29433962264157
 30
0.0
 40
52.5
100
AcDbArc
 50
87.33376680050768
 51
87.2191752414815
  0
CIRCLE
  5
1EE
330
1F
100
AcDbEntity
  8
0
  6
Continuous
 62
    91
370
    25
100
AcDbCircle
 10
42.88671596318878
 20
28.29433962264157
 30
0.0
 40
13.0
  0
CIRCLE
  5
1EF
330
1F
100
AcDbEntity
  8
0
  6
Continuous
 62
    91
370
    25
100
AcDbCircle
 10
42.88671596318879
 20
73.29433962264154
 30
0.0
 40
3.75
  0
CIRCLE
  5
1F0
330
1F
100
AcDbEntity
  8
0
  6
Continuous
 62
    91
370
    25
100
AcDbCircle
 10
-2.113284036811159
 20
28.29433962264154
 30
0.0
 40
3.75
  0
CIRCLE
  5
1F1
330
1F
100
AcDbEntity
  8
0
  6
Continuous
 62
    91
370
    25
100
AcDbCircle
 10
42.88671596318878
 20
-16.70566037735842
 30
0.0
 40
3.75
  0
CIRCLE
  5
1F2
330
1F
100
AcDbEntity
  8
0
  6
Continuous
 62
    91
370
    25
100
AcDbCircle
 10
87.88671596318878
 20
28.29433962264157
 30
0.0
 40
3.75
  0
LINE
  5
1F3
330
1F
100
AcDbEntity
  8
0
  6
Continuous
 62
    91
370
    25
100
AcDbLine
 10
8.886715963188795
 20
3.294339622641573
 30
0.0
 11
19.88671596318879
 21
3.294339622641571
 31
0.0
  0
LINE
  5
1F4
330
1F
100
AcDbEntity
  8
0
  6
Continuous
 62
    91
370
    25
100
AcDbLine
 10
19.88671596318879
 20
3.294339622641571
 30
0.0
 11
19.8867159631888
 21
53.29433962264153
 31
0.0
  0
LINE
  5
1F5
330
1F
100
AcDbEntity
  8
0
  6
Continuous
 62
    91
370
    25
100
AcDbLine
 10
8.886715963188799
 20
53.29433962264153
 30
0.0
 11
8.886715963188795
 21
3.294339622641573
 31
0.0
  0
LINE
  5
1F6
330
1F
100
AcDbEntity
  8
0
  6
Continuous
 62
    91
370
    25
100
AcDbLine
 10
8.886715963188799
 20
53.29433962264153
 30
0.0
 11
19.8867159631888
 21
53.29433962264153
 31
0.0
  0
ARC
  5
1F7
330
1F
100
AcDbEntity
  8
0
  6
Continuous
 62
    91
370
    25
100
AcDbCircle
 10
42.88671596318878
 20
28.29433962264157
 30
0.0
 40
12.0
100
AcDbArc
 50
258.5573097619206
 51
281.4426902380793
  0
ARC
  5
1F8
330
1F
100
AcDbEntity
  8
0
  6
Continuous
 62
    91
370
    25
100
AcDbCircle
 10
42.88671596318878
 20
28.29433962264157
 30
0.0
 40
12.0
100
AcDbArc
 50
348.5573097619207
 51
11.44269023807923
  0
ARC
  5
1F9
330
1F
100
AcDbEntity
  8
0
  6
Continuous
 62
    91
370
    25
100
AcDbCircle
 10
42.88671596318878
 20
28.29433962264157
 30
0.0
 40
12.0
100
AcDbArc
 50
78.55730976192065
 51
101.4426902380792
  0
ARC
  5
1FA
330
1F
100
AcDbEntity
  8
0
  6
Continuous
 62
    91
370
    25
100
AcDbCircle
 10
42.88671596318878
 20
28.29433962264157
 30
0.0
 40
12.0
100
AcDbArc
 50
168.5573097619206
 51
191.4426902380791
  0
LINE
  5
1FB
330
1F
100
AcDbEntity
  8
0
  6
Continuous
 62
    91
370
    25
100
AcDbLine
 10
31.12523239149988
 20
25.91368757059955
 30
0.0
 11
40.50606391114669
 21
16.53285605095268
 31
0.0
  0
LINE
  5
1FC
330
1F
100
AcDbEntity
  8
0
  6
Continuous
 62
    91
370
    25
100
AcDbLine
 10
45.26736801523082
 20
16.5328560509527
 30
0.0
 11
54.64819953487766
 21
25.91368757059954
 31
0.0
  0
LINE
  5
1FD
330
1F
100
AcDbEntity
  8
0
  6
Continuous
 62
    91
370
    25
100
AcDbLine
 10
31.12523239149986
 20
30.67499167468365
 30
0.0
 11
40.50606391114671
 21
40.05582319433048
 31
0.0
  0
LINE
  5
1FE
330
1F
100
AcDbEntity
  8
0
  6
Continuous
 62
    91
370
    25
100
AcDbLine
 10
45.26736801523084
 20
40.05582319433048
 30
0.0
 11
54.64819953487768
 21
30.67499167468362
 31
0.0
  0
LINE
  5
1FF
330
1F
100
AcDbEntity
  8
0
  6
Continuous
 62
    91
370
    25
100
AcDbLine
 10
40.88671596318876
 20
35.79433962264156
 30
0.0
 11
44.88671596318876
 21
35.79433962264156
 31
0.0
  0
LINE
  5
200
330
1F
100
AcDbEntity
  8
0
  6
Continuous
 62
    91
370
    25
100
AcDbLine
 10
40.88671596318876
 20
35.79433962264156
 30
0.0
 11
40.88671596318876
 21
33.95119387213394
 31
0.0
  0
LINE
  5
201
330
1F
100
AcDbEntity
  8
0
  6
Continuous
 62
    91
370
    25
100
AcDbLine
 10
44.88671596318876
 20
35.79433962264156
 30
0.0
 11
44.88671596318876
 21
33.95119387213394
 31
0.0
  0
LINE
  5
202
330
1F
100
AcDbEntity
  8
0
  6
Continuous
 62
    91
370
    25
100
AcDbLine
 10
-97.76328403681111
 20
35.79433962264156
 30
0.0
 11
-81.76328403681111
 21
35.79433962264156
 31
0.0
  0
LINE
  5
203
330
1F
100
AcDbEntity
  8
0
  6
Continuous
 62
    91
370
    25
100
AcDbLine
 10
-97.76328403681111
 20
34.29433962264156
 30
0.0
 11
-81.76328403681111
 21
34.29433962264156
 31
0.0
  0
LINE
  5
204
330
1F
100
AcDbEntity
  8
0
  6
Continuous
 62
    91
370
    25
100
AcDbLine
 10
-97.76328403681111
 20
22.29433962264156
 30
0.0
 11
-81.76328403681111
 21
22.29433962264156
 31
0.0
  0
ARC
  5
205
330
1F
100
AcDbEntity
  8
0
  6
Continuous
 62
    91
370
    25
100
AcDbCircle
 10
42.88671596318876
 20
28.29433962264156
 30
0.0
 40
6.0
100
AcDbArc
 50
109.4712206344907
 51
70.52877936550937
  0
LINE
  5
206
330
1F
100
AcDbEntity
  8
0
  6
Continuous
 62
    91
370
    25
100
AcDbLine
 10
77.56064475412018
 20
91.9368139403648
 30
0.0
 11
72.86218165019048
 21
90.22671322373645
 31
0.0
  0
LINE
  5
207
330
1F
100
AcDbEntity
  8
0
  6
Continuous
 62
    91
370
    25
100
AcDbLine
 10
77.90266489744582
 20
90.9971213195789
 30
0.0
 11
73.20420179351612
 21
89.28702060295055
 31
0.0
  0
LINE
  5
208
330
1F
100
AcDbEntity
  8
0
  6
Continuous
 62
    91
370
    25
100
AcDbLine
 10
77.56064475412018
 20
91.9368139403648
 30
0.0
 11
77.90266489744582
 21
90.9971213195789
 31
0.0
  0
LINE
  5
209
330
1F
100
AcDbEntity
  8
0
  6
Continuous
 62
    91
370
    25
100
AcDbLine
 10
72.69117157852773
 20
90.69655953412939
 30
0.0
 11
74.05925215183038
 21
86.93778905098577
 31
0.0
  0
LINE
  5
20A
330
1F
100
AcDbEntity
  8
0
  6
Continuous
 62
    91
370
    25
100
AcDbLine
 10
78.24468504077157
 20
90.05742869879302
 30
0.0
 11
73.54622193684187
 21
88.34732798216464
 31
0.0
  0
LINE
  5
20B
330
1F
100
AcDbEntity
  8
0
  6
Continuous
 62
    91
370
    25
100
AcDbLine
 10
78.58670518409723
 20
89.11773607800706
 30
0.0
 11
73.88824208016754
 21
87.40763536137871
 31
0.0
  0
LINE
  5
20C
330
1F
100
AcDbEntity
  8
0
  6
Continuous
 62
    91
370
    25
100
AcDbLine
 10
78.24468504077157
 20
90.05742869879302
 30
0.0
 11
78.58670518409724
 21
89.11773607800708
 31
0.0
  0
LINE
  5
20D
330
1F
100
AcDbEntity
  8
0
  6
Continuous
 62
    91
370
    25
100
AcDbLine
 10
61.77920847837046
 20
77.27723180515571
 30
0.0
 11
63.79759945166926
 21
82.82271542792517
 31
0.0
  0
LINE
  5
20E
330
1F
100
AcDbEntity
  8
0
  6
Continuous
 62
    91
370
    25
100
AcDbLine
 10
59.89982323679862
 20
77.96127209180699
 30
0.0
 11
62.23718743424937
 21
84.38312744534483
 31
0.0
  0
CIRCLE
  5
20F
330
1F
100
AcDbEntity
  8
0
  6
Continuous
 62
    91
370
    25
100
AcDbCircle
 10
27.25747082361779
 20
65.11453376073914
 30
0.0
 40
3.5
  0
LINE
  5
210
330
1F
100
AcDbEntity
  8
0
  6
Continuous
 62
    91
370
    25
100
AcDbLine
 10
26.48952729397238
 20
63.21380682634768
 30
0.0
 11
28.02541435326323
 21
67.01526069513062
 31
0.0
  0
LINE
  5
211
330
1F
100
AcDbEntity
  8
0
  6
Continuous
 62
    91
370
    25
100
AcDbLine
 10
29.15819775800927
 20
64.34659023109373
 30
0.0
 11
25.35674388922633
 21
65.88247729038454
 31
0.0
  0
LINE
  5
212
330
1F
100
AcDbEntity
  8
0
  6
Continuous
 62
    91
370
    25
100
AcDbLine
 10
68.68045034075263
 20
77.63898936149099
 30
0.0
 11
67.78464172083855
 21
74.51493344148551
 31
0.0
  0
LINE
  5
213
330
1F
100
AcDbEntity
  8
0
  6
Continuous
 62
    91
370
    25
100
AcDbLine
 10
70.90348374717954
 20
72.69378469730364
 30
0.0
 11
72.04486627653672
 21
76.67425861613148
 31
0.0
  0
LINE
  5
214
330
1F
100
AcDbEntity
  8
0
  6
Continuous
 62
    91
370
    25
100
AcDbLine
 10
73.94951443452517
 20
70.61871263783388
 30
0.0
 11
75.13364485650385
 21
74.74826617483367
 31
0.0
  0
LINE
  5
215
330
1F
100
AcDbEntity
  8
0
  6
Continuous
 62
    91
370
    25
100
AcDbLine
 10
80.90121503213375
 20
73.09444203993172
 30
0.0
 11
79.10957221932327
 21
66.84624101633264
 31
0.0
  0
LINE
  5
216
330
1F
100
AcDbEntity
  8
0
  6
Continuous
 62
    91
370
    25
100
AcDbLine
 10
78.25771114059812
 20
67.09050824996459
 30
0.0
 11
79.10957221932327
 21
66.84624101633264
 31
0.0
  0
LINE
  5
217
330
1F
100
AcDbEntity
  8
0
  6
Continuous
 62
    91
370
    25
100
AcDbLine
 10
80.48775899840827
 20
71.65254949602422
 30
0.0
 11
74.72018882277831
 21
73.30637363092623
 31
0.0
  0
LINE
  5
218
330
1F
100
AcDbEntity
  8
0
  6
Continuous
 62
    91
370
    25
100
AcDbLine
 10
74.72018882277831
 20
73.30637363092623
 30
0.0
 11
71.63141024281121
 21
75.23236607222404
 31
0.0
  0
LINE
  5
219
330
1F
100
AcDbEntity
  8
0
  6
Continuous
 62
    91
370
    25
100
AcDbLine
 10
68.26699430702712
 20
76.19709681758354
 30
0.0
 11
71.63141024281121
 21
75.23236607222404
 31
0.0
  0
LINE
  5
21A
330
1F
100
AcDbEntity
  8
0
  6
Continuous
 62
    91
370
    25
100
AcDbLine
 10
80.90121503213375
 20
73.09444203993172
 30
0.0
 11
75.13364485650385
 21
74.74826617483367
 31
0.0
  0
LINE
  5
21B
330
1F
100
AcDbEntity
  8
0
  6
Continuous
 62
    91
370
    25
100
AcDbLine
 10
75.13364485650385
 20
74.74826617483367
 30
0.0
 11
72.04486627653672
 21
76.67425861613148
 31
0.0
  0
LINE
  5
21C
330
1F
100
AcDbEntity
  8
0
  6
Continuous
 62
    91
370
    25
100
AcDbLine
 10
72.04486627653672
 20
76.67425861613148
 30
0.0
 11
68.68045034075263
 21
77.63898936149099
 31
0.0
  0
LINE
  5
21D
330
1F
100
AcDbEntity
  8
0
  6
Continuous
 62
    91
370
    25
100
AcDbLine
 10
-95.76328403681094
 20
-24.20566037735841
 30
0.0
 11
-95.76328403681106
 21
18.29433962264153
 31
0.0
  0
LINE
  5
21E
330
1F
100
AcDbEntity
  8
0
  6
Continuous
 62
    91
370
    25
100
AcDbLine
 10
-107.7632840368109
 20
-16.95715573868659
 30
0.0
 11
-107.763284036811
 21
8.977498690548316
 31
0.0
  0
ARC
  5
21F
330
1F
100
AcDbEntity
  8
0
  6
Continuous
 62
    91
370
    25
100
AcDbCircle
 10
-103.7632840368109
 20
-16.95715573868659
 30
0.0
 40
4.0
100
AcDbArc
 50
179.9999999999998
 51
244.8492641500746
  0
LINE
  5
220
330
1F
100
AcDbEntity
  8
0
  6
Continuous
 62
    91
370
    25
100
AcDbLine
 10
-104.5632870885688
 20
-5.428996755960725
 30
0.0
 11
-104.5632870885689
 21
9.305041367805643
 31
0.0
  0
LINE
  5
221
330
1F
100
AcDbEntity
  8
0
  6
Continuous
 62
    91
370
    25
100
AcDbLine
 10
-98.96328861444766
 20
-24.20566037735841
 30
0.0
 11
-95.76328403681094
 21
-24.20566037735841
 31
0.0
  0
LINE
  5
222
330
1F
100
AcDbEntity
  8
0
  6
Continuous
 62
    91
370
    25
100
AcDbLine
 10
-100.2337510237342
 20
-8.902901259204441
 30
0.0
 11
-106.4928216275244
 21
-7.933691548492789
 31
0.0
  0
ARC
  5
223
330
1F
100
AcDbEntity
  8
0
  6
Continuous
 62
    91
370
    25
100
AcDbCircle
 10
-100.4632886144477
 20
-10.38523472184011
 30
0.0
 40
1.5
100
AcDbArc
 50
0.0
 51
81.19772584194077
  0
ARC
  5
224
330
1F
100
AcDbEntity
  8
0
  6
Continuous
 62
    91
370
    25
100
AcDbCircle
 10
-106.2632840368109
 20
-6.451358085857123
 30
0.0
 40
1.5
100
AcDbArc
 50
180.0
 51
261.1977258419408
  0
LINE
  5
225
330
1F
100
AcDbEntity
  8
0
  6
Continuous
 62
    91
370
    25
100
AcDbLine
 10
-100.1644070836859
 20
13.27100377777879
 30
0.0
 11
-106.8624394212719
 21
10.35263971068821
 31
0.0
  0
ARC
  5
226
330
1F
100
AcDbEntity
  8
0
  6
Continuous
 62
    91
370
    25
100
AcDbCircle
 10
-106.2632840368109
 20
8.977498690548316
 30
0.0
 40
1.5
100
AcDbArc
 50
113.5429825346563
 51
180.0
  0
LINE
  5
227
330
1F
100
AcDbEntity
  8
0
  6
Continuous
 62
    91
370
    25
100
AcDbLine
 10
-98.96328861444766
 20
12.40008131439129
 30
0.0
 11
-103.9627244488643
 21
10.22180163397672
 31
0.0
  0
ARC
  5
228
330
1F
100
AcDbEntity
  8
0
  6
Continuous
 62
    91
370
    25
100
AcDbCircle
 10
-103.5632870885688
 20
9.305041367805643
 30
0.0
 40
1.0
100
AcDbArc
 50
113.5430149786824
 51
179.9999999999998
  0
ARC
  5
229
330
1F
100
AcDbEntity
  8
0
  6
Continuous
 62
    91
370
    25
100
AcDbCircle
 10
-100.9632886144477
 20
15.10452466706101
 30
0.0
 40
2.0
100
AcDbArc
 50
293.5430149786818
 51
0.0
  0
LINE
  5
22A
330
1F
100
AcDbEntity
  8
0
  6
Continuous
 62
    91
370
    25
100
AcDbLine
 10
-107.7632840368109
 20
80.79433962264153
 30
0.0
 11
-107.7632840368111
 21
28.29433962264153
 31
0.0
  0
LINE
  5
22B
330
1F
100
AcDbEntity
  8
0
  6
Continuous
 62
    91
370
    25
100
AcDbLine
 10
-95.76328403681094
 20
73.5458349839696
 30
0.0
 11
-95.76328403681106
 21
40.29433962264147
 31
0.0
  0
ARC
  5
22C
330
1F
100
AcDbEntity
  8
0
  6
Continuous
 62
    91
370
    25
100
AcDbCircle
 10
-99.76328403681094
 20
73.5458349839696
 30
0.0
 40
4.0
100
AcDbArc
 50
0.0
 51
78.22530087537746
  0
LINE
  5
22D
330
1F
100
AcDbEntity
  8
0
  6
Continuous
 62
    91
370
    25
100
AcDbLine
 10
-104.5632794591742
 20
80.79433962264147
 30
0.0
 11
-104.5632794591742
 21
67.29433962264147
 31
0.0
  0
LINE
  5
22E
330
1F
100
AcDbEntity
  8
0
  6
Continuous
 62
    91
370
    25
100
AcDbLine
 10
-98.96328098505313
 20
67.29433962264147
 30
0.0
 11
-98.96328098505353
 21
-24.20566037735841
 31
0.0
  0
ARC
  5
22F
330
1F
100
AcDbEntity
  8
0
  6
Continuous
 62
    91
370
    25
100
AcDbCircle
 10
-99.96328098505325
 20
43.86023756423083
 30
0.0
 40
1.0
100
AcDbArc
 50
293.5430149786822
 51
359.9999999999997
  0
LINE
  5
230
330
1F
100
AcDbEntity
  8
0
  6
Continuous
 62
    91
370
    25
100
AcDbLine
 10
-104.5632794591742
 20
80.79433962264147
 30
0.0
 11
-107.7632840368109
 21
80.79433962264153
 31
0.0
  0
LINE
  5
231
330
1F
100
AcDbEntity
  8
0
  6
Continuous
 62
    91
370
    25
100
AcDbLine
 10
-98.96328098505313
 20
67.29433962264147
 30
0.0
 11
-95.763284036811
 21
67.29433962264147
 31
0.0
  0
LINE
  5
232
330
1F
100
AcDbEntity
  8
0
  6
Continuous
 62
    91
370
    25
100
AcDbLine
 10
-104.5632794591742
 20
78.63237520613757
 30
0.0
 11
-98.94703037470157
 21
77.4616675035009
 31
0.0
  0
LINE
  5
233
330
1F
100
AcDbEntity
  8
0
  6
Continuous
 62
    91
370
    25
100
AcDbLine
 10
-103.3621609899361
 20
39.89427515425774
 30
0.0
 11
-98.96328098505325
 21
41.81088777937981
 31
0.0
  0
LINE
  5
234
330
1F
100
AcDbEntity
  8
0
  6
Continuous
 62
    91
370
    25
100
AcDbLine
 10
-105.6613171789009
 20
40.28677698531243
 30
0.0
 11
-99.56384403436965
 21
42.94347711958977
 31
0.0
  0
LINE
  5
235
330
1F
100
AcDbEntity
  8
0
  6
Continuous
 62
    91
370
    25
100
AcDbLine
 10
-105.2996915075142
 20
44.65532442488762
 30
0.0
 11
-101.4268735143501
 21
46.93504091658684
 31
0.0
  0
LINE
  5
236
330
1F
100
AcDbEntity
  8
0
  6
Continuous
 62
    91
370
    25
100
AcDbLine
 10
-104.5632794591743
 20
38.06075426497551
 30
0.0
 11
-104.5632794591743
 21
28.29433962264153
 31
0.0
  0
ARC
  5
237
330
1F
100
AcDbEntity
  8
0
  6
Continuous
 62
    91
370
    25
100
AcDbCircle
 10
-104.2632840368111
 20
37.07811590590569
 30
0.0
 40
3.5
100
AcDbArc
 50
113.5430149786821
 51
179.9999999999997
  0
ARC
  5
238
330
1F
100
AcDbEntity
  8
0
  6
Continuous
 62
    91
370
    25
100
AcDbCircle
 10
-102.5632794591743
 20
38.06075426497551
 30
0.0
 40
2.0
100
AcDbArc
 50
113.5430149786819
 51
179.9999999999997
  0
ARC
  5
239
330
1F
100
AcDbEntity
  8
0
  6
Continuous
 62
    91
370
    25
100
AcDbCircle
 10
-102.7632840368111
 20
40.34642454543206
 30
0.0
 40
5.0
100
AcDbArc
 50
120.4829749011916
 51
179.9999999999997
  0
LINE
  5
23A
330
1F
100
AcDbEntity
  8
0
  6
Continuous
 62
    91
370
    25
100
AcDbLine
 10
-95.763284036811
 20
52.79433962264153
 30
0.0
 11
-98.96328098505319
 21
52.79433962264147
 31
0.0
  0
LINE
  5
23B
330
1F
100
AcDbEntity
  8
0
  6
Continuous
 62
    91
370
    25
100
AcDbLine
 10
-104.5632794591742
 20
70.54433962264153
 30
0.0
 11
-107.763284036811
 21
70.54433962264153
 31
0.0
  0
LINE
  5
23C
330
1F
100
AcDbEntity
  8
0
  6
Continuous
 62
    91
370
    25
100
AcDbLine
 10
-104.5632794591742
 20
76.04433962264153
 30
0.0
 11
-107.763284036811
 21
76.04433962264153
 31
0.0
  0
ARC
  5
23D
330
1F
100
AcDbEntity
  8
0
  6
Continuous
 62
    91
370
    25
100
AcDbCircle
 10
-103.9632809850532
 20
51.24394174971673
 30
0.0
 40
5.0
100
AcDbArc
 50
300.4829749011913
 51
359.9999999999997
  0
LINE
  5
23E
330
1F
100
AcDbEntity
  8
0
  6
Continuous
 62
    91
370
    25
100
AcDbLine
 10
-104.5632794591743
 20
67.29433962264147
 30
0.0
 11
-107.7632840368109
 21
67.29433962264147
 31
0.0
  0
LINE
  5
23F
330
1F
100
AcDbEntity
  8
0
  6
Continuous
 62
    91
370
    25
100
AcDbLine
 10
-103.5677841765875
 20
65.93880549627085
 30
0.0
 11
-98.96328098505313
 21
64.2943396226413
 31
0.0
  0
ARC
  5
240
330
1F
100
AcDbEntity
  8
0
  6
Continuous
 62
    91
370
    25
100
AcDbCircle
 10
-103.0632794591742
 20
67.35141832012164
 30
0.0
 40
1.5
100
AcDbArc
 50
180.0
 51
250.3461709970122
  0
LINE
  5
241
330
1F
100
AcDbEntity
  8
0
  6
Continuous
 62
    91
370
    25
100
AcDbLine
 10
-106.7677887542243
 20
66.01980249929255
 30
0.0
 11
-98.96328098505313
 21
63.23247753653135
 31
0.0
  0
ARC
  5
242
330
1F
100
AcDbEntity
  8
0
  6
Continuous
 62
    91
370
    25
100
AcDbCircle
 10
-106.2632840368109
 20
67.43241532314329
 30
0.0
 40
1.5
100
AcDbArc
 50
180.0
 51
250.3461709970123
  0
LINE
  5
243
330
1F
100
AcDbEntity
  8
0
  6
Continuous
 62
    91
370
    25
100
AcDbLine
 10
-103.2928246792823
 20
-6.91133021859639
 30
0.0
 11
-98.96328861444766
 21
-7.581753778665018
 31
0.0
  0
ARC
  5
244
330
1F
100
AcDbEntity
  8
0
  6
Continuous
 62
    91
370
    25
100
AcDbCircle
 10
-103.0632870885688
 20
-5.428996755960725
 30
0.0
 40
1.5
100
AcDbArc
 50
180.0
 51
261.1977258419408
  0
LINE
  5
245
330
1F
100
AcDbEntity
  8
0
  6
Continuous
 62
    91
370
    25
100
AcDbLine
 10
-98.96328861444789
 20
3.79433962264153
 30
0.0
 11
-95.763284036811
 21
3.79433962264153
 31
0.0
  0
LINE
  5
246
330
1F
100
AcDbEntity
  8
0
  6
Continuous
 62
    91
370
    25
100
AcDbLine
 10
-81.76328403681111
 20
18.29433962264153
 30
0.0
 11
-97.76328403681111
 21
18.29433962264153
 31
0.0
  0
LINE
  5
247
330
1F
100
AcDbEntity
  8
0
  6
Continuous
 62
    91
370
    25
100
AcDbLine
 10
-90.56328403681127
 20
52.79433962264147
 30
0.0
 11
-88.26328403681124
 21
52.79433962264147
 31
0.0
  0
LINE
  5
248
330
1F
100
AcDbEntity
  8
0
  6
Continuous
 62
    91
370
    25
100
AcDbLine
 10
-90.56328403681127
 20
3.794339622641473
 30
0.0
 11
-88.26328403681124
 21
3.794339622641473
 31
0.0
  0
LINE
  5
249
330
1F
100
AcDbEntity
  8
0
  6
Continuous
 62
    91
370
    25
100
AcDbLine
 10
-90.56328403681127
 20
68.29433962264108
 30
0.0
 11
-88.26328403681148
 21
68.29433962264096
 31
0.0
  0
LINE
  5
24A
330
1F
100
AcDbEntity
  8
0
  6
Continuous
 62
    91
370
    25
100
AcDbLine
 10
-57.11328403681129
 20
69.54433962264102
 30
0.0
 11
-54.81328403681123
 21
69.54433962264102
 31
0.0
  0
LINE
  5
24B
330
1F
100
AcDbEntity
  8
0
  6
Continuous
 62
    91
370
    25
100
AcDbLine
 10
-57.11328403681129
 20
77.04433962264102
 30
0.0
 11
-54.81328403681123
 21
77.04433962264102
 31
0.0
  0
LINE
  5
24C
330
1F
100
AcDbEntity
  8
0
  6
Continuous
 62
    91
370
    25
100
AcDbLine
 10
-88.26328403681124
 20
78.29433962264085
 30
0.0
 11
-85.06328403681125
 21
78.29433962264085
 31
0.0
  0
LINE
  5
24D
330
1F
100
AcDbEntity
  8
0
  6
Continuous
 62
    91
370
    25
100
AcDbLine
 10
-85.06328403681123
 20
41.29433962264113
 30
0.0
 11
-88.26328403681124
 21
41.29433962264113
 31
0.0
  0
LINE
  5
24E
330
1F
100
AcDbEntity
  8
0
  6
Continuous
 62
    91
370
    25
100
AcDbLine
 10
-88.26328403681124
 20
15.2943396226409
 30
0.0
 11
-85.06328403681123
 21
15.2943396226409
 31
0.0
  0
LINE
  5
24F
330
1F
100
AcDbEntity
  8
0
  6
Continuous
 62
    91
370
    25
100
AcDbLine
 10
73.37521186517904
 20
88.81717429255761
 30
0.0
 11
69.30451322006968
 21
87.33556115307005
 31
0.0
  0
LINE
  5
250
330
1F
100
AcDbEntity
  8
0
  6
Continuous
 62
    91
370
    25
100
AcDbLine
 10
68.7356312652633
 20
85.00014950975753
 30
0.0
 11
64.3952719291295
 21
83.42038790538544
 31
0.0
  0
ARC
  5
251
330
1F
100
AcDbEntity
  8
0
  6
Continuous
 62
    91
370
    25
100
AcDbCircle
 10
64.73729207245518
 20
82.4806952845995
 30
0.0
 40
1.0
100
AcDbArc
 50
109.9999999999997
 51
159.9999999999999
  0
ARC
  5
252
330
1F
100
AcDbEntity
  8
0
  6
Continuous
 62
    91
370
    25
100
AcDbCircle
 10
63.17688005503529
 20
84.04110730201918
 30
0.0
 40
1.0
100
AcDbArc
 50
110.0000000000002
 51
160.0000000000003
  0
ARC
  5
253
330
1F
100
AcDbEntity
  8
0
  6
Continuous
 62
    91
370
    25
100
AcDbCircle
 10
68.5382999355235
 20
88.12086009687178
 30
0.0
 40
1.333331999999993
100
AcDbArc
 50
151.4095571418565
 51
248.590442858143
  0
ARC
  5
254
330
1F
100
AcDbEntity
  8
0
  6
Continuous
 62
    91
370
    25
100
AcDbCircle
 10
67.56488202170047
 20
85.63820940578688
 30
0.0
 40
1.333331999999993
100
AcDbArc
 50
331.4095571418558
 51
68.59044285814329
  0
LINE
  5
255
330
1F
100
AcDbEntity
  8
0
  6
Continuous
 62
    91
370
    25
100
AcDbLine
 10
68.62047293341836
 20
89.21494639464183
 30
0.0
 11
72.69117157852787
 21
90.69655953412946
 31
0.0
  0
ARC
  5
256
330
1F
100
AcDbEntity
  8
0
  6
Continuous
 62
    91
370
    25
100
AcDbCircle
 10
69.79122217698121
 20
88.57688649861248
 30
0.0
 40
1.333331999999993
100
AcDbArc
 50
151.4095571418571
 51
248.590442858143
  0
ARC
  5
257
330
1F
100
AcDbEntity
  8
0
  6
Continuous
 62
    91
370
    25
100
AcDbCircle
 10
68.81780426315818
 20
86.09423580752758
 30
0.0
 40
1.333331999999993
100
AcDbArc
 50
331.4095571418571
 51
68.59044285814305
  0
LINE
  5
258
330
1F
100
AcDbEntity
  8
0
  6
Continuous
 62
    91
370
    25
100
AcDbLine
 10
67.36755069196066
 20
88.75891999290116
 30
0.0
 11
45.32889809856452
 21
80.7375064455714
 31
0.0
  0
LINE
  5
259
330
1F
100
AcDbEntity
  8
0
  6
Continuous
 62
    91
370
    25
100
AcDbLine
 10
68.05159097861196
 20
86.87953475132934
 30
0.0
 11
50.00183942527013
 21
80.30996245001273
 31
0.0
  0
LINE
  5
25A
330
1F
100
AcDbEntity
  8
0
  6
Continuous
 62
    91
370
    25
100
AcDbLine
 10
69.98855350672102
 20
85.4561759114982
 30
0.0
 11
74.05925215183036
 21
86.93778905098577
 31
0.0
  0
LINE
  5
25B
330
1F
100
AcDbEntity
  8
0
  6
DIVIDE
 62
    91
370
    25
100
AcDbLine
 10
61.4145389760745
 20
76.27531058203382
 30
0.0
 11
61.77920847837046
 21
77.27723180515571
 31
0.0
  0
LINE
  5
25C
330
1F
100
AcDbEntity
  8
0
  6
DASHED2
 62
     4
370
    13
100
AcDbLine
 10
36.65094593803818
 20
80.2394345959435
 30
0.0
 11
15.03801565996226
 21
72.3729712994531
 31
0.0
  0
LINE
  5
25D
330
1F
100
AcDbEntity
  8
0
  6
DASHED2
 62
     4
370
    13
100
AcDbLine
 10
15.03801565996226
 20
72.3729712994531
 30
0.0
 11
17.43215666324195
 21
65.79512295395173
 31
0.0
  0
LINE
  5
25E
330
1F
100
AcDbEntity
  8
0
  6
DASHED2
 62
     4
370
    13
100
AcDbLine
 10
17.43215666324195
 20
65.79512295395173
 30
0.0
 11
39.04508694131786
 21
73.6615862504421
 31
0.0
  0
LINE
  5
25F
330
1F
100
AcDbEntity
  8
0
  6
DASHED2
 62
     4
370
    13
100
AcDbLine
 10
39.04508694131786
 20
73.6615862504421
 30
0.0
 11
36.65094593803818
 21
80.2394345959435
 31
0.0
  0
LINE
  5
260
330
1F
100
AcDbEntity
  8
0
  6
DASHED2
 62
     4
370
    13
100
AcDbLine
 10
33.66603464417568
 20
62.12617137343793
 30
0.0
 11
24.26910843631658
 21
58.70596994018126
 31
0.0
  0
LINE
  5
261
330
1F
100
AcDbEntity
  8
0
  6
DASHED2
 62
     4
370
    13
100
AcDbLine
 10
33.66603464417568
 20
62.12617137343793
 30
0.0
 11
30.58785335424469
 21
70.5834049605111
 31
0.0
  0
LINE
  5
262
330
1F
100
AcDbEntity
  8
0
  6
DASHED2
 62
     4
370
    13
100
AcDbLine
 10
24.26910843631658
 20
58.70596994018126
 30
0.0
 11
21.19092714638559
 21
67.16320352725441
 31
0.0
  0
LINE
  5
263
330
1F
100
AcDbEntity
  8
0
  6
DASHED2
 62
     4
370
    13
100
AcDbLine
 10
45.32889809856467
 20
80.7375064455714
 30
0.0
 11
37.50599629635232
 21
77.89020304397866
 31
0.0
  0
LINE
  5
264
330
1F
100
AcDbEntity
  8
0
  6
DASHED2
 62
     4
370
    13
100
AcDbLine
 10
50.00183942527
 20
80.30996245001273
 30
0.0
 11
38.19003658300365
 21
76.0108178024069
 31
0.0
  0
LINE
  5
265
330
1F
100
AcDbEntity
  8
0
  6
DASHED2
 62
     4
370
    13
100
AcDbLine
 10
56.99418410201287
 20
64.13048537957334
 30
0.0
 11
61.41453897607452
 21
76.27531058203385
 31
0.0
  0
LINE
  5
266
330
1F
100
AcDbEntity
  8
0
  6
DASHED2
 62
     4
370
    13
100
AcDbLine
 10
55.1147988604411
 20
64.81452566622468
 30
0.0
 11
59.48069546659024
 21
76.8097280072931
 31
0.0
  0
LINE
  5
267
330
1F
100
AcDbEntity
  8
0
  6
DASHED2
 62
     4
370
    13
100
AcDbLine
 10
59.48069546659024
 20
76.80972800729313
 30
0.0
 11
59.89982323679862
 21
77.96127209180699
 31
0.0
  0
LINE
  5
268
330
1F
100
AcDbEntity
  8
0
  6
DASHED2
 62
     4
370
    13
100
AcDbLine
 10
67.78464172083858
 20
74.51493344148554
 30
0.0
 11
61.4145389760745
 21
76.27531058203382
 31
0.0
  0
LINE
  5
269
330
1F
100
AcDbEntity
  8
0
  6
DASHED2
 62
     4
370
    13
100
AcDbLine
 10
59.48069546659024
 20
76.8097280072931
 30
0.0
 11
45.95037045536793
 21
80.54883172481522
 31
0.0
  0
LINE
  5
26A
330
1F
100
AcDbEntity
  8
0
  6
DASHED2
 62
     4
370
    13
100
AcDbLine
 10
45.0312835082954
 20
78.7278569500466
 30
0.0
 11
58.79449082021559
 21
74.92439623625413
 31
0.0
  0
LINE
  5
26B
330
1F
100
AcDbEntity
  8
0
  6
DASHED2
 62
     4
370
    13
100
AcDbLine
 10
60.72833432969997
 20
74.38997881099482
 30
0.0
 11
67.23334143622222
 21
72.59232086602077
 31
0.0
  0
ARC
  5
26C
330
1F
100
AcDbEntity
  8
0
  6
DASHED2
 62
     4
370
    13
100
AcDbCircle
 10
61.3521537612549
 20
73.18010421284569
 30
0.0
 40
1.0
100
AcDbArc
 50
74.55186886167358
 51
159.9999999999998
  0
LINE
  5
26D
330
1F
100
AcDbEntity
  8
0
  6
DASHED2
 62
     4
370
    13
100
AcDbLine
 10
51.35602837729748
 20
66.18260623952736
 30
0.0
 11
60.75295458515654
 21
62.76240480627067
 31
0.0
  0
LINE
  5
26E
330
1F
100
AcDbEntity
  8
0
  6
DASHED2
 62
     4
370
    13
100
AcDbLine
 10
51.35602837729748
 20
66.18260623952736
 30
0.0
 11
50.91870758732503
 21
64.98107724402001
 31
0.0
  0
LINE
  5
26F
330
1F
100
AcDbEntity
  8
0
  6
DASHED2
 62
     4
370
    13
100
AcDbLine
 10
60.75295458515654
 20
62.76240480627067
 30
0.0
 11
60.31563379518411
 21
61.56087581076332
 31
0.0
  0
ARC
  5
270
330
1F
100
AcDbEntity
  8
0
  6
DASHED2
 62
     4
370
    13
100
AcDbCircle
 10
42.88671596318876
 20
28.29433962264156
 30
0.0
 40
37.5
100
AcDbArc
 50
52.16700446478706
 51
80.67929364848997
  0
LINE
  5
271
330
1F
100
AcDbEntity
  8
0
  6
DASHED2
 62
     4
370
    13
100
AcDbLine
 10
67.78464172083855
 20
74.51493344148551
 30
0.0
 11
66.33753281630811
 21
69.4682649460153
 31
0.0
  0
LINE
  5
272
330
1F
100
AcDbEntity
  8
0
  6
DASHED2
 62
     4
370
    13
100
AcDbLine
 10
69.7019487520922
 20
68.50353420065579
 30
0.0
 11
70.90348374717954
 21
72.69378469730364
 31
0.0
  0
LINE
  5
273
330
1F
100
AcDbEntity
  8
0
  6
DASHED2
 62
     4
370
    13
100
AcDbLine
 10
73.34200204369334
 20
68.50006515123462
 30
0.0
 11
73.94951443452517
 21
70.61871263783388
 31
0.0
  0
LINE
  5
274
330
1F
100
AcDbEntity
  8
0
  6
DASHED2
 62
     4
370
    13
100
AcDbLine
 10
66.33753281630811
 20
69.4682649460153
 30
0.0
 11
69.7019487520922
 21
68.50353420065579
 31
0.0
  0
LINE
  5
275
330
1F
100
AcDbEntity
  8
0
  6
DASHED2
 62
     4
370
    13
100
AcDbLine
 10
73.34200204369334
 20
68.50006515123462
 30
0.0
 11
69.7019487520922
 21
68.50353420065579
 31
0.0
  0
LINE
  5
276
330
1F
100
AcDbEntity
  8
0
  6
DASHED2
 62
     4
370
    13
100
AcDbLine
 10
73.34200204369334
 20
68.50006515123462
 30
0.0
 11
78.25771114059812
 21
67.09050824996459
 31
0.0
  0
LINE
  5
277
330
1F
100
AcDbEntity
  8
0
  6
DASHED2
 62
     4
370
    13
100
AcDbLine
 10
-96.66412817451413
 20
13.40183723929846
 30
0.0
 11
-98.96328861444766
 21
12.40008131439129
 31
0.0
  0
ARC
  5
278
330
1F
100
AcDbEntity
  8
0
  6
DASHED2
 62
     4
370
    13
100
AcDbCircle
 10
-97.26328403681094
 20
14.77697805124296
 30
0.0
 40
1.5
100
AcDbArc
 50
293.5430024438702
 51
0.0
  0
LINE
  5
279
330
1F
100
AcDbEntity
  8
0
  6
DASHED2
 62
     4
370
    13
100
AcDbLine
 10
-104.5632794591744
 20
31.04433962264153
 30
0.0
 11
-107.7632840368111
 21
31.04433962264153
 31
0.0
  0
LINE
  5
27A
330
1F
100
AcDbEntity
  8
0
  6
DASHED2
 62
     4
370
    13
100
AcDbLine
 10
-98.96328098505313
 20
64.2943396226413
 30
0.0
 11
-95.76328403681094
 21
63.15148325829392
 31
0.0
  0
LINE
  5
27B
330
1F
100
AcDbEntity
  8
0
  6
DASHED2
 62
     4
370
    13
100
AcDbLine
 10
-98.96328861444766
 20
-7.581753778665018
 30
0.0
 11
-97.0337464460975
 21
-7.880541110710794
 31
0.0
  0
ARC
  5
27C
330
1F
100
AcDbEntity
  8
0
  6
DASHED2
 62
     4
370
    13
100
AcDbCircle
 10
-97.26328403681094
 20
-9.36287457334646
 30
0.0
 40
1.5
100
AcDbArc
 50
0.0
 51
81.19772584194075
  0
LINE
  5
27D
330
1F
100
AcDbEntity
  8
0
  6
CENTER
 62
     4
370
    25
100
AcDbLine
 10
78.18767122041554
 20
91.6329440239555
 30
0.0
 11
35.52426750293313
 21
76.10473497830992
 31
0.0
  0
LINE
  5
27E
330
1F
100
AcDbEntity
  8
0
  6
CENTER
 62
     4
370
    25
100
AcDbLine
 10
63.17688005503543
 20
84.04110730201928
 30
0.0
 11
78.97606570146921
 21
89.79154060296699
 31
0.0
  0
LINE
  5
27F
330
1F
100
AcDbEntity
  8
0
  6
CENTER
 62
     4
370
    25
100
AcDbLine
 10
-109.7398391861947
 20
-16.70566037735847
 30
0.0
 11
-42.35534338197216
 21
-16.70566037735829
 31
0.0
  0
LINE
  5
280
330
1F
100
AcDbEntity
  8
0
  6
CENTER
 62
     4
370
    25
100
AcDbLine
 10
-99.76328403681089
 20
73.29433962264147
 30
0.0
 11
-114.4764645788031
 21
73.2943396226415
 31
0.0
  0
LINE
  5
281
330
1F
100
AcDbEntity
  8
0
  6
CENTER
 62
     4
370
    25
100
AcDbLine
 10
-91.43893475065036
 20
73.29433962264113
 30
0.0
 11
-82.49985755135951
 21
73.29433962264113
 31
0.0
  0
POINT
  5
282
330
1F
100
AcDbEntity
  8
0
  6
Continuous
 62
     7
100
AcDbPoint
 10
67.52277344632117
 20
73.60169023855008
 30
0.0
  0
LINE
  5
283
330
1F
100
AcDbEntity
  8
Layer0005
  6
DASHED2
 62
     4
370
    13
100
AcDbLine
 10
-90.56328403681121
 20
-11.95566037735847
 30
0.0
 11
-90.56328403681127
 21
-16.70566037735881
 31
0.0
  0
LINE
  5
284
330
1F
100
AcDbEntity
  8
Layer0005
  6
DASHED2
 62
     4
370
    13
100
AcDbLine
 10
-90.56328403681127
 20
-16.70566037735881
 30
0.0
 11
-88.26328403681124
 21
-16.70566037735881
 31
0.0
  0
LINE
  5
285
330
1F
100
AcDbEntity
  8
Layer0005
  6
DASHED2
 62
     4
370
    13
100
AcDbLine
 10
-88.26328403681124
 20
-11.95566037735875
 30
0.0
 11
-88.26328403681124
 21
-21.45566037735875
 31
0.0
  0
LINE
  5
286
330
1F
100
AcDbEntity
  8
Layer0005
  6
DASHED2
 62
     4
370
    13
100
AcDbLine
 10
-85.06328403681125
 20
-11.95566037735875
 30
0.0
 11
-85.06328403681125
 21
-21.45566037735875
 31
0.0
  0
INSERT
  5
287
330
1F
100
AcDbEntity
  8
Layer0005
  6
Continuous
100
AcDbBlockReference
  2
DC_GROUP_NAB-32_1
 10
0.0
 20
0.0
 30
0.0
  0
INSERT
  5
288
330
1F
100
AcDbEntity
  8
0
  6
Continuous
100
AcDbBlockReference
  2
DC_GROUP_NAB-32_2
 10
0.0
 20
0.0
 30
0.0
  0
INSERT
  5
289
330
1F
100
AcDbEntity
  8
0
  6
Continuous
100
AcDbBlockReference
  2
DC_GROUP_NAB-32_3
 10
0.0
 20
0.0
 30
0.0
  0
INSERT
  5
28A
330
1F
100
AcDbEntity
  8
0
  6
Continuous
100
AcDbBlockReference
  2
DC_GROUP_NAB-32_4
 10
0.0
 20
0.0
 30
0.0
  0
INSERT
  5
28B
330
1F
100
AcDbEntity
  8
0
  6
Continuous
100
AcDbBlockReference
  2
DC_GROUP_NAB-32_5
 10
0.0
 20
0.0
 30
0.0
  0
INSERT
  5
28C
330
1F
100
AcDbEntity
  8
Layer0001
  6
Continuous
100
AcDbBlockReference
  2
DC_GROUP_NAB-32_6
 10
0.0
 20
0.0
 30
0.0
  0
INSERT
  5
28D
330
1F
100
AcDbEntity
  8
Layer0003
  6
Continuous
100
AcDbBlockReference
  2
DC_GROUP_NAB-32_13
 10
0.0
 20
0.0
 30
0.0
  0
INSERT
  5
28E
330
1F
100
AcDbEntity
  8
Layer0003
  6
Continuous
100
AcDbBlockReference
  2
DC_GROUP_NAB-32_14
 10
0.0
 20
0.0
 30
0.0
  0
INSERT
  5
28F
330
1F
100
AcDbEntity
  8
Layer0003
  6
Continuous
100
AcDbBlockReference
  2
DC_GROUP_NAB-32_15
 10
0.0
 20
0.0
 30
0.0
  0
INSERT
  5
290
330
1F
100
AcDbEntity
  8
Layer0003
  6
Continuous
100
AcDbBlockReference
  2
DC_GROUP_NAB-32_16
 10
0.0
 20
0.0
 30
0.0
  0
VIEWPORT
  5
B7
102
{ACAD_XDICTIONARY
360
298
102
}
330
1B
100
AcDbEntity
 67
     1
  8
0
100
AcDbViewport
 10
-7.669874307807191
 20
13.41134458214363
 30
0.0
 40
640.8395416259757
 41
471.152816149327
 68
     1
 69
     1
 12
-7.669874307807191
 22
13.41134458214363
 13
0.0
 23
0.0
 14
0.5
 24
0.5
 15
0.0
 25
0.0
 16
0.0
 26
0.0
 36
1.0
 17
0.0
 27
0.0
 37
0.0
 42
50.0
 43
0.0
 44
0.0
 45
471.152816149327
 50
0.0
 51
0.0
 72
   100
 90
   557152
  1

281
     0
 71
     1
 74
     0
110
0.0
120
0.0
130
0.0
111
1.0
121
0.0
131
0.0
112
0.0
122
1.0
132
0.0
 79
     0
146
0.0
  0
ENDSEC
  0
SECTION
  2
OBJECTS
  0
DICTIONARY
  5
C
330
0
100
AcDbDictionary
281
     1
  3
ACAD_GROUP
350
D
  3
ACAD_LAYOUT
350
1A
  3
ACAD_MATERIAL
350
43
  3
ACAD_MLEADERSTYLE
350
6B
  3
ACAD_MLINESTYLE
350
17
  3
ACAD_PLOTSETTINGS
350
19
  3
ACAD_PLOTSTYLENAME
350
E
  3
ACAD_SCALELIST
350
47
  3
ACAD_TABLESTYLE
350
69
  3
ACAD_VISUALSTYLE
350
2A
  3
AcDbVariableDictionary
350
291
  0
DICTIONARY
  5
29A
330
8
100
AcDbDictionary
280
     1
281
     1
  3
ACAD_XREC_ROUNDTRIP
360
29B
  0
DICTIONARY
  5
298
330
B7
100
AcDbDictionary
280
     1
281
     1
  3
ACAD_XREC_ROUNDTRIP
360
299
  0
DICTIONARY
  5
D
102
{ACAD_REACTORS
330
C
102
}
330
C
100
AcDbDictionary
281
     1
  0
DICTIONARY
  5
1A
102
{ACAD_REACTORS
330
C
102
}
330
C
100
AcDbDictionary
281
     1
  3
Layout1
350
1E
  3
Layout2
350
26
  3
Model
350
22
  0
DICTIONARY
  5
43
102
{ACAD_REACTORS
330
C
102
}
330
C
100
AcDbDictionary
281
     1
  3
ByBlock
350
45
  3
ByLayer
350
44
  3
Global
350
46
  0
DICTIONARY
  5
6B
102
{ACAD_REACTORS
330
C
102
}
330
C
100
AcDbDictionary
281
     1
  3
Standard
350
6C
  0
DICTIONARY
  5
17
102
{ACAD_REACTORS
330
C
102
}
330
C
100
AcDbDictionary
281
     1
  3
Standard
350
18
  0
DICTIONARY
  5
19
102
{ACAD_REACTORS
330
C
102
}
330
C
100
AcDbDictionary
281
     1
  0
ACDBDICTIONARYWDFLT
  5
E
102
{ACAD_REACTORS
330
C
102
}
330
C
100
AcDbDictionary
281
     1
  3
Normal
350
F
100
AcDbDictionaryWithDefault
340
F
  0
DICTIONARY
  5
47
102
{ACAD_REACTORS
330
C
102
}
330
C
100
AcDbDictionary
281
     1
  3
A0
350
48
  3
A1
350
49
  3
A2
350
4A
  3
A3
350
4B
  3
A4
350
4C
  3
A5
350
4D
  3
A6
350
4E
  3
A7
350
4F
  3
A8
350
50
  3
A9
350
51
  3
B0
350
52
  3
B1
350
53
  3
B2
350
54
  3
B3
350
55
  3
B4
350
56
  3
B5
350
57
  3
B6
350
58
  3
B7
350
59
  3
B8
350
5A
  3
B9
350
5B
  3
C0
350
5C
  3
C1
350
5D
  3
C2
350
5E
  3
C3
350
5F
  3
C4
350
60
  3
C5
350
61
  3
C6
350
62
  3
C7
350
63
  3
C8
350
64
  3
C9
350
65
  3
D0
350
66
  3
D1
350
67
  3
D2
350
68
  0
DICTIONARY
  5
69
102
{ACAD_REACTORS
330
C
102
}
330
C
100
AcDbDictionary
281
     1
  3
Standard
350
6A
  0
DICTIONARY
  5
2A
102
{ACAD_REACTORS
330
C
102
}
330
C
100
AcDbDictionary
281
     1
  3
2dWireframe
350
2F
  3
Basic
350
32
  3
Brighten
350
36
  3
ColorChange
350
3A
  3
Conceptual
350
34
  3
Dim
350
35
  3
EdgeColorOff
350
3D
  3
Facepattern
350
39
  3
Flat
350
2B
  3
FlatWithEdges
350
2C
  3
Gouraud
350
2D
  3
GouraudWithEdges
350
2E
  3
Hidden
350
31
  3
JitterOff
350
3B
  3
Linepattern
350
38
  3
OverhangOff
350
3C
  3
Realistic
350
33
  3
Shaded
350
42
  3
Shaded with edges
350
41
  3
Shades of Gray
350
3E
  3
Sketchy
350
3F
  3
Thicken
350
37
  3
Wireframe
350
30
  3
X-Ray
350
40
  0
DICTIONARY
  5
291
102
{ACAD_REACTORS
330
C
102
}
330
C
100
AcDbDictionary
281
     1
  3
CANNOSCALE
350
29C
  3
CMLEADERSTYLE
350
293
  3
CTABLESTYLE
350
292
  3
DIMASSOC
350
296
  3
HIDETEXT
350
297
  3
MSLTSCALE
350
29D
  0
XRECORD
  5
29B
102
{ACAD_REACTORS
330
29A
102
}
330
29A
100
AcDbXrecord
280
     1
102
VTR_0.000_0.000_1.000_1.000_VISUALSTYLE
340
2F
102
VTR_0.000_0.000_1.000_1.000_GRIDDISPLAY
 70
     3
102
VTR_0.000_0.000_1.000_1.000_GRIDMAJOR
 70
     5
102
VTR_0.000_0.000_1.000_1.000_DEFAULTLIGHTING
280
     1
102
VTR_0.000_0.000_1.000_1.000_DEFAULTLIGHTINGTYPE
 70
     1
102
VTR_0.000_0.000_1.000_1.000_BRIGHTNESS
141
0.0
102
VTR_0.000_0.000_1.000_1.000_CONTRAST
142
0.0
  0
XRECORD
  5
299
102
{ACAD_REACTORS
330
298
102
}
330
298
100
AcDbXrecord
280
     1
102
VISUALSTYLE
340
2F
102
GRIDDISPLAY
 70
     2
102
GRIDMAJOR
 70
     5
102
DEFAULTLIGHTING
280
     1
102
DEFAULTLIGHTINGTYPE
 70
     1
102
BRIGHTNESS
141
0.0
102
CONTRAST
142
0.0
  0
LAYOUT
  5
1E
102
{ACAD_REACTORS
330
1A
102
}
330
1A
100
AcDbPlotSettings
  1

  2
none_device
  4

  6

 40
0.0
 41
0.0
 42
0.0
 43
0.0
 44
0.0
 45
0.0
 46
0.0
 47
0.0
 48
0.0
 49
0.0
140
0.0
141
0.0
142
1.0
143
1.0
 70
   688
 72
     0
 73
     0
 74
     5
  7

 75
    16
147
1.0
148
0.0
149
0.0
100
AcDbLayout
  1
Layout1
 70
     0
 71
     1
 10
0.0
 20
0.0
 11
12.0
 21
9.0
 12
0.0
 22
0.0
 32
0.0
 14
1.000000000000000E+20
 24
1.000000000000000E+20
 34
1.000000000000000E+20
 15
-1.000000000000000E+20
 25
-1.000000000000000E+20
 35
-1.000000000000000E+20
146
0.0
 13
0.0
 23
0.0
 33
0.0
 16
1.0
 26
0.0
 36
0.0
 17
0.0
 27
1.0
 37
0.0
 76
     0
330
1B
331
B7
  0
LAYOUT
  5
26
102
{ACAD_REACTORS
330
1A
102
}
330
1A
100
AcDbPlotSettings
  1

  2
none_device
  4

  6

 40
0.0
 41
0.0
 42
0.0
 43
0.0
 44
0.0
 45
0.0
 46
0.0
 47
0.0
 48
0.0
 49
0.0
140
0.0
141
0.0
142
1.0
143
1.0
 70
   688
 72
     0
 73
     0
 74
     5
  7

 75
    16
147
1.0
148
0.0
149
0.0
100
AcDbLayout
  1
Layout2
 70
     1
 71
     2
 10
0.0
 20
0.0
 11
0.0
 21
0.0
 12
0.0
 22
0.0
 32
0.0
 14
0.0
 24
0.0
 34
0.0
 15
0.0
 25
0.0
 35
0.0
146
0.0
 13
0.0
 23
0.0
 33
0.0
 16
1.0
 26
0.0
 36
0.0
 17
0.0
 27
1.0
 37
0.0
 76
     0
330
23
  0
LAYOUT
  5
22
102
{ACAD_REACTORS
330
1A
102
}
330
1A
100
AcDbPlotSettings
  1

  2
none_device
  4
Letter_(8.50_x_11.00_Inches)
  6

 40
6.35
 41
6.35
 42
6.35000508
 43
6.35000508
 44
215.9
 45
279.4
 46
0.0
 47
0.0
 48
0.0
 49
0.0
140
0.0
141
0.0
142
1.0
143
1.0
 70
  1712
 72
     0
 73
     0
 74
     0
  7

 75
     0
147
1.0
148
0.0
149
0.0
100
AcDbLayout
  1
Model
 70
     1
 71
     0
 10
-210.0
 20
-148.5
 11
210.0
 21
148.5
 12
0.0
 22
0.0
 32
0.0
 14
-328.089645120795
 24
-222.1650634925199
 34
0.0
 15
312.7498965051806
 25
248.9877526568071
 35
0.0
146
0.0
 13
0.0
 23
0.0
 33
0.0
 16
1.0
 26
0.0
 36
0.0
 17
0.0
 27
1.0
 37
0.0
 76
     0
330
1F
331
29
  0
MATERIAL
  5
45
102
{ACAD_REACTORS
330
43
102
}
102
{ACAD_XDICTIONARY
360
2D0
102
}
330
43
100
AcDbMaterial
  1
ByBlock
  0
MATERIAL
  5
44
102
{ACAD_REACTORS
330
43
102
}
102
{ACAD_XDICTIONARY
360
2CE
102
}
330
43
100
AcDbMaterial
  1
ByLayer
  0
MATERIAL
  5
46
102
{ACAD_REACTORS
330
43
102
}
102
{ACAD_XDICTIONARY
360
2D2
102
}
330
43
100
AcDbMaterial
  1
Global
  0
MLEADERSTYLE
  5
6C
102
{ACAD_REACTORS
330
6B
102
}
102
{ACAD_XDICTIONARY
360
2D5
102
}
330
6B
100
AcDbMLeaderStyle
170
     2
171
     1
172
     0
 90
        2
 40
0.0
 41
0.0
173
     1
 91
-1056964608
340
14
 92
       -2
290
     1
 42
0.09
291
     1
 43
0.36
  3
Standard
341
0
 44
0.18
300

342
11
174
     1
178
     6
175
     1
176
     0
 93
-1056964608
 45
0.18
292
     0
297
     0
 46
0.18
343
0
 94
-1056964608
 47
1.0
 49
1.0
140
1.0
293
     1
141
0.0
294
     1
177
     0
142
1.0
295
     0
296
     0
143
0.125
1001
ACAD_MLEADERVER
1070
     2
  0
MLINESTYLE
  5
18
102
{ACAD_REACTORS
330
17
102
}
330
17
100
AcDbMlineStyle
  2
Standard
 70
     0
  3

 62
   256
 51
90.0
 52
90.0
 71
     2
 49
0.5
 62
   256
  6
BYLAYER
 49
-0.5
 62
   256
  6
BYLAYER
  0
ACDBPLACEHOLDER
  5
F
102
{ACAD_REACTORS
330
E
102
}
330
E
  0
SCALE
  5
48
102
{ACAD_REACTORS
330
47
102
}
330
47
100
AcDbScale
 70
     0
300
1:1
140
1.0
141
1.0
290
     1
  0
SCALE
  5
49
102
{ACAD_REACTORS
330
47
102
}
330
47
100
AcDbScale
 70
     0
300
1:2
140
1.0
141
2.0
290
     0
  0
SCALE
  5
4A
102
{ACAD_REACTORS
330
47
102
}
330
47
100
AcDbScale
 70
     0
300
1:4
140
1.0
141
4.0
290
     0
  0
SCALE
  5
4B
102
{ACAD_REACTORS
330
47
102
}
330
47
100
AcDbScale
 70
     0
300
1:5
140
1.0
141
5.0
290
     0
  0
SCALE
  5
4C
102
{ACAD_REACTORS
330
47
102
}
330
47
100
AcDbScale
 70
     0
300
1:8
140
1.0
141
8.0
290
     0
  0
SCALE
  5
4D
102
{ACAD_REACTORS
330
47
102
}
330
47
100
AcDbScale
 70
     0
300
1:10
140
1.0
141
10.0
290
     0
  0
SCALE
  5
4E
102
{ACAD_REACTORS
330
47
102
}
330
47
100
AcDbScale
 70
     0
300
1:16
140
1.0
141
16.0
290
     0
  0
SCALE
  5
4F
102
{ACAD_REACTORS
330
47
102
}
330
47
100
AcDbScale
 70
     0
300
1:20
140
1.0
141
20.0
290
     0
  0
SCALE
  5
50
102
{ACAD_REACTORS
330
47
102
}
330
47
100
AcDbScale
 70
     0
300
1:30
140
1.0
141
30.0
290
     0
  0
SCALE
  5
51
102
{ACAD_REACTORS
330
47
102
}
330
47
100
AcDbScale
 70
     0
300
1:40
140
1.0
141
40.0
290
     0
  0
SCALE
  5
52
102
{ACAD_REACTORS
330
47
102
}
330
47
100
AcDbScale
 70
     0
300
1:50
140
1.0
141
50.0
290
     0
  0
SCALE
  5
53
102
{ACAD_REACTORS
330
47
102
}
330
47
100
AcDbScale
 70
     0
300
1:100
140
1.0
141
100.0
290
     0
  0
SCALE
  5
54
102
{ACAD_REACTORS
330
47
102
}
330
47
100
AcDbScale
 70
     0
300
2:1
140
2.0
141
1.0
290
     0
  0
SCALE
  5
55
102
{ACAD_REACTORS
330
47
102
}
330
47
100
AcDbScale
 70
     0
300
4:1
140
4.0
141
1.0
290
     0
  0
SCALE
  5
56
102
{ACAD_REACTORS
330
47
102
}
330
47
100
AcDbScale
 70
     0
300
8:1
140
8.0
141
1.0
290
     0
  0
SCALE
  5
57
102
{ACAD_REACTORS
330
47
102
}
330
47
100
AcDbScale
 70
     0
300
10:1
140
10.0
141
1.0
290
     0
  0
SCALE
  5
58
102
{ACAD_REACTORS
330
47
102
}
330
47
100
AcDbScale
 70
     0
300
100:1
140
100.0
141
1.0
290
     0
  0
SCALE
  5
59
102
{ACAD_REACTORS
330
47
102
}
330
47
100
AcDbScale
 70
     0
300
1/128" = 1'-0"
140
0.0078125
141
12.0
290
     0
  0
SCALE
  5
5A
102
{ACAD_REACTORS
330
47
102
}
330
47
100
AcDbScale
 70
     0
300
1/64" = 1'-0"
140
0.015625
141
12.0
290
     0
  0
SCALE
  5
5B
102
{ACAD_REACTORS
330
47
102
}
330
47
100
AcDbScale
 70
     0
300
1/32" = 1'-0"
140
0.03125
141
12.0
290
     0
  0
SCALE
  5
5C
102
{ACAD_REACTORS
330
47
102
}
330
47
100
AcDbScale
 70
     0
300
1/16" = 1'-0"
140
0.0625
141
12.0
290
     0
  0
SCALE
  5
5D
102
{ACAD_REACTORS
330
47
102
}
330
47
100
AcDbScale
 70
     0
300
3/32" = 1'-0"
140
0.09375
141
12.0
290
     0
  0
SCALE
  5
5E
102
{ACAD_REACTORS
330
47
102
}
330
47
100
AcDbScale
 70
     0
300
1/8" = 1'-0"
140
0.125
141
12.0
290
     0
  0
SCALE
  5
5F
102
{ACAD_REACTORS
330
47
102
}
330
47
100
AcDbScale
 70
     0
300
3/16" = 1'-0"
140
0.1875
141
12.0
290
     0
  0
SCALE
  5
60
102
{ACAD_REACTORS
330
47
102
}
330
47
100
AcDbScale
 70
     0
300
1/4" = 1'-0"
140
0.25
141
12.0
290
     0
  0
SCALE
  5
61
102
{ACAD_REACTORS
330
47
102
}
330
47
100
AcDbScale
 70
     0
300
3/8" = 1'-0"
140
0.375
141
12.0
290
     0
  0
SCALE
  5
62
102
{ACAD_REACTORS
330
47
102
}
330
47
100
AcDbScale
 70
     0
300
1/2" = 1'-0"
140
0.5
141
12.0
290
     0
  0
SCALE
  5
63
102
{ACAD_REACTORS
330
47
102
}
330
47
100
AcDbScale
 70
     0
300
3/4" = 1'-0"
140
0.75
141
12.0
290
     0
  0
SCALE
  5
64
102
{ACAD_REACTORS
330
47
102
}
330
47
100
AcDbScale
 70
     0
300
1" = 1'-0"
140
1.0
141
12.0
290
     0
  0
SCALE
  5
65
102
{ACAD_REACTORS
330
47
102
}
330
47
100
AcDbScale
 70
     0
300
1-1/2" = 1'-0"
140
1.5
141
12.0
290
     0
  0
SCALE
  5
66
102
{ACAD_REACTORS
330
47
102
}
330
47
100
AcDbScale
 70
     0
300
3" = 1'-0"
140
3.0
141
12.0
290
     0
  0
SCALE
  5
67
102
{ACAD_REACTORS
330
47
102
}
330
47
100
AcDbScale
 70
     0
300
6" = 1'-0"
140
6.0
141
12.0
290
     0
  0
SCALE
  5
68
102
{ACAD_REACTORS
330
47
102
}
330
47
100
AcDbScale
 70
     0
300
1'-0" = 1'-0"
140
12.0
141
12.0
290
     0
  0
TABLESTYLE
  5
6A
102
{ACAD_REACTORS
330
69
102
}
330
69
100
AcDbTableStyle
  3
Standard
 70
     0
 71
     0
 40
0.06
 41
0.06
280
     0
281
     0
  7
Standard
140
0.18
170
     2
 62
     0
 63
   257
283
     0
274
    -2
284
     1
 64
     0
275
    -2
285
     1
 65
     0
276
    -2
286
     1
 66
     0
277
    -2
287
     1
 67
     0
278
    -2
288
     1
 68
     0
279
    -2
289
     1
 69
     0
  7
Standard
140
0.25
170
     5
 62
     0
 63
   257
283
     0
274
    -2
284
     1
 64
     0
275
    -2
285
     1
 65
     0
276
    -2
286
     1
 66
     0
277
    -2
287
     1
 67
     0
278
    -2
288
     1
 68
     0
279
    -2
289
     1
 69
     0
  7
Standard
140
0.18
170
     5
 62
     0
 63
   257
283
     0
274
    -2
284
     1
 64
     0
275
    -2
285
     1
 65
     0
276
    -2
286
     1
 66
     0
277
    -2
287
     1
 67
     0
278
    -2
288
     1
 68
     0
279
    -2
289
     1
 69
     0
  0
VISUALSTYLE
  5
2F
102
{ACAD_REACTORS
330
2A
102
}
102
{ACAD_XDICTIONARY
360
2A6
102
}
330
2A
100
AcDbVisualStyle
  2
2dWireframe
 70
     4
 71
     0
 72
     2
 73
     0
 90
        0
 40
0.6
 41
30.0
 62
     5
 63
     7
 74
     1
 91
        4
 64
     7
 65
   257
 75
     1
175
     1
 42
1.0
 92
        0
 66
   257
 43
1.0
 76
     1
 77
     6
 78
     2
 67
     7
 79
     5
170
     0
171
     0
290
     0
174
     0
 93
        1
 44
0.0
173
     0
291
     0
 45
0.0
1001
ACAD
1000
AcDbSavedByObjectVersion
1070
     0
  0
VISUALSTYLE
  5
32
102
{ACAD_REACTORS
330
2A
102
}
102
{ACAD_XDICTIONARY
360
2AC
102
}
330
2A
100
AcDbVisualStyle
  2
Basic
 70
     7
 71
     1
 72
     0
 73
     1
 90
        0
 40
0.6
 41
30.0
 62
     5
 63
     7
 74
     0
 91
        4
 64
     7
 65
   257
 75
     1
175
     1
 42
1.0
 92
        8
 66
     7
 43
1.0
 76
     1
 77
     6
 78
     2
 67
     7
 79
     5
170
     0
171
     0
290
     0
174
     0
 93
        1
 44
0.0
173
     0
291
     1
 45
0.0
1001
ACAD
1000
AcDbSavedByObjectVersion
1070
     0
  0
VISUALSTYLE
  5
36
102
{ACAD_REACTORS
330
2A
102
}
102
{ACAD_XDICTIONARY
360
2B4
102
}
330
2A
100
AcDbVisualStyle
  2
Brighten
 70
    12
 71
     2
 72
     2
 73
     0
 90
        0
 40
0.6
 41
30.0
 62
     5
 63
     7
 74
     1
 91
        4
 64
     7
 65
   257
 75
     1
175
     1
 42
1.0
 92
        8
 66
     7
 43
1.0
 76
     1
 77
     6
 78
     2
 67
     7
 79
     5
170
     0
171
     0
290
     0
174
     0
 93
        1
 44
50.0
173
     0
291
     1
 45
0.0
1001
ACAD
1000
AcDbSavedByObjectVersion
1070
     0
  0
VISUALSTYLE
  5
3A
102
{ACAD_REACTORS
330
2A
102
}
102
{ACAD_XDICTIONARY
360
2BC
102
}
330
2A
100
AcDbVisualStyle
  2
ColorChange
 70
    16
 71
     2
 72
     2
 73
     3
 90
        0
 40
0.6
 41
30.0
 62
     5
 63
     8
 74
     1
 91
        4
 64
     7
 65
   257
 75
     1
175
     1
 42
1.0
 92
        8
 66
     8
 43
1.0
 76
     1
 77
     6
 78
     2
 67
     7
 79
     5
170
     0
171
     0
290
     0
174
     0
 93
        1
 44
0.0
173
     0
291
     1
 45
0.0
1001
ACAD
1000
AcDbSavedByObjectVersion
1070
     0
  0
VISUALSTYLE
  5
34
102
{ACAD_REACTORS
330
2A
102
}
102
{ACAD_XDICTIONARY
360
2B0
102
}
330
2A
100
AcDbVisualStyle
  2
Conceptual
 70
     9
 71
     3
 72
     2
 73
     0
 90
        0
 40
0.6
 41
30.0
 62
     5
 63
     7
 74
     2
 91
        2
 64
     7
 65
   257
 75
     1
175
     1
 42
179.0
 92
        8
 66
     7
 43
1.0
 76
     1
 77
     6
 78
     2
 67
     7
 79
     3
170
     0
171
     0
290
     0
174
     0
 93
        1
 44
0.0
173
     0
291
     0
 45
0.0
1001
ACAD
1000
AcDbSavedByObjectVersion
1070
     0
  0
VISUALSTYLE
  5
35
102
{ACAD_REACTORS
330
2A
102
}
102
{ACAD_XDICTIONARY
360
2B2
102
}
330
2A
100
AcDbVisualStyle
  2
Dim
 70
    11
 71
     2
 72
     2
 73
     0
 90
        0
 40
0.6
 41
30.0
 62
     5
 63
     7
 74
     1
 91
        4
 64
     7
 65
   257
 75
     1
175
     1
 42
1.0
 92
        8
 66
     7
 43
1.0
 76
     1
 77
     6
 78
     2
 67
     7
 79
     5
170
     0
171
     0
290
     0
174
     0
 93
        1
 44
-50.0
173
     0
291
     1
 45
0.0
1001
ACAD
1000
AcDbSavedByObjectVersion
1070
     0
  0
VISUALSTYLE
  5
3D
102
{ACAD_REACTORS
330
2A
102
}
102
{ACAD_XDICTIONARY
360
2C2
102
}
330
2A
100
AcDbVisualStyle
  2
EdgeColorOff
 70
    22
 71
     2
 72
     2
 73
     0
 90
        0
 40
0.6
 41
30.0
 62
     5
 63
     7
 74
     1
 91
        4
 64
     7
 65
   257
 75
     1
175
     1
 42
1.0
 92
        8
 66
     7
 43
1.0
 76
     1
 77
     6
 78
     2
 67
     7
 79
     5
170
     0
171
     0
290
     0
174
     0
 93
        1
 44
0.0
173
     0
291
     1
 45
0.0
1001
ACAD
1000
AcDbSavedByObjectVersion
1070
     0
  0
VISUALSTYLE
  5
39
102
{ACAD_REACTORS
330
2A
102
}
102
{ACAD_XDICTIONARY
360
2BA
102
}
330
2A
100
AcDbVisualStyle
  2
Facepattern
 70
    15
 71
     2
 72
     2
 73
     0
 90
        0
 40
0.6
 41
30.0
 62
     5
 63
     7
 74
     1
 91
        4
 64
     7
 65
   257
 75
     1
175
     1
 42
1.0
 92
        8
 66
     7
 43
1.0
 76
     1
 77
     6
 78
     2
 67
     7
 79
     5
170
     0
171
     0
290
     0
174
     0
 93
        1
 44
0.0
173
     0
291
     1
 45
0.0
1001
ACAD
1000
AcDbSavedByObjectVersion
1070
     0
  0
VISUALSTYLE
  5
2B
102
{ACAD_REACTORS
330
2A
102
}
102
{ACAD_XDICTIONARY
360
29E
102
}
330
2A
100
AcDbVisualStyle
  2
Flat
 70
     0
 71
     2
 72
     1
 73
     1
 90
        2
 40
0.6
 41
30.0
 62
     5
 63
     7
 74
     0
 91
        0
 64
     7
 65
   257
 75
     1
175
     1
 42
1.0
 92
        8
 66
     7
 43
1.0
 76
     1
 77
     6
 78
     2
 67
     7
 79
     5
170
     0
171
     0
290
     0
174
     0
 93
       13
 44
0.0
173
     0
291
     1
 45
0.0
1001
ACAD
1000
AcDbSavedByObjectVersion
1070
     0
  0
VISUALSTYLE
  5
2C
102
{ACAD_REACTORS
330
2A
102
}
102
{ACAD_XDICTIONARY
360
2A0
102
}
330
2A
100
AcDbVisualStyle
  2
FlatWithEdges
 70
     1
 71
     2
 72
     1
 73
     1
 90
        2
 40
0.6
 41
30.0
 62
     5
 63
     7
 74
     1
 91
        0
 64
     7
 65
   257
 75
     1
175
     1
 42
1.0
 92
        0
 66
   257
 43
1.0
 76
     1
 77
     6
 78
     2
 67
     7
 79
     5
170
     0
171
     0
290
     0
174
     0
 93
       13
 44
0.0
173
     0
291
     1
 45
0.0
1001
ACAD
1000
AcDbSavedByObjectVersion
1070
     0
  0
VISUALSTYLE
  5
2D
102
{ACAD_REACTORS
330
2A
102
}
102
{ACAD_XDICTIONARY
360
2A2
102
}
330
2A
100
AcDbVisualStyle
  2
Gouraud
 70
     2
 71
     2
 72
     2
 73
     1
 90
        2
 40
0.6
 41
30.0
 62
     5
 63
     7
 74
     0
 91
        0
 64
     7
 65
   257
 75
     1
175
     1
 42
1.0
 92
        0
 66
     7
 43
1.0
 76
     1
 77
     6
 78
     2
 67
     7
 79
     5
170
     0
171
     0
290
     0
174
     0
 93
       13
 44
0.0
173
     0
291
     1
 45
0.0
1001
ACAD
1000
AcDbSavedByObjectVersion
1070
     0
  0
VISUALSTYLE
  5
2E
102
{ACAD_REACTORS
330
2A
102
}
102
{ACAD_XDICTIONARY
360
2A4
102
}
330
2A
100
AcDbVisualStyle
  2
GouraudWithEdges
 70
     3
 71
     2
 72
     2
 73
     1
 90
        2
 40
0.6
 41
30.0
 62
     5
 63
     7
 74
     1
 91
        0
 64
     7
 65
   257
 75
     1
175
     1
 42
1.0
 92
        0
 66
   257
 43
1.0
 76
     1
 77
     6
 78
     2
 67
     7
 79
     5
170
     0
171
     0
290
     0
174
     0
 93
       13
 44
0.0
173
     0
291
     1
 45
0.0
1001
ACAD
1000
AcDbSavedByObjectVersion
1070
     0
  0
VISUALSTYLE
  5
31
102
{ACAD_REACTORS
330
2A
102
}
102
{ACAD_XDICTIONARY
360
2AA
102
}
330
2A
100
AcDbVisualStyle
  2
Hidden
 70
     6
 71
     1
 72
     2
 73
     2
 90
        0
 40
0.6
 41
30.0
 62
     5
 63
     7
 74
     2
 91
        2
 64
     7
 65
   257
 75
     2
175
     1
 42
40.0
 92
        0
 66
   257
 43
1.0
 76
     1
 77
     6
 78
     2
 67
     7
 79
     3
170
     0
171
     0
290
     0
174
     0
 93
        1
 44
0.0
173
     0
291
     0
 45
0.0
1001
ACAD
1000
AcDbSavedByObjectVersion
1070
     0
  0
VISUALSTYLE
  5
3B
102
{ACAD_REACTORS
330
2A
102
}
102
{ACAD_XDICTIONARY
360
2BE
102
}
330
2A
100
AcDbVisualStyle
  2
JitterOff
 70
    20
 71
     2
 72
     2
 73
     0
 90
        0
 40
0.6
 41
30.0
 62
     5
 63
     7
 74
     1
 91
        4
 64
     7
 65
   257
 75
     1
175
     1
 42
1.0
 92
       10
 66
     7
 43
1.0
 76
     1
 77
     6
 78
     2
 67
     7
 79
     5
170
     0
171
     0
290
     0
174
     0
 93
        1
 44
0.0
173
     0
291
     1
 45
0.0
1001
ACAD
1000
AcDbSavedByObjectVersion
1070
     0
  0
VISUALSTYLE
  5
38
102
{ACAD_REACTORS
330
2A
102
}
102
{ACAD_XDICTIONARY
360
2B8
102
}
330
2A
100
AcDbVisualStyle
  2
Linepattern
 70
    14
 71
     2
 72
     2
 73
     0
 90
        0
 40
0.6
 41
30.0
 62
     5
 63
     7
 74
     1
 91
        4
 64
     7
 65
   257
 75
     7
175
     7
 42
1.0
 92
        8
 66
     7
 43
1.0
 76
     1
 77
     6
 78
     2
 67
     7
 79
     5
170
     0
171
     0
290
     0
174
     0
 93
        1
 44
0.0
173
     0
291
     1
 45
0.0
1001
ACAD
1000
AcDbSavedByObjectVersion
1070
     0
  0
VISUALSTYLE
  5
3C
102
{ACAD_REACTORS
330
2A
102
}
102
{ACAD_XDICTIONARY
360
2C0
102
}
330
2A
100
AcDbVisualStyle
  2
OverhangOff
 70
    21
 71
     2
 72
     2
 73
     0
 90
        0
 40
0.6
 41
30.0
 62
     5
 63
     7
 74
     1
 91
        4
 64
     7
 65
   257
 75
     1
175
     1
 42
1.0
 92
        9
 66
     7
 43
1.0
 76
     1
 77
     6
 78
     2
 67
     7
 79
     5
170
     0
171
     0
290
     0
174
     0
 93
        1
 44
0.0
173
     0
291
     1
 45
0.0
1001
ACAD
1000
AcDbSavedByObjectVersion
1070
     0
  0
VISUALSTYLE
  5
33
102
{ACAD_REACTORS
330
2A
102
}
102
{ACAD_XDICTIONARY
360
2AE
102
}
330
2A
100
AcDbVisualStyle
  2
Realistic
 70
     8
 71
     2
 72
     3
 73
     0
 90
        2
 40
0.6
 41
30.0
 62
     5
 63
     7
 74
     0
 91
        0
 64
     7
 65
   257
 75
     1
175
     1
 42
1.0
 92
        8
 66
   257
 43
1.0
 76
     1
 77
     6
 78
     2
 67
     7
 79
     3
170
     0
171
     0
290
     0
174
     0
 93
       13
 44
0.0
173
     0
291
     0
 45
0.0
1001
ACAD
1000
AcDbSavedByObjectVersion
1070
     0
  0
VISUALSTYLE
  5
42
102
{ACAD_REACTORS
330
2A
102
}
102
{ACAD_XDICTIONARY
360
2CC
102
}
330
2A
100
AcDbVisualStyle
  2
Shaded
 70
    27
 71
     2
 72
     2
 73
     1
 90
        2
 40
0.6
 41
30.0
 62
     5
 63
     7
 74
     0
 91
        4
 64
     7
 65
   257
 75
     1
175
     1
 42
1.0
 92
        8
 66
   257
 43
1.0
 76
     1
 77
     6
 78
     2
 67
     8
 79
     3
170
     0
171
     0
290
     0
174
     0
 93
        5
 44
0.0
173
     0
291
     0
 45
0.0
1001
ACAD
1000
AcDbSavedByObjectVersion
1070
     0
  0
VISUALSTYLE
  5
41
102
{ACAD_REACTORS
330
2A
102
}
102
{ACAD_XDICTIONARY
360
2CA
102
}
330
2A
100
AcDbVisualStyle
  2
Shaded with edges
 70
    26
 71
     2
 72
     2
 73
     1
 90
        2
 40
0.6
 41
30.0
 62
     5
 63
     7
 74
     1
 91
       10
 64
     7
 65
   257
 75
     2
175
     1
 42
1.0
 92
        8
 66
   257
 43
1.0
 76
     1
 77
     6
 78
     2
 67
     7
 79
     3
170
     0
171
     0
290
     0
174
     0
 93
        5
 44
0.0
173
     0
291
     0
 45
0.0
1001
ACAD
1000
AcDbSavedByObjectVersion
1070
     0
  0
VISUALSTYLE
  5
3E
102
{ACAD_REACTORS
330
2A
102
}
102
{ACAD_XDICTIONARY
360
2C4
102
}
330
2A
100
AcDbVisualStyle
  2
Shades of Gray
 70
    23
 71
     2
 72
     2
 73
     3
 90
        0
 40
0.6
 41
30.0
 62
     5
 63
     7
 74
     2
 91
        2
 64
     7
 65
     7
 75
     1
175
     1
 42
40.0
 92
        8
 66
     7
 43
1.0
 76
     1
 77
     6
 78
     2
 67
     7
 79
     3
170
     0
171
     0
290
     0
174
     0
 93
        1
 44
0.0
173
     0
291
     0
 45
0.0
1001
ACAD
1000
AcDbSavedByObjectVersion
1070
     0
  0
VISUALSTYLE
  5
3F
102
{ACAD_REACTORS
330
2A
102
}
102
{ACAD_XDICTIONARY
360
2C6
102
}
330
2A
100
AcDbVisualStyle
  2
Sketchy
 70
    24
 71
     1
 72
     2
 73
     2
 90
        0
 40
0.6
 41
30.0
 62
     5
 63
     7
 74
     2
 91
        2
 64
     7
 65
     7
 75
     1
175
     1
 42
40.0
 92
       11
 66
     7
 43
1.0
 76
     1
 77
     6
 78
     2
 67
     7
 79
     6
170
     0
171
     0
290
     0
174
     0
 93
        1
 44
0.0
173
     0
291
     0
 45
0.0
1001
ACAD
1000
AcDbSavedByObjectVersion
1070
     0
  0
VISUALSTYLE
  5
37
102
{ACAD_REACTORS
330
2A
102
}
102
{ACAD_XDICTIONARY
360
2B6
102
}
330
2A
100
AcDbVisualStyle
  2
Thicken
 70
    13
 71
     2
 72
     2
 73
     0
 90
        0
 40
0.6
 41
30.0
 62
     5
 63
     7
 74
     1
 91
        4
 64
     7
 65
   257
 75
     1
175
     1
 42
1.0
 92
       12
 66
     7
 43
1.0
 76
     1
 77
     6
 78
     2
 67
     7
 79
     5
170
     0
171
     0
290
     0
174
     0
 93
        1
 44
0.0
173
     0
291
     1
 45
0.0
1001
ACAD
1000
AcDbSavedByObjectVersion
1070
     0
  0
VISUALSTYLE
  5
30
102
{ACAD_REACTORS
330
2A
102
}
102
{ACAD_XDICTIONARY
360
2A8
102
}
330
2A
100
AcDbVisualStyle
  2
Wireframe
 70
     5
 71
     0
 72
     2
 73
     0
 90
        0
 40
0.6
 41
30.0
 62
     5
 63
     7
 74
     1
 91
        4
 64
     7
 65
   257
 75
     1
175
     1
 42
1.0
 92
        0
 66
   257
 43
1.0
 76
     1
 77
     6
 78
     2
 67
     7
 79
     3
170
     0
171
     0
290
     0
174
     0
 93
        1
 44
0.0
173
     0
291
     0
 45
0.0
1001
ACAD
1000
AcDbSavedByObjectVersion
1070
     0
  0
VISUALSTYLE
  5
40
102
{ACAD_REACTORS
330
2A
102
}
102
{ACAD_XDICTIONARY
360
2C8
102
}
330
2A
100
AcDbVisualStyle
  2
X-Ray
 70
    25
 71
     2
 72
     2
 73
     1
 90
        1
 40
0.5
 41
30.0
 62
     5
 63
     7
 74
     1
 91
        0
 64
     7
 65
   257
 75
     1
175
     1
 42
1.0
 92
        8
 66
     7
 43
1.0
 76
     1
 77
     6
 78
     2
 67
     7
 79
     3
170
     0
171
     0
290
     0
174
     0
 93
       13
 44
0.0
173
     0
291
     0
 45
0.0
1001
ACAD
1000
AcDbSavedByObjectVersion
1070
     0
  0
DICTIONARYVAR
  5
29C
102
{ACAD_REACTORS
330
291
102
}
330
291
100
DictionaryVariables
280
     0
  1
1:1
  0
DICTIONARYVAR
  5
293
102
{ACAD_REACTORS
330
291
102
}
330
291
100
DictionaryVariables
280
     0
  1
Standard
  0
DICTIONARYVAR
  5
292
102
{ACAD_REACTORS
330
291
102
}
330
291
100
DictionaryVariables
280
     0
  1
Standard
  0
DICTIONARYVAR
  5
296
102
{ACAD_REACTORS
330
291
102
}
330
291
100
DictionaryVariables
280
     0
  1
2
  0
DICTIONARYVAR
  5
297
102
{ACAD_REACTORS
330
291
102
}
330
291
100
DictionaryVariables
280
     0
  1
1
  0
DICTIONARYVAR
  5
29D
102
{ACAD_REACTORS
330
291
102
}
330
291
100
DictionaryVariables
280
     0
  1
1
  0
DICTIONARY
  5
2D0
330
45
100
AcDbDictionary
280
     1
281
     1
  3
ACAD_XREC_ROUNDTRIP
360
2D1
  0
DICTIONARY
  5
2CE
330
44
100
AcDbDictionary
280
     1
281
     1
  3
ACAD_XREC_ROUNDTRIP
360
2CF
  0
DICTIONARY
  5
2D2
330
46
100
AcDbDictionary
280
     1
281
     1
  3
ACAD_XREC_ROUNDTRIP
360
2D3
  0
DICTIONARY
  5
2D5
330
6C
100
AcDbDictionary
280
     1
281
     1
  3
ACAD_XREC_ROUNDTRIP
360
2D6
  0
DICTIONARY
  5
2A6
330
2F
100
AcDbDictionary
280
     1
281
     1
  3
ACAD_XREC_ROUNDTRIP
360
2A7
  0
DICTIONARY
  5
2AC
330
32
100
AcDbDictionary
280
     1
281
     1
  3
ACAD_XREC_ROUNDTRIP
360
2AD
  0
DICTIONARY
  5
2B4
330
36
100
AcDbDictionary
280
     1
281
     1
  3
ACAD_XREC_ROUNDTRIP
360
2B5
  0
DICTIONARY
  5
2BC
330
3A
100
AcDbDictionary
280
     1
281
     1
  3
ACAD_XREC_ROUNDTRIP
360
2BD
  0
DICTIONARY
  5
2B0
330
34
100
AcDbDictionary
280
     1
281
     1
  3
ACAD_XREC_ROUNDTRIP
360
2B1
  0
DICTIONARY
  5
2B2
330
35
100
AcDbDictionary
280
     1
281
     1
  3
ACAD_XREC_ROUNDTRIP
360
2B3
  0
DICTIONARY
  5
2C2
330
3D
100
AcDbDictionary
280
     1
281
     1
  3
ACAD_XREC_ROUNDTRIP
360
2C3
  0
DICTIONARY
  5
2BA
330
39
100
AcDbDictionary
280
     1
281
     1
  3
ACAD_XREC_ROUNDTRIP
360
2BB
  0
DICTIONARY
  5
29E
330
2B
100
AcDbDictionary
280
     1
281
     1
  3
ACAD_XREC_ROUNDTRIP
360
29F
  0
DICTIONARY
  5
2A0
330
2C
100
AcDbDictionary
280
     1
281
     1
  3
ACAD_XREC_ROUNDTRIP
360
2A1
  0
DICTIONARY
  5
2A2
330
2D
100
AcDbDictionary
280
     1
281
     1
  3
ACAD_XREC_ROUNDTRIP
360
2A3
  0
DICTIONARY
  5
2A4
330
2E
100
AcDbDictionary
280
     1
281
     1
  3
ACAD_XREC_ROUNDTRIP
360
2A5
  0
DICTIONARY
  5
2AA
330
31
100
AcDbDictionary
280
     1
281
     1
  3
ACAD_XREC_ROUNDTRIP
360
2AB
  0
DICTIONARY
  5
2BE
330
3B
100
AcDbDictionary
280
     1
281
     1
  3
ACAD_XREC_ROUNDTRIP
360
2BF
  0
DICTIONARY
  5
2B8
330
38
100
AcDbDictionary
280
     1
281
     1
  3
ACAD_XREC_ROUNDTRIP
360
2B9
  0
DICTIONARY
  5
2C0
330
3C
100
AcDbDictionary
280
     1
281
     1
  3
ACAD_XREC_ROUNDTRIP
360
2C1
  0
DICTIONARY
  5
2AE
330
33
100
AcDbDictionary
280
     1
281
     1
  3
ACAD_XREC_ROUNDTRIP
360
2AF
  0
DICTIONARY
  5
2CC
330
42
100
AcDbDictionary
280
     1
281
     1
  3
ACAD_XREC_ROUNDTRIP
360
2CD
  0
DICTIONARY
  5
2CA
330
41
100
AcDbDictionary
280
     1
281
     1
  3
ACAD_XREC_ROUNDTRIP
360
2CB
  0
DICTIONARY
  5
2C4
330
3E
100
AcDbDictionary
280
     1
281
     1
  3
ACAD_XREC_ROUNDTRIP
360
2C5
  0
DICTIONARY
  5
2C6
330
3F
100
AcDbDictionary
280
     1
281
     1
  3
ACAD_XREC_ROUNDTRIP
360
2C7
  0
DICTIONARY
  5
2B6
330
37
100
AcDbDictionary
280
     1
281
     1
  3
ACAD_XREC_ROUNDTRIP
360
2B7
  0
DICTIONARY
  5
2A8
330
30
100
AcDbDictionary
280
     1
281
     1
  3
ACAD_XREC_ROUNDTRIP
360
2A9
  0
DICTIONARY
  5
2C8
330
40
100
AcDbDictionary
280
     1
281
     1
  3
ACAD_XREC_ROUNDTRIP
360
2C9
  0
XRECORD
  5
2D1
102
{ACAD_REACTORS
330
2D0
102
}
330
2D0
100
AcDbXrecord
280
     1
102
MATERIAL
148
0.0
149
0.0
149
0.0
 93
        0
 94
      127
282
     0
 72
     1
 77
     1
171
     1
175
     1
179
     1
273
     0
  0
XRECORD
  5
2CF
102
{ACAD_REACTORS
330
2CE
102
}
330
2CE
100
AcDbXrecord
280
     1
102
MATERIAL
148
0.0
149
0.0
149
0.0
 93
        0
 94
      127
282
     0
 72
     1
 77
     1
171
     1
175
     1
179
     1
273
     0
  0
XRECORD
  5
2D3
102
{ACAD_REACTORS
330
2D2
102
}
330
2D2
100
AcDbXrecord
280
     1
102
MATERIAL
148
0.0
149
0.0
149
0.0
 93
        0
 94
      127
282
     0
 72
     1
 77
     1
171
     1
175
     1
179
     1
273
     0
  0
XRECORD
  5
2D6
102
{ACAD_REACTORS
330
2D5
102
}
330
2D5
100
AcDbXrecord
280
     1
102
ACAD_ROUNDTRIP_2010_MLEADER_STYLE
  0
XRECORD
  5
2A7
102
{ACAD_REACTORS
330
2A6
102
}
330
2A6
100
AcDbXrecord
280
     1
102
RTVSPropertyOp0
 70
     1
102
RTVSPropertyOp1
 70
     1
102
RTVSPropertyOp2
 70
     1
102
RTVSPropertyOp3
 70
     1
102
RTVSPropertyOp4
 70
     1
102
RTVSPropertyOp5
 70
     1
102
RTVSPropertyOp6
 70
     1
102
RTVSPropertyOp7
 70
     1
102
RTVSPropertyOp8
 70
     1
102
RTVSPropertyOp9
 70
     1
102
RTVSPropertyOp10
 70
     1
102
RTVSPropertyOp11
 70
     1
102
RTVSPropertyOp12
 70
     1
102
RTVSPropertyOp13
 70
     1
102
RTVSPropertyOp14
 70
     1
102
RTVSPropertyOp15
 70
     1
102
RTVSPropertyOp16
 70
     1
102
RTVSPropertyOp17
 70
     1
102
RTVSPropertyOp18
 70
     1
102
RTVSPropertyOp19
 70
     1
102
RTVSPropertyOp20
 70
     1
102
RTVSPropertyOp21
 70
     1
102
RTVSPropertyOp22
 70
     1
102
RTVSPropertyOp23
 70
     1
102
RTVSPropertyOp24
 70
     1
102
RTVSPropertyOp25
 70
     1
102
RTVSPropertyOp26
 70
     1
102
RTVSPropertyOp27
 70
     1
102
RTVSPropertyOp28
 70
     1
102
RTVSPropertyOp29
 70
     1
102
RTVSPropertyOp30
 70
     1
102
RTVSPropertyOp31
 70
     1
102
RTVSPropertyOp32
 70
     1
102
RTVSPropertyOp33
 70
     1
102
RTVSPropertyOp34
 70
     1
102
RTVSPropertyOp35
 70
     1
102
RTVSPropertyOp36
 70
     1
102
RTVSPropertyOp37
 70
     1
102
RTVSPropertyOp38
 70
     1
102
RTVSPropertyOp39
 70
     1
102
RTVSPropertyOp40
 70
     1
102
RTVSPropertyOp41
 70
     1
102
RTVSPropertyOp42
 70
     1
102
RTVSPropertyOp43
 70
     1
102
RTVSPropertyOp44
 70
     1
102
RTVSPropertyOp45
 70
     1
102
RTVSPropertyOp46
 70
     1
102
RTVSPropertyOp47
 70
     1
102
RTVSPropertyOp48
 70
     1
102
RTVSPropertyOp49
 70
     1
102
RTVSPropertyOp50
 70
     1
102
RTVSPropertyOp51
 70
     0
102
RTVSPropertyOp52
 70
     0
102
RTVSPropertyOp53
 70
     1
102
RTVSPropertyOp54
 70
     1
102
RTVSPropertyOp55
 70
     1
102
RTVSPropertyOp56
 70
     1
102
RTVSPropertyOp57
 70
     1
102
RTVSPost2010Prop28
280
     1
102
RTVSPost2010PropOp28
 70
     1
102
RTVSPost2010Prop29
280
     1
102
RTVSPost2010PropOp29
 70
     1
102
RTVSPost2010Prop30
280
     0
102
RTVSPost2010PropOp30
 70
     1
102
RTVSPost2010Prop31
280
     0
102
RTVSPost2010PropOp31
 70
     1
102
RTVSPost2010Prop32
280
     0
102
RTVSPost2010PropOp32
 70
     1
102
RTVSPost2010Prop33
280
     0
102
RTVSPost2010PropOp33
 70
     1
102
RTVSPost2010Prop34
280
     0
102
RTVSPost2010PropOp34
 70
     1
102
RTVSPost2010Prop35
280
     0
102
RTVSPost2010PropOp35
 70
     1
102
RTVSPost2010Prop36
280
     0
102
RTVSPost2010PropOp36
 70
     1
102
RTVSPost2010Prop37
 90
       50
102
RTVSPost2010PropOp37
 70
     1
102
RTVSPost2010Prop38
140
0.0
102
RTVSPost2010PropOp38
 70
     1
102
RTVSPost2010Prop39
140
1.0
102
RTVSPost2010PropOp39
 70
     1
102
RTVSPost2010Prop40
 90
        0
102
RTVSPost2010PropOp40
 70
     1
102
RTVSPost2010Prop41ColorIndex
 90
       18
102
RTVSPost2010Prop41ColorRGB
 90
        0
102
RTVSPost2010PropOp41
 70
     1
102
RTVSPost2010Prop42
 90
       50
102
RTVSPost2010PropOp42
 70
     1
102
RTVSPost2010Prop43
 90
        3
102
RTVSPost2010PropOp43
 70
     1
102
RTVSPost2010Prop44ColorIndex
 90
        5
102
RTVSPost2010Prop44ColorRGB
 90
      255
102
RTVSPost2010PropOp44
 70
     1
102
RTVSPost2010Prop45
280
     0
102
RTVSPost2010PropOp45
 70
     1
102
RTVSPost2010Prop46
 90
       50
102
RTVSPost2010PropOp46
 70
     1
102
RTVSPost2010Prop47
 90
       50
102
RTVSPost2010PropOp47
 70
     1
102
RTVSPost2010Prop48
 90
       50
102
RTVSPost2010PropOp48
 70
     1
102
RTVSPost2010Prop49
280
     0
102
RTVSPost2010PropOp49
 70
     1
102
RTVSPost2010Prop50
 90
       50
102
RTVSPost2010PropOp50
 70
     1
102
RTVSPost2010Prop51ColorIndex
 90
      256
102
RTVSPost2010Prop51ColorRGB
 90
-16777216
102
RTVSPost2010PropOp51
 70
     0
102
RTVSPost2010Prop52
140
1.0
102
RTVSPost2010PropOp52
 70
     0
102
RTVSPost2010Prop53
 90
        2
102
RTVSPost2010PropOp53
 70
     1
102
RTVSPost2010Prop54
  1
strokes_ogs.tif
102
RTVSPost2010PropOp54
 70
     1
102
RTVSPost2010Prop55
280
     0
102
RTVSPost2010PropOp55
 70
     1
102
RTVSPost2010Prop56
140
1.0
102
RTVSPost2010PropOp56
 70
     1
102
RTVSPost2010Prop57
140
1.0
102
RTVSPost2010PropOp57
 70
     1
  0
XRECORD
  5
2AD
102
{ACAD_REACTORS
330
2AC
102
}
330
2AC
100
AcDbXrecord
280
     1
102
RTVSPropertyOp0
 70
     1
102
RTVSPropertyOp1
 70
     1
102
RTVSPropertyOp2
 70
     1
102
RTVSPropertyOp3
 70
     1
102
RTVSPropertyOp4
 70
     1
102
RTVSPropertyOp5
 70
     1
102
RTVSPropertyOp6
 70
     1
102
RTVSPropertyOp7
 70
     1
102
RTVSPropertyOp8
 70
     1
102
RTVSPropertyOp9
 70
     1
102
RTVSPropertyOp10
 70
     1
102
RTVSPropertyOp11
 70
     1
102
RTVSPropertyOp12
 70
     1
102
RTVSPropertyOp13
 70
     1
102
RTVSPropertyOp14
 70
     1
102
RTVSPropertyOp15
 70
     1
102
RTVSPropertyOp16
 70
     1
102
RTVSPropertyOp17
 70
     1
102
RTVSPropertyOp18
 70
     1
102
RTVSPropertyOp19
 70
     1
102
RTVSPropertyOp20
 70
     1
102
RTVSPropertyOp21
 70
     1
102
RTVSPropertyOp22
 70
     1
102
RTVSPropertyOp23
 70
     1
102
RTVSPropertyOp24
 70
     1
102
RTVSPropertyOp25
 70
     1
102
RTVSPropertyOp26
 70
     1
102
RTVSPropertyOp27
 70
     1
102
RTVSPropertyOp28
 70
     1
102
RTVSPropertyOp29
 70
     1
102
RTVSPropertyOp30
 70
     1
102
RTVSPropertyOp31
 70
     1
102
RTVSPropertyOp32
 70
     1
102
RTVSPropertyOp33
 70
     1
102
RTVSPropertyOp34
 70
     1
102
RTVSPropertyOp35
 70
     1
102
RTVSPropertyOp36
 70
     1
102
RTVSPropertyOp37
 70
     1
102
RTVSPropertyOp38
 70
     1
102
RTVSPropertyOp39
 70
     1
102
RTVSPropertyOp40
 70
     1
102
RTVSPropertyOp41
 70
     1
102
RTVSPropertyOp42
 70
     1
102
RTVSPropertyOp43
 70
     1
102
RTVSPropertyOp44
 70
     1
102
RTVSPropertyOp45
 70
     1
102
RTVSPropertyOp46
 70
     1
102
RTVSPropertyOp47
 70
     1
102
RTVSPropertyOp48
 70
     1
102
RTVSPropertyOp49
 70
     1
102
RTVSPropertyOp50
 70
     1
102
RTVSPropertyOp51
 70
     0
102
RTVSPropertyOp52
 70
     0
102
RTVSPropertyOp53
 70
     1
102
RTVSPropertyOp54
 70
     1
102
RTVSPropertyOp55
 70
     1
102
RTVSPropertyOp56
 70
     1
102
RTVSPropertyOp57
 70
     1
102
RTVSPost2010Prop28
280
     0
102
RTVSPost2010PropOp28
 70
     1
102
RTVSPost2010Prop29
280
     1
102
RTVSPost2010PropOp29
 70
     1
102
RTVSPost2010Prop30
280
     1
102
RTVSPost2010PropOp30
 70
     1
102
RTVSPost2010Prop31
280
     0
102
RTVSPost2010PropOp31
 70
     1
102
RTVSPost2010Prop32
280
     0
102
RTVSPost2010PropOp32
 70
     1
102
RTVSPost2010Prop33
280
     0
102
RTVSPost2010PropOp33
 70
     1
102
RTVSPost2010Prop34
280
     0
102
RTVSPost2010PropOp34
 70
     1
102
RTVSPost2010Prop35
280
     0
102
RTVSPost2010PropOp35
 70
     1
102
RTVSPost2010Prop36
280
     0
102
RTVSPost2010PropOp36
 70
     1
102
RTVSPost2010Prop37
 90
       50
102
RTVSPost2010PropOp37
 70
     1
102
RTVSPost2010Prop38
140
0.0
102
RTVSPost2010PropOp38
 70
     1
102
RTVSPost2010Prop39
140
1.0
102
RTVSPost2010PropOp39
 70
     1
102
RTVSPost2010Prop40
 90
        0
102
RTVSPost2010PropOp40
 70
     1
102
RTVSPost2010Prop41ColorIndex
 90
       18
102
RTVSPost2010Prop41ColorRGB
 90
        0
102
RTVSPost2010PropOp41
 70
     1
102
RTVSPost2010Prop42
 90
       50
102
RTVSPost2010PropOp42
 70
     1
102
RTVSPost2010Prop43
 90
        3
102
RTVSPost2010PropOp43
 70
     1
102
RTVSPost2010Prop44ColorIndex
 90
        5
102
RTVSPost2010Prop44ColorRGB
 90
      255
102
RTVSPost2010PropOp44
 70
     1
102
RTVSPost2010Prop45
280
     0
102
RTVSPost2010PropOp45
 70
     1
102
RTVSPost2010Prop46
 90
       50
102
RTVSPost2010PropOp46
 70
     1
102
RTVSPost2010Prop47
 90
       50
102
RTVSPost2010PropOp47
 70
     1
102
RTVSPost2010Prop48
 90
       50
102
RTVSPost2010PropOp48
 70
     1
102
RTVSPost2010Prop49
280
     0
102
RTVSPost2010PropOp49
 70
     1
102
RTVSPost2010Prop50
 90
       50
102
RTVSPost2010PropOp50
 70
     1
102
RTVSPost2010Prop51ColorIndex
 90
      256
102
RTVSPost2010Prop51ColorRGB
 90
-16777216
102
RTVSPost2010PropOp51
 70
     0
102
RTVSPost2010Prop52
140
1.0
102
RTVSPost2010PropOp52
 70
     0
102
RTVSPost2010Prop53
 90
        2
102
RTVSPost2010PropOp53
 70
     1
102
RTVSPost2010Prop54
  1
strokes_ogs.tif
102
RTVSPost2010PropOp54
 70
     1
102
RTVSPost2010Prop55
280
     0
102
RTVSPost2010PropOp55
 70
     1
102
RTVSPost2010Prop56
140
1.0
102
RTVSPost2010PropOp56
 70
     1
102
RTVSPost2010Prop57
140
1.0
102
RTVSPost2010PropOp57
 70
     1
  0
XRECORD
  5
2B5
102
{ACAD_REACTORS
330
2B4
102
}
330
2B4
100
AcDbXrecord
280
     1
102
RTVSPropertyOp0
 70
     1
102
RTVSPropertyOp1
 70
     1
102
RTVSPropertyOp2
 70
     1
102
RTVSPropertyOp3
 70
     1
102
RTVSPropertyOp4
 70
     1
102
RTVSPropertyOp5
 70
     1
102
RTVSPropertyOp6
 70
     1
102
RTVSPropertyOp7
 70
     1
102
RTVSPropertyOp8
 70
     1
102
RTVSPropertyOp9
 70
     1
102
RTVSPropertyOp10
 70
     1
102
RTVSPropertyOp11
 70
     1
102
RTVSPropertyOp12
 70
     1
102
RTVSPropertyOp13
 70
     1
102
RTVSPropertyOp14
 70
     1
102
RTVSPropertyOp15
 70
     1
102
RTVSPropertyOp16
 70
     1
102
RTVSPropertyOp17
 70
     1
102
RTVSPropertyOp18
 70
     1
102
RTVSPropertyOp19
 70
     1
102
RTVSPropertyOp20
 70
     1
102
RTVSPropertyOp21
 70
     1
102
RTVSPropertyOp22
 70
     1
102
RTVSPropertyOp23
 70
     1
102
RTVSPropertyOp24
 70
     1
102
RTVSPropertyOp25
 70
     1
102
RTVSPropertyOp26
 70
     1
102
RTVSPropertyOp27
 70
     1
102
RTVSPropertyOp28
 70
     1
102
RTVSPropertyOp29
 70
     1
102
RTVSPropertyOp30
 70
     1
102
RTVSPropertyOp31
 70
     1
102
RTVSPropertyOp32
 70
     1
102
RTVSPropertyOp33
 70
     1
102
RTVSPropertyOp34
 70
     1
102
RTVSPropertyOp35
 70
     1
102
RTVSPropertyOp36
 70
     1
102
RTVSPropertyOp37
 70
     1
102
RTVSPropertyOp38
 70
     1
102
RTVSPropertyOp39
 70
     1
102
RTVSPropertyOp40
 70
     1
102
RTVSPropertyOp41
 70
     1
102
RTVSPropertyOp42
 70
     1
102
RTVSPropertyOp43
 70
     1
102
RTVSPropertyOp44
 70
     1
102
RTVSPropertyOp45
 70
     1
102
RTVSPropertyOp46
 70
     1
102
RTVSPropertyOp47
 70
     1
102
RTVSPropertyOp48
 70
     1
102
RTVSPropertyOp49
 70
     1
102
RTVSPropertyOp50
 70
     1
102
RTVSPropertyOp51
 70
     0
102
RTVSPropertyOp52
 70
     0
102
RTVSPropertyOp53
 70
     1
102
RTVSPropertyOp54
 70
     1
102
RTVSPropertyOp55
 70
     1
102
RTVSPropertyOp56
 70
     1
102
RTVSPropertyOp57
 70
     1
102
RTVSPost2010Prop28
280
     0
102
RTVSPost2010PropOp28
 70
     1
102
RTVSPost2010Prop29
280
     1
102
RTVSPost2010PropOp29
 70
     1
102
RTVSPost2010Prop30
280
     1
102
RTVSPost2010PropOp30
 70
     1
102
RTVSPost2010Prop31
280
     0
102
RTVSPost2010PropOp31
 70
     1
102
RTVSPost2010Prop32
280
     0
102
RTVSPost2010PropOp32
 70
     1
102
RTVSPost2010Prop33
280
     0
102
RTVSPost2010PropOp33
 70
     1
102
RTVSPost2010Prop34
280
     0
102
RTVSPost2010PropOp34
 70
     1
102
RTVSPost2010Prop35
280
     0
102
RTVSPost2010PropOp35
 70
     1
102
RTVSPost2010Prop36
280
     0
102
RTVSPost2010PropOp36
 70
     1
102
RTVSPost2010Prop37
 90
       50
102
RTVSPost2010PropOp37
 70
     1
102
RTVSPost2010Prop38
140
0.0
102
RTVSPost2010PropOp38
 70
     1
102
RTVSPost2010Prop39
140
1.0
102
RTVSPost2010PropOp39
 70
     1
102
RTVSPost2010Prop40
 90
        0
102
RTVSPost2010PropOp40
 70
     1
102
RTVSPost2010Prop41ColorIndex
 90
       18
102
RTVSPost2010Prop41ColorRGB
 90
        0
102
RTVSPost2010PropOp41
 70
     1
102
RTVSPost2010Prop42
 90
       50
102
RTVSPost2010PropOp42
 70
     1
102
RTVSPost2010Prop43
 90
        3
102
RTVSPost2010PropOp43
 70
     1
102
RTVSPost2010Prop44ColorIndex
 90
        5
102
RTVSPost2010Prop44ColorRGB
 90
      255
102
RTVSPost2010PropOp44
 70
     1
102
RTVSPost2010Prop45
280
     0
102
RTVSPost2010PropOp45
 70
     1
102
RTVSPost2010Prop46
 90
       50
102
RTVSPost2010PropOp46
 70
     1
102
RTVSPost2010Prop47
 90
       50
102
RTVSPost2010PropOp47
 70
     1
102
RTVSPost2010Prop48
 90
       50
102
RTVSPost2010PropOp48
 70
     1
102
RTVSPost2010Prop49
280
     0
102
RTVSPost2010PropOp49
 70
     1
102
RTVSPost2010Prop50
 90
       50
102
RTVSPost2010PropOp50
 70
     1
102
RTVSPost2010Prop51ColorIndex
 90
      256
102
RTVSPost2010Prop51ColorRGB
 90
-16777216
102
RTVSPost2010PropOp51
 70
     0
102
RTVSPost2010Prop52
140
1.0
102
RTVSPost2010PropOp52
 70
     0
102
RTVSPost2010Prop53
 90
        2
102
RTVSPost2010PropOp53
 70
     1
102
RTVSPost2010Prop54
  1
strokes_ogs.tif
102
RTVSPost2010PropOp54
 70
     1
102
RTVSPost2010Prop55
280
     0
102
RTVSPost2010PropOp55
 70
     1
102
RTVSPost2010Prop56
140
1.0
102
RTVSPost2010PropOp56
 70
     1
102
RTVSPost2010Prop57
140
1.0
102
RTVSPost2010PropOp57
 70
     1
  0
XRECORD
  5
2BD
102
{ACAD_REACTORS
330
2BC
102
}
330
2BC
100
AcDbXrecord
280
     1
102
RTVSPropertyOp0
 70
     1
102
RTVSPropertyOp1
 70
     1
102
RTVSPropertyOp2
 70
     1
102
RTVSPropertyOp3
 70
     1
102
RTVSPropertyOp4
 70
     1
102
RTVSPropertyOp5
 70
     1
102
RTVSPropertyOp6
 70
     1
102
RTVSPropertyOp7
 70
     1
102
RTVSPropertyOp8
 70
     1
102
RTVSPropertyOp9
 70
     1
102
RTVSPropertyOp10
 70
     1
102
RTVSPropertyOp11
 70
     1
102
RTVSPropertyOp12
 70
     1
102
RTVSPropertyOp13
 70
     1
102
RTVSPropertyOp14
 70
     1
102
RTVSPropertyOp15
 70
     1
102
RTVSPropertyOp16
 70
     1
102
RTVSPropertyOp17
 70
     1
102
RTVSPropertyOp18
 70
     1
102
RTVSPropertyOp19
 70
     1
102
RTVSPropertyOp20
 70
     1
102
RTVSPropertyOp21
 70
     1
102
RTVSPropertyOp22
 70
     1
102
RTVSPropertyOp23
 70
     1
102
RTVSPropertyOp24
 70
     1
102
RTVSPropertyOp25
 70
     1
102
RTVSPropertyOp26
 70
     1
102
RTVSPropertyOp27
 70
     1
102
RTVSPropertyOp28
 70
     1
102
RTVSPropertyOp29
 70
     1
102
RTVSPropertyOp30
 70
     1
102
RTVSPropertyOp31
 70
     1
102
RTVSPropertyOp32
 70
     1
102
RTVSPropertyOp33
 70
     1
102
RTVSPropertyOp34
 70
     1
102
RTVSPropertyOp35
 70
     1
102
RTVSPropertyOp36
 70
     1
102
RTVSPropertyOp37
 70
     1
102
RTVSPropertyOp38
 70
     1
102
RTVSPropertyOp39
 70
     1
102
RTVSPropertyOp40
 70
     1
102
RTVSPropertyOp41
 70
     1
102
RTVSPropertyOp42
 70
     1
102
RTVSPropertyOp43
 70
     1
102
RTVSPropertyOp44
 70
     1
102
RTVSPropertyOp45
 70
     1
102
RTVSPropertyOp46
 70
     1
102
RTVSPropertyOp47
 70
     1
102
RTVSPropertyOp48
 70
     1
102
RTVSPropertyOp49
 70
     1
102
RTVSPropertyOp50
 70
     1
102
RTVSPropertyOp51
 70
     0
102
RTVSPropertyOp52
 70
     0
102
RTVSPropertyOp53
 70
     1
102
RTVSPropertyOp54
 70
     1
102
RTVSPropertyOp55
 70
     1
102
RTVSPropertyOp56
 70
     1
102
RTVSPropertyOp57
 70
     1
102
RTVSPost2010Prop28
280
     0
102
RTVSPost2010PropOp28
 70
     1
102
RTVSPost2010Prop29
280
     1
102
RTVSPost2010PropOp29
 70
     1
102
RTVSPost2010Prop30
280
     1
102
RTVSPost2010PropOp30
 70
     1
102
RTVSPost2010Prop31
280
     0
102
RTVSPost2010PropOp31
 70
     1
102
RTVSPost2010Prop32
280
     0
102
RTVSPost2010PropOp32
 70
     1
102
RTVSPost2010Prop33
280
     0
102
RTVSPost2010PropOp33
 70
     1
102
RTVSPost2010Prop34
280
     0
102
RTVSPost2010PropOp34
 70
     1
102
RTVSPost2010Prop35
280
     0
102
RTVSPost2010PropOp35
 70
     1
102
RTVSPost2010Prop36
280
     0
102
RTVSPost2010PropOp36
 70
     1
102
RTVSPost2010Prop37
 90
       50
102
RTVSPost2010PropOp37
 70
     1
102
RTVSPost2010Prop38
140
0.0
102
RTVSPost2010PropOp38
 70
     1
102
RTVSPost2010Prop39
140
1.0
102
RTVSPost2010PropOp39
 70
     1
102
RTVSPost2010Prop40
 90
        0
102
RTVSPost2010PropOp40
 70
     1
102
RTVSPost2010Prop41ColorIndex
 90
       18
102
RTVSPost2010Prop41ColorRGB
 90
        0
102
RTVSPost2010PropOp41
 70
     1
102
RTVSPost2010Prop42
 90
       50
102
RTVSPost2010PropOp42
 70
     1
102
RTVSPost2010Prop43
 90
        3
102
RTVSPost2010PropOp43
 70
     1
102
RTVSPost2010Prop44ColorIndex
 90
        5
102
RTVSPost2010Prop44ColorRGB
 90
      255
102
RTVSPost2010PropOp44
 70
     1
102
RTVSPost2010Prop45
280
     0
102
RTVSPost2010PropOp45
 70
     1
102
RTVSPost2010Prop46
 90
       50
102
RTVSPost2010PropOp46
 70
     1
102
RTVSPost2010Prop47
 90
       50
102
RTVSPost2010PropOp47
 70
     1
102
RTVSPost2010Prop48
 90
       50
102
RTVSPost2010PropOp48
 70
     1
102
RTVSPost2010Prop49
280
     0
102
RTVSPost2010PropOp49
 70
     1
102
RTVSPost2010Prop50
 90
       50
102
RTVSPost2010PropOp50
 70
     1
102
RTVSPost2010Prop51ColorIndex
 90
      256
102
RTVSPost2010Prop51ColorRGB
 90
-16777216
102
RTVSPost2010PropOp51
 70
     0
102
RTVSPost2010Prop52
140
1.0
102
RTVSPost2010PropOp52
 70
     0
102
RTVSPost2010Prop53
 90
        2
102
RTVSPost2010PropOp53
 70
     1
102
RTVSPost2010Prop54
  1
strokes_ogs.tif
102
RTVSPost2010PropOp54
 70
     1
102
RTVSPost2010Prop55
280
     0
102
RTVSPost2010PropOp55
 70
     1
102
RTVSPost2010Prop56
140
1.0
102
RTVSPost2010PropOp56
 70
     1
102
RTVSPost2010Prop57
140
1.0
102
RTVSPost2010PropOp57
 70
     1
  0
XRECORD
  5
2B1
102
{ACAD_REACTORS
330
2B0
102
}
330
2B0
100
AcDbXrecord
280
     1
102
RTVSPropertyOp0
 70
     1
102
RTVSPropertyOp1
 70
     1
102
RTVSPropertyOp2
 70
     1
102
RTVSPropertyOp3
 70
     1
102
RTVSPropertyOp4
 70
     1
102
RTVSPropertyOp5
 70
     1
102
RTVSPropertyOp6
 70
     1
102
RTVSPropertyOp7
 70
     1
102
RTVSPropertyOp8
 70
     1
102
RTVSPropertyOp9
 70
     1
102
RTVSPropertyOp10
 70
     1
102
RTVSPropertyOp11
 70
     1
102
RTVSPropertyOp12
 70
     1
102
RTVSPropertyOp13
 70
     1
102
RTVSPropertyOp14
 70
     1
102
RTVSPropertyOp15
 70
     1
102
RTVSPropertyOp16
 70
     1
102
RTVSPropertyOp17
 70
     1
102
RTVSPropertyOp18
 70
     1
102
RTVSPropertyOp19
 70
     1
102
RTVSPropertyOp20
 70
     1
102
RTVSPropertyOp21
 70
     1
102
RTVSPropertyOp22
 70
     1
102
RTVSPropertyOp23
 70
     1
102
RTVSPropertyOp24
 70
     1
102
RTVSPropertyOp25
 70
     1
102
RTVSPropertyOp26
 70
     1
102
RTVSPropertyOp27
 70
     1
102
RTVSPropertyOp28
 70
     1
102
RTVSPropertyOp29
 70
     1
102
RTVSPropertyOp30
 70
     1
102
RTVSPropertyOp31
 70
     1
102
RTVSPropertyOp32
 70
     1
102
RTVSPropertyOp33
 70
     1
102
RTVSPropertyOp34
 70
     1
102
RTVSPropertyOp35
 70
     1
102
RTVSPropertyOp36
 70
     1
102
RTVSPropertyOp37
 70
     1
102
RTVSPropertyOp38
 70
     1
102
RTVSPropertyOp39
 70
     1
102
RTVSPropertyOp40
 70
     1
102
RTVSPropertyOp41
 70
     1
102
RTVSPropertyOp42
 70
     1
102
RTVSPropertyOp43
 70
     1
102
RTVSPropertyOp44
 70
     1
102
RTVSPropertyOp45
 70
     1
102
RTVSPropertyOp46
 70
     1
102
RTVSPropertyOp47
 70
     1
102
RTVSPropertyOp48
 70
     1
102
RTVSPropertyOp49
 70
     1
102
RTVSPropertyOp50
 70
     1
102
RTVSPropertyOp51
 70
     0
102
RTVSPropertyOp52
 70
     0
102
RTVSPropertyOp53
 70
     1
102
RTVSPropertyOp54
 70
     1
102
RTVSPropertyOp55
 70
     1
102
RTVSPropertyOp56
 70
     1
102
RTVSPropertyOp57
 70
     1
102
RTVSPost2010Prop28
280
     0
102
RTVSPost2010PropOp28
 70
     1
102
RTVSPost2010Prop29
280
     1
102
RTVSPost2010PropOp29
 70
     1
102
RTVSPost2010Prop30
280
     1
102
RTVSPost2010PropOp30
 70
     1
102
RTVSPost2010Prop31
280
     0
102
RTVSPost2010PropOp31
 70
     1
102
RTVSPost2010Prop32
280
     0
102
RTVSPost2010PropOp32
 70
     1
102
RTVSPost2010Prop33
280
     0
102
RTVSPost2010PropOp33
 70
     1
102
RTVSPost2010Prop34
280
     0
102
RTVSPost2010PropOp34
 70
     1
102
RTVSPost2010Prop35
280
     0
102
RTVSPost2010PropOp35
 70
     1
102
RTVSPost2010Prop36
280
     0
102
RTVSPost2010PropOp36
 70
     1
102
RTVSPost2010Prop37
 90
       50
102
RTVSPost2010PropOp37
 70
     1
102
RTVSPost2010Prop38
140
0.0
102
RTVSPost2010PropOp38
 70
     1
102
RTVSPost2010Prop39
140
1.0
102
RTVSPost2010PropOp39
 70
     1
102
RTVSPost2010Prop40
 90
        0
102
RTVSPost2010PropOp40
 70
     1
102
RTVSPost2010Prop41ColorIndex
 90
       18
102
RTVSPost2010Prop41ColorRGB
 90
        0
102
RTVSPost2010PropOp41
 70
     1
102
RTVSPost2010Prop42
 90
       50
102
RTVSPost2010PropOp42
 70
     1
102
RTVSPost2010Prop43
 90
        3
102
RTVSPost2010PropOp43
 70
     1
102
RTVSPost2010Prop44ColorIndex
 90
        5
102
RTVSPost2010Prop44ColorRGB
 90
      255
102
RTVSPost2010PropOp44
 70
     1
102
RTVSPost2010Prop45
280
     0
102
RTVSPost2010PropOp45
 70
     1
102
RTVSPost2010Prop46
 90
       50
102
RTVSPost2010PropOp46
 70
     1
102
RTVSPost2010Prop47
 90
       50
102
RTVSPost2010PropOp47
 70
     1
102
RTVSPost2010Prop48
 90
       50
102
RTVSPost2010PropOp48
 70
     1
102
RTVSPost2010Prop49
280
     0
102
RTVSPost2010PropOp49
 70
     1
102
RTVSPost2010Prop50
 90
       50
102
RTVSPost2010PropOp50
 70
     1
102
RTVSPost2010Prop51ColorIndex
 90
      256
102
RTVSPost2010Prop51ColorRGB
 90
-16777216
102
RTVSPost2010PropOp51
 70
     0
102
RTVSPost2010Prop52
140
1.0
102
RTVSPost2010PropOp52
 70
     0
102
RTVSPost2010Prop53
 90
        2
102
RTVSPost2010PropOp53
 70
     1
102
RTVSPost2010Prop54
  1
strokes_ogs.tif
102
RTVSPost2010PropOp54
 70
     1
102
RTVSPost2010Prop55
280
     0
102
RTVSPost2010PropOp55
 70
     1
102
RTVSPost2010Prop56
140
1.0
102
RTVSPost2010PropOp56
 70
     1
102
RTVSPost2010Prop57
140
1.0
102
RTVSPost2010PropOp57
 70
     1
  0
XRECORD
  5
2B3
102
{ACAD_REACTORS
330
2B2
102
}
330
2B2
100
AcDbXrecord
280
     1
102
RTVSPropertyOp0
 70
     1
102
RTVSPropertyOp1
 70
     1
102
RTVSPropertyOp2
 70
     1
102
RTVSPropertyOp3
 70
     1
102
RTVSPropertyOp4
 70
     1
102
RTVSPropertyOp5
 70
     1
102
RTVSPropertyOp6
 70
     1
102
RTVSPropertyOp7
 70
     1
102
RTVSPropertyOp8
 70
     1
102
RTVSPropertyOp9
 70
     1
102
RTVSPropertyOp10
 70
     1
102
RTVSPropertyOp11
 70
     1
102
RTVSPropertyOp12
 70
     1
102
RTVSPropertyOp13
 70
     1
102
RTVSPropertyOp14
 70
     1
102
RTVSPropertyOp15
 70
     1
102
RTVSPropertyOp16
 70
     1
102
RTVSPropertyOp17
 70
     1
102
RTVSPropertyOp18
 70
     1
102
RTVSPropertyOp19
 70
     1
102
RTVSPropertyOp20
 70
     1
102
RTVSPropertyOp21
 70
     1
102
RTVSPropertyOp22
 70
     1
102
RTVSPropertyOp23
 70
     1
102
RTVSPropertyOp24
 70
     1
102
RTVSPropertyOp25
 70
     1
102
RTVSPropertyOp26
 70
     1
102
RTVSPropertyOp27
 70
     1
102
RTVSPropertyOp28
 70
     1
102
RTVSPropertyOp29
 70
     1
102
RTVSPropertyOp30
 70
     1
102
RTVSPropertyOp31
 70
     1
102
RTVSPropertyOp32
 70
     1
102
RTVSPropertyOp33
 70
     1
102
RTVSPropertyOp34
 70
     1
102
RTVSPropertyOp35
 70
     1
102
RTVSPropertyOp36
 70
     1
102
RTVSPropertyOp37
 70
     1
102
RTVSPropertyOp38
 70
     1
102
RTVSPropertyOp39
 70
     1
102
RTVSPropertyOp40
 70
     1
102
RTVSPropertyOp41
 70
     1
102
RTVSPropertyOp42
 70
     1
102
RTVSPropertyOp43
 70
     1
102
RTVSPropertyOp44
 70
     1
102
RTVSPropertyOp45
 70
     1
102
RTVSPropertyOp46
 70
     1
102
RTVSPropertyOp47
 70
     1
102
RTVSPropertyOp48
 70
     1
102
RTVSPropertyOp49
 70
     1
102
RTVSPropertyOp50
 70
     1
102
RTVSPropertyOp51
 70
     0
102
RTVSPropertyOp52
 70
     0
102
RTVSPropertyOp53
 70
     1
102
RTVSPropertyOp54
 70
     1
102
RTVSPropertyOp55
 70
     1
102
RTVSPropertyOp56
 70
     1
102
RTVSPropertyOp57
 70
     1
102
RTVSPost2010Prop28
280
     0
102
RTVSPost2010PropOp28
 70
     1
102
RTVSPost2010Prop29
280
     1
102
RTVSPost2010PropOp29
 70
     1
102
RTVSPost2010Prop30
280
     1
102
RTVSPost2010PropOp30
 70
     1
102
RTVSPost2010Prop31
280
     0
102
RTVSPost2010PropOp31
 70
     1
102
RTVSPost2010Prop32
280
     0
102
RTVSPost2010PropOp32
 70
     1
102
RTVSPost2010Prop33
280
     0
102
RTVSPost2010PropOp33
 70
     1
102
RTVSPost2010Prop34
280
     0
102
RTVSPost2010PropOp34
 70
     1
102
RTVSPost2010Prop35
280
     0
102
RTVSPost2010PropOp35
 70
     1
102
RTVSPost2010Prop36
280
     0
102
RTVSPost2010PropOp36
 70
     1
102
RTVSPost2010Prop37
 90
       50
102
RTVSPost2010PropOp37
 70
     1
102
RTVSPost2010Prop38
140
0.0
102
RTVSPost2010PropOp38
 70
     1
102
RTVSPost2010Prop39
140
1.0
102
RTVSPost2010PropOp39
 70
     1
102
RTVSPost2010Prop40
 90
        0
102
RTVSPost2010PropOp40
 70
     1
102
RTVSPost2010Prop41ColorIndex
 90
       18
102
RTVSPost2010Prop41ColorRGB
 90
        0
102
RTVSPost2010PropOp41
 70
     1
102
RTVSPost2010Prop42
 90
       50
102
RTVSPost2010PropOp42
 70
     1
102
RTVSPost2010Prop43
 90
        3
102
RTVSPost2010PropOp43
 70
     1
102
RTVSPost2010Prop44ColorIndex
 90
        5
102
RTVSPost2010Prop44ColorRGB
 90
      255
102
RTVSPost2010PropOp44
 70
     1
102
RTVSPost2010Prop45
280
     0
102
RTVSPost2010PropOp45
 70
     1
102
RTVSPost2010Prop46
 90
       50
102
RTVSPost2010PropOp46
 70
     1
102
RTVSPost2010Prop47
 90
       50
102
RTVSPost2010PropOp47
 70
     1
102
RTVSPost2010Prop48
 90
       50
102
RTVSPost2010PropOp48
 70
     1
102
RTVSPost2010Prop49
280
     0
102
RTVSPost2010PropOp49
 70
     1
102
RTVSPost2010Prop50
 90
       50
102
RTVSPost2010PropOp50
 70
     1
102
RTVSPost2010Prop51ColorIndex
 90
      256
102
RTVSPost2010Prop51ColorRGB
 90
-16777216
102
RTVSPost2010PropOp51
 70
     0
102
RTVSPost2010Prop52
140
1.0
102
RTVSPost2010PropOp52
 70
     0
102
RTVSPost2010Prop53
 90
        2
102
RTVSPost2010PropOp53
 70
     1
102
RTVSPost2010Prop54
  1
strokes_ogs.tif
102
RTVSPost2010PropOp54
 70
     1
102
RTVSPost2010Prop55
280
     0
102
RTVSPost2010PropOp55
 70
     1
102
RTVSPost2010Prop56
140
1.0
102
RTVSPost2010PropOp56
 70
     1
102
RTVSPost2010Prop57
140
1.0
102
RTVSPost2010PropOp57
 70
     1
  0
XRECORD
  5
2C3
102
{ACAD_REACTORS
330
2C2
102
}
330
2C2
100
AcDbXrecord
280
     1
102
RTVSPropertyOp0
 70
     0
102
RTVSPropertyOp1
 70
     0
102
RTVSPropertyOp2
 70
     0
102
RTVSPropertyOp3
 70
     0
102
RTVSPropertyOp4
 70
     0
102
RTVSPropertyOp5
 70
     0
102
RTVSPropertyOp6
 70
     0
102
RTVSPropertyOp7
 70
     0
102
RTVSPropertyOp8
 70
     0
102
RTVSPropertyOp9
 70
     0
102
RTVSPropertyOp10
 70
     0
102
RTVSPropertyOp11
 70
     0
102
RTVSPropertyOp12
 70
     0
102
RTVSPropertyOp13
 70
     0
102
RTVSPropertyOp14
 70
     2
102
RTVSPropertyOp15
 70
     0
102
RTVSPropertyOp16
 70
     0
102
RTVSPropertyOp17
 70
     0
102
RTVSPropertyOp18
 70
     0
102
RTVSPropertyOp19
 70
     0
102
RTVSPropertyOp20
 70
     0
102
RTVSPropertyOp21
 70
     0
102
RTVSPropertyOp22
 70
     0
102
RTVSPropertyOp23
 70
     0
102
RTVSPropertyOp24
 70
     0
102
RTVSPropertyOp25
 70
     0
102
RTVSPropertyOp26
 70
     0
102
RTVSPropertyOp27
 70
     0
102
RTVSPropertyOp28
 70
     0
102
RTVSPropertyOp29
 70
     0
102
RTVSPropertyOp30
 70
     0
102
RTVSPropertyOp31
 70
     0
102
RTVSPropertyOp32
 70
     0
102
RTVSPropertyOp33
 70
     0
102
RTVSPropertyOp34
 70
     0
102
RTVSPropertyOp35
 70
     0
102
RTVSPropertyOp36
 70
     0
102
RTVSPropertyOp37
 70
     0
102
RTVSPropertyOp38
 70
     0
102
RTVSPropertyOp39
 70
     0
102
RTVSPropertyOp40
 70
     0
102
RTVSPropertyOp41
 70
     0
102
RTVSPropertyOp42
 70
     0
102
RTVSPropertyOp43
 70
     0
102
RTVSPropertyOp44
 70
     0
102
RTVSPropertyOp45
 70
     0
102
RTVSPropertyOp46
 70
     0
102
RTVSPropertyOp47
 70
     0
102
RTVSPropertyOp48
 70
     0
102
RTVSPropertyOp49
 70
     0
102
RTVSPropertyOp50
 70
     0
102
RTVSPropertyOp51
 70
     0
102
RTVSPropertyOp52
 70
     0
102
RTVSPropertyOp53
 70
     0
102
RTVSPropertyOp54
 70
     0
102
RTVSPropertyOp55
 70
     0
102
RTVSPropertyOp56
 70
     0
102
RTVSPropertyOp57
 70
     0
102
RTVSPost2010Prop28
280
     0
102
RTVSPost2010PropOp28
 70
     0
102
RTVSPost2010Prop29
280
     1
102
RTVSPost2010PropOp29
 70
     0
102
RTVSPost2010Prop30
280
     1
102
RTVSPost2010PropOp30
 70
     0
102
RTVSPost2010Prop31
280
     0
102
RTVSPost2010PropOp31
 70
     0
102
RTVSPost2010Prop32
280
     0
102
RTVSPost2010PropOp32
 70
     0
102
RTVSPost2010Prop33
280
     0
102
RTVSPost2010PropOp33
 70
     0
102
RTVSPost2010Prop34
280
     0
102
RTVSPost2010PropOp34
 70
     0
102
RTVSPost2010Prop35
280
     0
102
RTVSPost2010PropOp35
 70
     0
102
RTVSPost2010Prop36
280
     0
102
RTVSPost2010PropOp36
 70
     0
102
RTVSPost2010Prop37
 90
       50
102
RTVSPost2010PropOp37
 70
     0
102
RTVSPost2010Prop38
140
0.0
102
RTVSPost2010PropOp38
 70
     0
102
RTVSPost2010Prop39
140
1.0
102
RTVSPost2010PropOp39
 70
     0
102
RTVSPost2010Prop40
 90
        0
102
RTVSPost2010PropOp40
 70
     0
102
RTVSPost2010Prop41ColorIndex
 90
       18
102
RTVSPost2010Prop41ColorRGB
 90
        0
102
RTVSPost2010PropOp41
 70
     0
102
RTVSPost2010Prop42
 90
       50
102
RTVSPost2010PropOp42
 70
     0
102
RTVSPost2010Prop43
 90
        3
102
RTVSPost2010PropOp43
 70
     0
102
RTVSPost2010Prop44ColorIndex
 90
        5
102
RTVSPost2010Prop44ColorRGB
 90
      255
102
RTVSPost2010PropOp44
 70
     0
102
RTVSPost2010Prop45
280
     0
102
RTVSPost2010PropOp45
 70
     0
102
RTVSPost2010Prop46
 90
       50
102
RTVSPost2010PropOp46
 70
     0
102
RTVSPost2010Prop47
 90
       50
102
RTVSPost2010PropOp47
 70
     0
102
RTVSPost2010Prop48
 90
       50
102
RTVSPost2010PropOp48
 70
     0
102
RTVSPost2010Prop49
280
     0
102
RTVSPost2010PropOp49
 70
     0
102
RTVSPost2010Prop50
 90
       50
102
RTVSPost2010PropOp50
 70
     0
102
RTVSPost2010Prop51ColorIndex
 90
      256
102
RTVSPost2010Prop51ColorRGB
 90
-16777216
102
RTVSPost2010PropOp51
 70
     0
102
RTVSPost2010Prop52
140
1.0
102
RTVSPost2010PropOp52
 70
     0
102
RTVSPost2010Prop53
 90
        2
102
RTVSPost2010PropOp53
 70
     0
102
RTVSPost2010Prop54
  1
strokes_ogs.tif
102
RTVSPost2010PropOp54
 70
     0
102
RTVSPost2010Prop55
280
     0
102
RTVSPost2010PropOp55
 70
     0
102
RTVSPost2010Prop56
140
1.0
102
RTVSPost2010PropOp56
 70
     0
102
RTVSPost2010Prop57
140
1.0
102
RTVSPost2010PropOp57
 70
     0
  0
XRECORD
  5
2BB
102
{ACAD_REACTORS
330
2BA
102
}
330
2BA
100
AcDbXrecord
280
     1
102
RTVSPropertyOp0
 70
     1
102
RTVSPropertyOp1
 70
     1
102
RTVSPropertyOp2
 70
     1
102
RTVSPropertyOp3
 70
     1
102
RTVSPropertyOp4
 70
     1
102
RTVSPropertyOp5
 70
     1
102
RTVSPropertyOp6
 70
     1
102
RTVSPropertyOp7
 70
     1
102
RTVSPropertyOp8
 70
     1
102
RTVSPropertyOp9
 70
     1
102
RTVSPropertyOp10
 70
     1
102
RTVSPropertyOp11
 70
     1
102
RTVSPropertyOp12
 70
     1
102
RTVSPropertyOp13
 70
     1
102
RTVSPropertyOp14
 70
     1
102
RTVSPropertyOp15
 70
     1
102
RTVSPropertyOp16
 70
     1
102
RTVSPropertyOp17
 70
     1
102
RTVSPropertyOp18
 70
     1
102
RTVSPropertyOp19
 70
     1
102
RTVSPropertyOp20
 70
     1
102
RTVSPropertyOp21
 70
     1
102
RTVSPropertyOp22
 70
     1
102
RTVSPropertyOp23
 70
     1
102
RTVSPropertyOp24
 70
     1
102
RTVSPropertyOp25
 70
     1
102
RTVSPropertyOp26
 70
     1
102
RTVSPropertyOp27
 70
     1
102
RTVSPropertyOp28
 70
     1
102
RTVSPropertyOp29
 70
     1
102
RTVSPropertyOp30
 70
     1
102
RTVSPropertyOp31
 70
     1
102
RTVSPropertyOp32
 70
     1
102
RTVSPropertyOp33
 70
     1
102
RTVSPropertyOp34
 70
     1
102
RTVSPropertyOp35
 70
     1
102
RTVSPropertyOp36
 70
     1
102
RTVSPropertyOp37
 70
     1
102
RTVSPropertyOp38
 70
     1
102
RTVSPropertyOp39
 70
     1
102
RTVSPropertyOp40
 70
     1
102
RTVSPropertyOp41
 70
     1
102
RTVSPropertyOp42
 70
     1
102
RTVSPropertyOp43
 70
     1
102
RTVSPropertyOp44
 70
     1
102
RTVSPropertyOp45
 70
     1
102
RTVSPropertyOp46
 70
     1
102
RTVSPropertyOp47
 70
     1
102
RTVSPropertyOp48
 70
     1
102
RTVSPropertyOp49
 70
     1
102
RTVSPropertyOp50
 70
     1
102
RTVSPropertyOp51
 70
     0
102
RTVSPropertyOp52
 70
     0
102
RTVSPropertyOp53
 70
     1
102
RTVSPropertyOp54
 70
     1
102
RTVSPropertyOp55
 70
     1
102
RTVSPropertyOp56
 70
     1
102
RTVSPropertyOp57
 70
     1
102
RTVSPost2010Prop28
280
     0
102
RTVSPost2010PropOp28
 70
     1
102
RTVSPost2010Prop29
280
     1
102
RTVSPost2010PropOp29
 70
     1
102
RTVSPost2010Prop30
280
     1
102
RTVSPost2010PropOp30
 70
     1
102
RTVSPost2010Prop31
280
     0
102
RTVSPost2010PropOp31
 70
     1
102
RTVSPost2010Prop32
280
     0
102
RTVSPost2010PropOp32
 70
     1
102
RTVSPost2010Prop33
280
     0
102
RTVSPost2010PropOp33
 70
     1
102
RTVSPost2010Prop34
280
     0
102
RTVSPost2010PropOp34
 70
     1
102
RTVSPost2010Prop35
280
     0
102
RTVSPost2010PropOp35
 70
     1
102
RTVSPost2010Prop36
280
     0
102
RTVSPost2010PropOp36
 70
     1
102
RTVSPost2010Prop37
 90
       50
102
RTVSPost2010PropOp37
 70
     1
102
RTVSPost2010Prop38
140
0.0
102
RTVSPost2010PropOp38
 70
     1
102
RTVSPost2010Prop39
140
1.0
102
RTVSPost2010PropOp39
 70
     1
102
RTVSPost2010Prop40
 90
        0
102
RTVSPost2010PropOp40
 70
     1
102
RTVSPost2010Prop41ColorIndex
 90
       18
102
RTVSPost2010Prop41ColorRGB
 90
        0
102
RTVSPost2010PropOp41
 70
     1
102
RTVSPost2010Prop42
 90
       50
102
RTVSPost2010PropOp42
 70
     1
102
RTVSPost2010Prop43
 90
        3
102
RTVSPost2010PropOp43
 70
     1
102
RTVSPost2010Prop44ColorIndex
 90
        5
102
RTVSPost2010Prop44ColorRGB
 90
      255
102
RTVSPost2010PropOp44
 70
     1
102
RTVSPost2010Prop45
280
     0
102
RTVSPost2010PropOp45
 70
     1
102
RTVSPost2010Prop46
 90
       50
102
RTVSPost2010PropOp46
 70
     1
102
RTVSPost2010Prop47
 90
       50
102
RTVSPost2010PropOp47
 70
     1
102
RTVSPost2010Prop48
 90
       50
102
RTVSPost2010PropOp48
 70
     1
102
RTVSPost2010Prop49
280
     0
102
RTVSPost2010PropOp49
 70
     1
102
RTVSPost2010Prop50
 90
       50
102
RTVSPost2010PropOp50
 70
     1
102
RTVSPost2010Prop51ColorIndex
 90
      256
102
RTVSPost2010Prop51ColorRGB
 90
-16777216
102
RTVSPost2010PropOp51
 70
     0
102
RTVSPost2010Prop52
140
1.0
102
RTVSPost2010PropOp52
 70
     0
102
RTVSPost2010Prop53
 90
        2
102
RTVSPost2010PropOp53
 70
     1
102
RTVSPost2010Prop54
  1
strokes_ogs.tif
102
RTVSPost2010PropOp54
 70
     1
102
RTVSPost2010Prop55
280
     0
102
RTVSPost2010PropOp55
 70
     1
102
RTVSPost2010Prop56
140
1.0
102
RTVSPost2010PropOp56
 70
     1
102
RTVSPost2010Prop57
140
1.0
102
RTVSPost2010PropOp57
 70
     1
  0
XRECORD
  5
29F
102
{ACAD_REACTORS
330
29E
102
}
330
29E
100
AcDbXrecord
280
     1
102
RTVSPropertyOp0
 70
     1
102
RTVSPropertyOp1
 70
     1
102
RTVSPropertyOp2
 70
     1
102
RTVSPropertyOp3
 70
     1
102
RTVSPropertyOp4
 70
     1
102
RTVSPropertyOp5
 70
     1
102
RTVSPropertyOp6
 70
     1
102
RTVSPropertyOp7
 70
     1
102
RTVSPropertyOp8
 70
     1
102
RTVSPropertyOp9
 70
     1
102
RTVSPropertyOp10
 70
     1
102
RTVSPropertyOp11
 70
     1
102
RTVSPropertyOp12
 70
     1
102
RTVSPropertyOp13
 70
     1
102
RTVSPropertyOp14
 70
     1
102
RTVSPropertyOp15
 70
     1
102
RTVSPropertyOp16
 70
     1
102
RTVSPropertyOp17
 70
     1
102
RTVSPropertyOp18
 70
     1
102
RTVSPropertyOp19
 70
     1
102
RTVSPropertyOp20
 70
     1
102
RTVSPropertyOp21
 70
     1
102
RTVSPropertyOp22
 70
     1
102
RTVSPropertyOp23
 70
     1
102
RTVSPropertyOp24
 70
     1
102
RTVSPropertyOp25
 70
     1
102
RTVSPropertyOp26
 70
     1
102
RTVSPropertyOp27
 70
     1
102
RTVSPropertyOp28
 70
     1
102
RTVSPropertyOp29
 70
     1
102
RTVSPropertyOp30
 70
     1
102
RTVSPropertyOp31
 70
     1
102
RTVSPropertyOp32
 70
     1
102
RTVSPropertyOp33
 70
     1
102
RTVSPropertyOp34
 70
     1
102
RTVSPropertyOp35
 70
     1
102
RTVSPropertyOp36
 70
     1
102
RTVSPropertyOp37
 70
     1
102
RTVSPropertyOp38
 70
     1
102
RTVSPropertyOp39
 70
     1
102
RTVSPropertyOp40
 70
     1
102
RTVSPropertyOp41
 70
     1
102
RTVSPropertyOp42
 70
     1
102
RTVSPropertyOp43
 70
     1
102
RTVSPropertyOp44
 70
     1
102
RTVSPropertyOp45
 70
     1
102
RTVSPropertyOp46
 70
     1
102
RTVSPropertyOp47
 70
     1
102
RTVSPropertyOp48
 70
     1
102
RTVSPropertyOp49
 70
     1
102
RTVSPropertyOp50
 70
     1
102
RTVSPropertyOp51
 70
     0
102
RTVSPropertyOp52
 70
     0
102
RTVSPropertyOp53
 70
     1
102
RTVSPropertyOp54
 70
     1
102
RTVSPropertyOp55
 70
     1
102
RTVSPropertyOp56
 70
     1
102
RTVSPropertyOp57
 70
     1
102
RTVSPost2010Prop28
280
     0
102
RTVSPost2010PropOp28
 70
     1
102
RTVSPost2010Prop29
280
     1
102
RTVSPost2010PropOp29
 70
     1
102
RTVSPost2010Prop30
280
     1
102
RTVSPost2010PropOp30
 70
     1
102
RTVSPost2010Prop31
280
     0
102
RTVSPost2010PropOp31
 70
     1
102
RTVSPost2010Prop32
280
     0
102
RTVSPost2010PropOp32
 70
     1
102
RTVSPost2010Prop33
280
     0
102
RTVSPost2010PropOp33
 70
     1
102
RTVSPost2010Prop34
280
     0
102
RTVSPost2010PropOp34
 70
     1
102
RTVSPost2010Prop35
280
     0
102
RTVSPost2010PropOp35
 70
     1
102
RTVSPost2010Prop36
280
     0
102
RTVSPost2010PropOp36
 70
     1
102
RTVSPost2010Prop37
 90
       50
102
RTVSPost2010PropOp37
 70
     1
102
RTVSPost2010Prop38
140
0.0
102
RTVSPost2010PropOp38
 70
     1
102
RTVSPost2010Prop39
140
1.0
102
RTVSPost2010PropOp39
 70
     1
102
RTVSPost2010Prop40
 90
        0
102
RTVSPost2010PropOp40
 70
     1
102
RTVSPost2010Prop41ColorIndex
 90
       18
102
RTVSPost2010Prop41ColorRGB
 90
        0
102
RTVSPost2010PropOp41
 70
     1
102
RTVSPost2010Prop42
 90
       50
102
RTVSPost2010PropOp42
 70
     1
102
RTVSPost2010Prop43
 90
        3
102
RTVSPost2010PropOp43
 70
     1
102
RTVSPost2010Prop44ColorIndex
 90
        5
102
RTVSPost2010Prop44ColorRGB
 90
      255
102
RTVSPost2010PropOp44
 70
     1
102
RTVSPost2010Prop45
280
     0
102
RTVSPost2010PropOp45
 70
     1
102
RTVSPost2010Prop46
 90
       50
102
RTVSPost2010PropOp46
 70
     1
102
RTVSPost2010Prop47
 90
       50
102
RTVSPost2010PropOp47
 70
     1
102
RTVSPost2010Prop48
 90
       50
102
RTVSPost2010PropOp48
 70
     1
102
RTVSPost2010Prop49
280
     0
102
RTVSPost2010PropOp49
 70
     1
102
RTVSPost2010Prop50
 90
       50
102
RTVSPost2010PropOp50
 70
     1
102
RTVSPost2010Prop51ColorIndex
 90
      256
102
RTVSPost2010Prop51ColorRGB
 90
-16777216
102
RTVSPost2010PropOp51
 70
     0
102
RTVSPost2010Prop52
140
1.0
102
RTVSPost2010PropOp52
 70
     0
102
RTVSPost2010Prop53
 90
        2
102
RTVSPost2010PropOp53
 70
     1
102
RTVSPost2010Prop54
  1
strokes_ogs.tif
102
RTVSPost2010PropOp54
 70
     1
102
RTVSPost2010Prop55
280
     0
102
RTVSPost2010PropOp55
 70
     1
102
RTVSPost2010Prop56
140
1.0
102
RTVSPost2010PropOp56
 70
     1
102
RTVSPost2010Prop57
140
1.0
102
RTVSPost2010PropOp57
 70
     1
  0
XRECORD
  5
2A1
102
{ACAD_REACTORS
330
2A0
102
}
330
2A0
100
AcDbXrecord
280
     1
102
RTVSPropertyOp0
 70
     1
102
RTVSPropertyOp1
 70
     1
102
RTVSPropertyOp2
 70
     1
102
RTVSPropertyOp3
 70
     1
102
RTVSPropertyOp4
 70
     1
102
RTVSPropertyOp5
 70
     1
102
RTVSPropertyOp6
 70
     1
102
RTVSPropertyOp7
 70
     1
102
RTVSPropertyOp8
 70
     1
102
RTVSPropertyOp9
 70
     1
102
RTVSPropertyOp10
 70
     1
102
RTVSPropertyOp11
 70
     1
102
RTVSPropertyOp12
 70
     1
102
RTVSPropertyOp13
 70
     1
102
RTVSPropertyOp14
 70
     1
102
RTVSPropertyOp15
 70
     1
102
RTVSPropertyOp16
 70
     1
102
RTVSPropertyOp17
 70
     1
102
RTVSPropertyOp18
 70
     1
102
RTVSPropertyOp19
 70
     1
102
RTVSPropertyOp20
 70
     1
102
RTVSPropertyOp21
 70
     1
102
RTVSPropertyOp22
 70
     1
102
RTVSPropertyOp23
 70
     1
102
RTVSPropertyOp24
 70
     1
102
RTVSPropertyOp25
 70
     1
102
RTVSPropertyOp26
 70
     1
102
RTVSPropertyOp27
 70
     1
102
RTVSPropertyOp28
 70
     1
102
RTVSPropertyOp29
 70
     1
102
RTVSPropertyOp30
 70
     1
102
RTVSPropertyOp31
 70
     1
102
RTVSPropertyOp32
 70
     1
102
RTVSPropertyOp33
 70
     1
102
RTVSPropertyOp34
 70
     1
102
RTVSPropertyOp35
 70
     1
102
RTVSPropertyOp36
 70
     1
102
RTVSPropertyOp37
 70
     1
102
RTVSPropertyOp38
 70
     1
102
RTVSPropertyOp39
 70
     1
102
RTVSPropertyOp40
 70
     1
102
RTVSPropertyOp41
 70
     1
102
RTVSPropertyOp42
 70
     1
102
RTVSPropertyOp43
 70
     1
102
RTVSPropertyOp44
 70
     1
102
RTVSPropertyOp45
 70
     1
102
RTVSPropertyOp46
 70
     1
102
RTVSPropertyOp47
 70
     1
102
RTVSPropertyOp48
 70
     1
102
RTVSPropertyOp49
 70
     1
102
RTVSPropertyOp50
 70
     1
102
RTVSPropertyOp51
 70
     0
102
RTVSPropertyOp52
 70
     0
102
RTVSPropertyOp53
 70
     1
102
RTVSPropertyOp54
 70
     1
102
RTVSPropertyOp55
 70
     1
102
RTVSPropertyOp56
 70
     1
102
RTVSPropertyOp57
 70
     1
102
RTVSPost2010Prop28
280
     0
102
RTVSPost2010PropOp28
 70
     1
102
RTVSPost2010Prop29
280
     1
102
RTVSPost2010PropOp29
 70
     1
102
RTVSPost2010Prop30
280
     1
102
RTVSPost2010PropOp30
 70
     1
102
RTVSPost2010Prop31
280
     0
102
RTVSPost2010PropOp31
 70
     1
102
RTVSPost2010Prop32
280
     0
102
RTVSPost2010PropOp32
 70
     1
102
RTVSPost2010Prop33
280
     0
102
RTVSPost2010PropOp33
 70
     1
102
RTVSPost2010Prop34
280
     0
102
RTVSPost2010PropOp34
 70
     1
102
RTVSPost2010Prop35
280
     0
102
RTVSPost2010PropOp35
 70
     1
102
RTVSPost2010Prop36
280
     0
102
RTVSPost2010PropOp36
 70
     1
102
RTVSPost2010Prop37
 90
       50
102
RTVSPost2010PropOp37
 70
     1
102
RTVSPost2010Prop38
140
0.0
102
RTVSPost2010PropOp38
 70
     1
102
RTVSPost2010Prop39
140
1.0
102
RTVSPost2010PropOp39
 70
     1
102
RTVSPost2010Prop40
 90
        0
102
RTVSPost2010PropOp40
 70
     1
102
RTVSPost2010Prop41ColorIndex
 90
       18
102
RTVSPost2010Prop41ColorRGB
 90
        0
102
RTVSPost2010PropOp41
 70
     1
102
RTVSPost2010Prop42
 90
       50
102
RTVSPost2010PropOp42
 70
     1
102
RTVSPost2010Prop43
 90
        3
102
RTVSPost2010PropOp43
 70
     1
102
RTVSPost2010Prop44ColorIndex
 90
        5
102
RTVSPost2010Prop44ColorRGB
 90
      255
102
RTVSPost2010PropOp44
 70
     1
102
RTVSPost2010Prop45
280
     0
102
RTVSPost2010PropOp45
 70
     1
102
RTVSPost2010Prop46
 90
       50
102
RTVSPost2010PropOp46
 70
     1
102
RTVSPost2010Prop47
 90
       50
102
RTVSPost2010PropOp47
 70
     1
102
RTVSPost2010Prop48
 90
       50
102
RTVSPost2010PropOp48
 70
     1
102
RTVSPost2010Prop49
280
     0
102
RTVSPost2010PropOp49
 70
     1
102
RTVSPost2010Prop50
 90
       50
102
RTVSPost2010PropOp50
 70
     1
102
RTVSPost2010Prop51ColorIndex
 90
      256
102
RTVSPost2010Prop51ColorRGB
 90
-16777216
102
RTVSPost2010PropOp51
 70
     0
102
RTVSPost2010Prop52
140
1.0
102
RTVSPost2010PropOp52
 70
     0
102
RTVSPost2010Prop53
 90
        2
102
RTVSPost2010PropOp53
 70
     1
102
RTVSPost2010Prop54
  1
strokes_ogs.tif
102
RTVSPost2010PropOp54
 70
     1
102
RTVSPost2010Prop55
280
     0
102
RTVSPost2010PropOp55
 70
     1
102
RTVSPost2010Prop56
140
1.0
102
RTVSPost2010PropOp56
 70
     1
102
RTVSPost2010Prop57
140
1.0
102
RTVSPost2010PropOp57
 70
     1
  0
XRECORD
  5
2A3
102
{ACAD_REACTORS
330
2A2
102
}
330
2A2
100
AcDbXrecord
280
     1
102
RTVSPropertyOp0
 70
     1
102
RTVSPropertyOp1
 70
     1
102
RTVSPropertyOp2
 70
     1
102
RTVSPropertyOp3
 70
     1
102
RTVSPropertyOp4
 70
     1
102
RTVSPropertyOp5
 70
     1
102
RTVSPropertyOp6
 70
     1
102
RTVSPropertyOp7
 70
     1
102
RTVSPropertyOp8
 70
     1
102
RTVSPropertyOp9
 70
     1
102
RTVSPropertyOp10
 70
     1
102
RTVSPropertyOp11
 70
     1
102
RTVSPropertyOp12
 70
     1
102
RTVSPropertyOp13
 70
     1
102
RTVSPropertyOp14
 70
     1
102
RTVSPropertyOp15
 70
     1
102
RTVSPropertyOp16
 70
     1
102
RTVSPropertyOp17
 70
     1
102
RTVSPropertyOp18
 70
     1
102
RTVSPropertyOp19
 70
     1
102
RTVSPropertyOp20
 70
     1
102
RTVSPropertyOp21
 70
     1
102
RTVSPropertyOp22
 70
     1
102
RTVSPropertyOp23
 70
     1
102
RTVSPropertyOp24
 70
     1
102
RTVSPropertyOp25
 70
     1
102
RTVSPropertyOp26
 70
     1
102
RTVSPropertyOp27
 70
     1
102
RTVSPropertyOp28
 70
     1
102
RTVSPropertyOp29
 70
     1
102
RTVSPropertyOp30
 70
     1
102
RTVSPropertyOp31
 70
     1
102
RTVSPropertyOp32
 70
     1
102
RTVSPropertyOp33
 70
     1
102
RTVSPropertyOp34
 70
     1
102
RTVSPropertyOp35
 70
     1
102
RTVSPropertyOp36
 70
     1
102
RTVSPropertyOp37
 70
     1
102
RTVSPropertyOp38
 70
     1
102
RTVSPropertyOp39
 70
     1
102
RTVSPropertyOp40
 70
     1
102
RTVSPropertyOp41
 70
     1
102
RTVSPropertyOp42
 70
     1
102
RTVSPropertyOp43
 70
     1
102
RTVSPropertyOp44
 70
     1
102
RTVSPropertyOp45
 70
     1
102
RTVSPropertyOp46
 70
     1
102
RTVSPropertyOp47
 70
     1
102
RTVSPropertyOp48
 70
     1
102
RTVSPropertyOp49
 70
     1
102
RTVSPropertyOp50
 70
     1
102
RTVSPropertyOp51
 70
     0
102
RTVSPropertyOp52
 70
     0
102
RTVSPropertyOp53
 70
     1
102
RTVSPropertyOp54
 70
     1
102
RTVSPropertyOp55
 70
     1
102
RTVSPropertyOp56
 70
     1
102
RTVSPropertyOp57
 70
     1
102
RTVSPost2010Prop28
280
     0
102
RTVSPost2010PropOp28
 70
     1
102
RTVSPost2010Prop29
280
     1
102
RTVSPost2010PropOp29
 70
     1
102
RTVSPost2010Prop30
280
     1
102
RTVSPost2010PropOp30
 70
     1
102
RTVSPost2010Prop31
280
     0
102
RTVSPost2010PropOp31
 70
     1
102
RTVSPost2010Prop32
280
     0
102
RTVSPost2010PropOp32
 70
     1
102
RTVSPost2010Prop33
280
     0
102
RTVSPost2010PropOp33
 70
     1
102
RTVSPost2010Prop34
280
     0
102
RTVSPost2010PropOp34
 70
     1
102
RTVSPost2010Prop35
280
     0
102
RTVSPost2010PropOp35
 70
     1
102
RTVSPost2010Prop36
280
     0
102
RTVSPost2010PropOp36
 70
     1
102
RTVSPost2010Prop37
 90
       50
102
RTVSPost2010PropOp37
 70
     1
102
RTVSPost2010Prop38
140
0.0
102
RTVSPost2010PropOp38
 70
     1
102
RTVSPost2010Prop39
140
1.0
102
RTVSPost2010PropOp39
 70
     1
102
RTVSPost2010Prop40
 90
        0
102
RTVSPost2010PropOp40
 70
     1
102
RTVSPost2010Prop41ColorIndex
 90
       18
102
RTVSPost2010Prop41ColorRGB
 90
        0
102
RTVSPost2010PropOp41
 70
     1
102
RTVSPost2010Prop42
 90
       50
102
RTVSPost2010PropOp42
 70
     1
102
RTVSPost2010Prop43
 90
        3
102
RTVSPost2010PropOp43
 70
     1
102
RTVSPost2010Prop44ColorIndex
 90
        5
102
RTVSPost2010Prop44ColorRGB
 90
      255
102
RTVSPost2010PropOp44
 70
     1
102
RTVSPost2010Prop45
280
     0
102
RTVSPost2010PropOp45
 70
     1
102
RTVSPost2010Prop46
 90
       50
102
RTVSPost2010PropOp46
 70
     1
102
RTVSPost2010Prop47
 90
       50
102
RTVSPost2010PropOp47
 70
     1
102
RTVSPost2010Prop48
 90
       50
102
RTVSPost2010PropOp48
 70
     1
102
RTVSPost2010Prop49
280
     0
102
RTVSPost2010PropOp49
 70
     1
102
RTVSPost2010Prop50
 90
       50
102
RTVSPost2010PropOp50
 70
     1
102
RTVSPost2010Prop51ColorIndex
 90
      256
102
RTVSPost2010Prop51ColorRGB
 90
-16777216
102
RTVSPost2010PropOp51
 70
     0
102
RTVSPost2010Prop52
140
1.0
102
RTVSPost2010PropOp52
 70
     0
102
RTVSPost2010Prop53
 90
        2
102
RTVSPost2010PropOp53
 70
     1
102
RTVSPost2010Prop54
  1
strokes_ogs.tif
102
RTVSPost2010PropOp54
 70
     1
102
RTVSPost2010Prop55
280
     0
102
RTVSPost2010PropOp55
 70
     1
102
RTVSPost2010Prop56
140
1.0
102
RTVSPost2010PropOp56
 70
     1
102
RTVSPost2010Prop57
140
1.0
102
RTVSPost2010PropOp57
 70
     1
  0
XRECORD
  5
2A5
102
{ACAD_REACTORS
330
2A4
102
}
330
2A4
100
AcDbXrecord
280
     1
102
RTVSPropertyOp0
 70
     1
102
RTVSPropertyOp1
 70
     1
102
RTVSPropertyOp2
 70
     1
102
RTVSPropertyOp3
 70
     1
102
RTVSPropertyOp4
 70
     1
102
RTVSPropertyOp5
 70
     1
102
RTVSPropertyOp6
 70
     1
102
RTVSPropertyOp7
 70
     1
102
RTVSPropertyOp8
 70
     1
102
RTVSPropertyOp9
 70
     1
102
RTVSPropertyOp10
 70
     1
102
RTVSPropertyOp11
 70
     1
102
RTVSPropertyOp12
 70
     1
102
RTVSPropertyOp13
 70
     1
102
RTVSPropertyOp14
 70
     1
102
RTVSPropertyOp15
 70
     1
102
RTVSPropertyOp16
 70
     1
102
RTVSPropertyOp17
 70
     1
102
RTVSPropertyOp18
 70
     1
102
RTVSPropertyOp19
 70
     1
102
RTVSPropertyOp20
 70
     1
102
RTVSPropertyOp21
 70
     1
102
RTVSPropertyOp22
 70
     1
102
RTVSPropertyOp23
 70
     1
102
RTVSPropertyOp24
 70
     1
102
RTVSPropertyOp25
 70
     1
102
RTVSPropertyOp26
 70
     1
102
RTVSPropertyOp27
 70
     1
102
RTVSPropertyOp28
 70
     1
102
RTVSPropertyOp29
 70
     1
102
RTVSPropertyOp30
 70
     1
102
RTVSPropertyOp31
 70
     1
102
RTVSPropertyOp32
 70
     1
102
RTVSPropertyOp33
 70
     1
102
RTVSPropertyOp34
 70
     1
102
RTVSPropertyOp35
 70
     1
102
RTVSPropertyOp36
 70
     1
102
RTVSPropertyOp37
 70
     1
102
RTVSPropertyOp38
 70
     1
102
RTVSPropertyOp39
 70
     1
102
RTVSPropertyOp40
 70
     1
102
RTVSPropertyOp41
 70
     1
102
RTVSPropertyOp42
 70
     1
102
RTVSPropertyOp43
 70
     1
102
RTVSPropertyOp44
 70
     1
102
RTVSPropertyOp45
 70
     1
102
RTVSPropertyOp46
 70
     1
102
RTVSPropertyOp47
 70
     1
102
RTVSPropertyOp48
 70
     1
102
RTVSPropertyOp49
 70
     1
102
RTVSPropertyOp50
 70
     1
102
RTVSPropertyOp51
 70
     0
102
RTVSPropertyOp52
 70
     0
102
RTVSPropertyOp53
 70
     1
102
RTVSPropertyOp54
 70
     1
102
RTVSPropertyOp55
 70
     1
102
RTVSPropertyOp56
 70
     1
102
RTVSPropertyOp57
 70
     1
102
RTVSPost2010Prop28
280
     0
102
RTVSPost2010PropOp28
 70
     1
102
RTVSPost2010Prop29
280
     1
102
RTVSPost2010PropOp29
 70
     1
102
RTVSPost2010Prop30
280
     1
102
RTVSPost2010PropOp30
 70
     1
102
RTVSPost2010Prop31
280
     0
102
RTVSPost2010PropOp31
 70
     1
102
RTVSPost2010Prop32
280
     0
102
RTVSPost2010PropOp32
 70
     1
102
RTVSPost2010Prop33
280
     0
102
RTVSPost2010PropOp33
 70
     1
102
RTVSPost2010Prop34
280
     0
102
RTVSPost2010PropOp34
 70
     1
102
RTVSPost2010Prop35
280
     0
102
RTVSPost2010PropOp35
 70
     1
102
RTVSPost2010Prop36
280
     0
102
RTVSPost2010PropOp36
 70
     1
102
RTVSPost2010Prop37
 90
       50
102
RTVSPost2010PropOp37
 70
     1
102
RTVSPost2010Prop38
140
0.0
102
RTVSPost2010PropOp38
 70
     1
102
RTVSPost2010Prop39
140
1.0
102
RTVSPost2010PropOp39
 70
     1
102
RTVSPost2010Prop40
 90
        0
102
RTVSPost2010PropOp40
 70
     1
102
RTVSPost2010Prop41ColorIndex
 90
       18
102
RTVSPost2010Prop41ColorRGB
 90
        0
102
RTVSPost2010PropOp41
 70
     1
102
RTVSPost2010Prop42
 90
       50
102
RTVSPost2010PropOp42
 70
     1
102
RTVSPost2010Prop43
 90
        3
102
RTVSPost2010PropOp43
 70
     1
102
RTVSPost2010Prop44ColorIndex
 90
        5
102
RTVSPost2010Prop44ColorRGB
 90
      255
102
RTVSPost2010PropOp44
 70
     1
102
RTVSPost2010Prop45
280
     0
102
RTVSPost2010PropOp45
 70
     1
102
RTVSPost2010Prop46
 90
       50
102
RTVSPost2010PropOp46
 70
     1
102
RTVSPost2010Prop47
 90
       50
102
RTVSPost2010PropOp47
 70
     1
102
RTVSPost2010Prop48
 90
       50
102
RTVSPost2010PropOp48
 70
     1
102
RTVSPost2010Prop49
280
     0
102
RTVSPost2010PropOp49
 70
     1
102
RTVSPost2010Prop50
 90
       50
102
RTVSPost2010PropOp50
 70
     1
102
RTVSPost2010Prop51ColorIndex
 90
      256
102
RTVSPost2010Prop51ColorRGB
 90
-16777216
102
RTVSPost2010PropOp51
 70
     0
102
RTVSPost2010Prop52
140
1.0
102
RTVSPost2010PropOp52
 70
     0
102
RTVSPost2010Prop53
 90
        2
102
RTVSPost2010PropOp53
 70
     1
102
RTVSPost2010Prop54
  1
strokes_ogs.tif
102
RTVSPost2010PropOp54
 70
     1
102
RTVSPost2010Prop55
280
     0
102
RTVSPost2010PropOp55
 70
     1
102
RTVSPost2010Prop56
140
1.0
102
RTVSPost2010PropOp56
 70
     1
102
RTVSPost2010Prop57
140
1.0
102
RTVSPost2010PropOp57
 70
     1
  0
XRECORD
  5
2AB
102
{ACAD_REACTORS
330
2AA
102
}
330
2AA
100
AcDbXrecord
280
     1
102
RTVSPropertyOp0
 70
     1
102
RTVSPropertyOp1
 70
     1
102
RTVSPropertyOp2
 70
     1
102
RTVSPropertyOp3
 70
     1
102
RTVSPropertyOp4
 70
     1
102
RTVSPropertyOp5
 70
     1
102
RTVSPropertyOp6
 70
     1
102
RTVSPropertyOp7
 70
     1
102
RTVSPropertyOp8
 70
     1
102
RTVSPropertyOp9
 70
     1
102
RTVSPropertyOp10
 70
     1
102
RTVSPropertyOp11
 70
     1
102
RTVSPropertyOp12
 70
     1
102
RTVSPropertyOp13
 70
     1
102
RTVSPropertyOp14
 70
     1
102
RTVSPropertyOp15
 70
     1
102
RTVSPropertyOp16
 70
     1
102
RTVSPropertyOp17
 70
     1
102
RTVSPropertyOp18
 70
     1
102
RTVSPropertyOp19
 70
     1
102
RTVSPropertyOp20
 70
     1
102
RTVSPropertyOp21
 70
     1
102
RTVSPropertyOp22
 70
     1
102
RTVSPropertyOp23
 70
     1
102
RTVSPropertyOp24
 70
     1
102
RTVSPropertyOp25
 70
     1
102
RTVSPropertyOp26
 70
     1
102
RTVSPropertyOp27
 70
     1
102
RTVSPropertyOp28
 70
     1
102
RTVSPropertyOp29
 70
     1
102
RTVSPropertyOp30
 70
     1
102
RTVSPropertyOp31
 70
     1
102
RTVSPropertyOp32
 70
     1
102
RTVSPropertyOp33
 70
     1
102
RTVSPropertyOp34
 70
     1
102
RTVSPropertyOp35
 70
     1
102
RTVSPropertyOp36
 70
     1
102
RTVSPropertyOp37
 70
     1
102
RTVSPropertyOp38
 70
     1
102
RTVSPropertyOp39
 70
     1
102
RTVSPropertyOp40
 70
     1
102
RTVSPropertyOp41
 70
     1
102
RTVSPropertyOp42
 70
     1
102
RTVSPropertyOp43
 70
     1
102
RTVSPropertyOp44
 70
     1
102
RTVSPropertyOp45
 70
     1
102
RTVSPropertyOp46
 70
     1
102
RTVSPropertyOp47
 70
     1
102
RTVSPropertyOp48
 70
     1
102
RTVSPropertyOp49
 70
     1
102
RTVSPropertyOp50
 70
     1
102
RTVSPropertyOp51
 70
     0
102
RTVSPropertyOp52
 70
     0
102
RTVSPropertyOp53
 70
     1
102
RTVSPropertyOp54
 70
     1
102
RTVSPropertyOp55
 70
     1
102
RTVSPropertyOp56
 70
     1
102
RTVSPropertyOp57
 70
     1
102
RTVSPost2010Prop28
280
     0
102
RTVSPost2010PropOp28
 70
     1
102
RTVSPost2010Prop29
280
     1
102
RTVSPost2010PropOp29
 70
     1
102
RTVSPost2010Prop30
280
     1
102
RTVSPost2010PropOp30
 70
     1
102
RTVSPost2010Prop31
280
     0
102
RTVSPost2010PropOp31
 70
     1
102
RTVSPost2010Prop32
280
     0
102
RTVSPost2010PropOp32
 70
     1
102
RTVSPost2010Prop33
280
     0
102
RTVSPost2010PropOp33
 70
     1
102
RTVSPost2010Prop34
280
     0
102
RTVSPost2010PropOp34
 70
     1
102
RTVSPost2010Prop35
280
     0
102
RTVSPost2010PropOp35
 70
     1
102
RTVSPost2010Prop36
280
     0
102
RTVSPost2010PropOp36
 70
     1
102
RTVSPost2010Prop37
 90
       50
102
RTVSPost2010PropOp37
 70
     1
102
RTVSPost2010Prop38
140
0.0
102
RTVSPost2010PropOp38
 70
     1
102
RTVSPost2010Prop39
140
1.0
102
RTVSPost2010PropOp39
 70
     1
102
RTVSPost2010Prop40
 90
        0
102
RTVSPost2010PropOp40
 70
     1
102
RTVSPost2010Prop41ColorIndex
 90
       18
102
RTVSPost2010Prop41ColorRGB
 90
        0
102
RTVSPost2010PropOp41
 70
     1
102
RTVSPost2010Prop42
 90
       50
102
RTVSPost2010PropOp42
 70
     1
102
RTVSPost2010Prop43
 90
        3
102
RTVSPost2010PropOp43
 70
     1
102
RTVSPost2010Prop44ColorIndex
 90
        5
102
RTVSPost2010Prop44ColorRGB
 90
      255
102
RTVSPost2010PropOp44
 70
     1
102
RTVSPost2010Prop45
280
     0
102
RTVSPost2010PropOp45
 70
     1
102
RTVSPost2010Prop46
 90
       50
102
RTVSPost2010PropOp46
 70
     1
102
RTVSPost2010Prop47
 90
       50
102
RTVSPost2010PropOp47
 70
     1
102
RTVSPost2010Prop48
 90
       50
102
RTVSPost2010PropOp48
 70
     1
102
RTVSPost2010Prop49
280
     0
102
RTVSPost2010PropOp49
 70
     1
102
RTVSPost2010Prop50
 90
       50
102
RTVSPost2010PropOp50
 70
     1
102
RTVSPost2010Prop51ColorIndex
 90
      256
102
RTVSPost2010Prop51ColorRGB
 90
-16777216
102
RTVSPost2010PropOp51
 70
     0
102
RTVSPost2010Prop52
140
1.0
102
RTVSPost2010PropOp52
 70
     0
102
RTVSPost2010Prop53
 90
        2
102
RTVSPost2010PropOp53
 70
     1
102
RTVSPost2010Prop54
  1
strokes_ogs.tif
102
RTVSPost2010PropOp54
 70
     1
102
RTVSPost2010Prop55
280
     0
102
RTVSPost2010PropOp55
 70
     1
102
RTVSPost2010Prop56
140
1.0
102
RTVSPost2010PropOp56
 70
     1
102
RTVSPost2010Prop57
140
1.0
102
RTVSPost2010PropOp57
 70
     1
  0
XRECORD
  5
2BF
102
{ACAD_REACTORS
330
2BE
102
}
330
2BE
100
AcDbXrecord
280
     1
102
RTVSPropertyOp0
 70
     0
102
RTVSPropertyOp1
 70
     0
102
RTVSPropertyOp2
 70
     0
102
RTVSPropertyOp3
 70
     0
102
RTVSPropertyOp4
 70
     0
102
RTVSPropertyOp5
 70
     0
102
RTVSPropertyOp6
 70
     0
102
RTVSPropertyOp7
 70
     0
102
RTVSPropertyOp8
 70
     0
102
RTVSPropertyOp9
 70
     0
102
RTVSPropertyOp10
 70
     0
102
RTVSPropertyOp11
 70
     0
102
RTVSPropertyOp12
 70
     0
102
RTVSPropertyOp13
 70
     0
102
RTVSPropertyOp14
 70
     2
102
RTVSPropertyOp15
 70
     0
102
RTVSPropertyOp16
 70
     0
102
RTVSPropertyOp17
 70
     0
102
RTVSPropertyOp18
 70
     0
102
RTVSPropertyOp19
 70
     0
102
RTVSPropertyOp20
 70
     0
102
RTVSPropertyOp21
 70
     0
102
RTVSPropertyOp22
 70
     0
102
RTVSPropertyOp23
 70
     0
102
RTVSPropertyOp24
 70
     0
102
RTVSPropertyOp25
 70
     0
102
RTVSPropertyOp26
 70
     0
102
RTVSPropertyOp27
 70
     0
102
RTVSPropertyOp28
 70
     0
102
RTVSPropertyOp29
 70
     0
102
RTVSPropertyOp30
 70
     0
102
RTVSPropertyOp31
 70
     0
102
RTVSPropertyOp32
 70
     0
102
RTVSPropertyOp33
 70
     0
102
RTVSPropertyOp34
 70
     0
102
RTVSPropertyOp35
 70
     0
102
RTVSPropertyOp36
 70
     0
102
RTVSPropertyOp37
 70
     0
102
RTVSPropertyOp38
 70
     0
102
RTVSPropertyOp39
 70
     0
102
RTVSPropertyOp40
 70
     0
102
RTVSPropertyOp41
 70
     0
102
RTVSPropertyOp42
 70
     0
102
RTVSPropertyOp43
 70
     0
102
RTVSPropertyOp44
 70
     0
102
RTVSPropertyOp45
 70
     0
102
RTVSPropertyOp46
 70
     0
102
RTVSPropertyOp47
 70
     0
102
RTVSPropertyOp48
 70
     0
102
RTVSPropertyOp49
 70
     0
102
RTVSPropertyOp50
 70
     0
102
RTVSPropertyOp51
 70
     0
102
RTVSPropertyOp52
 70
     0
102
RTVSPropertyOp53
 70
     0
102
RTVSPropertyOp54
 70
     0
102
RTVSPropertyOp55
 70
     0
102
RTVSPropertyOp56
 70
     0
102
RTVSPropertyOp57
 70
     0
102
RTVSPost2010Prop28
280
     0
102
RTVSPost2010PropOp28
 70
     0
102
RTVSPost2010Prop29
280
     1
102
RTVSPost2010PropOp29
 70
     0
102
RTVSPost2010Prop30
280
     1
102
RTVSPost2010PropOp30
 70
     0
102
RTVSPost2010Prop31
280
     0
102
RTVSPost2010PropOp31
 70
     0
102
RTVSPost2010Prop32
280
     0
102
RTVSPost2010PropOp32
 70
     0
102
RTVSPost2010Prop33
280
     0
102
RTVSPost2010PropOp33
 70
     0
102
RTVSPost2010Prop34
280
     0
102
RTVSPost2010PropOp34
 70
     0
102
RTVSPost2010Prop35
280
     0
102
RTVSPost2010PropOp35
 70
     0
102
RTVSPost2010Prop36
280
     0
102
RTVSPost2010PropOp36
 70
     0
102
RTVSPost2010Prop37
 90
       50
102
RTVSPost2010PropOp37
 70
     0
102
RTVSPost2010Prop38
140
0.0
102
RTVSPost2010PropOp38
 70
     0
102
RTVSPost2010Prop39
140
1.0
102
RTVSPost2010PropOp39
 70
     0
102
RTVSPost2010Prop40
 90
        0
102
RTVSPost2010PropOp40
 70
     0
102
RTVSPost2010Prop41ColorIndex
 90
       18
102
RTVSPost2010Prop41ColorRGB
 90
        0
102
RTVSPost2010PropOp41
 70
     0
102
RTVSPost2010Prop42
 90
       50
102
RTVSPost2010PropOp42
 70
     0
102
RTVSPost2010Prop43
 90
        3
102
RTVSPost2010PropOp43
 70
     0
102
RTVSPost2010Prop44ColorIndex
 90
        5
102
RTVSPost2010Prop44ColorRGB
 90
      255
102
RTVSPost2010PropOp44
 70
     0
102
RTVSPost2010Prop45
280
     0
102
RTVSPost2010PropOp45
 70
     0
102
RTVSPost2010Prop46
 90
       50
102
RTVSPost2010PropOp46
 70
     0
102
RTVSPost2010Prop47
 90
       50
102
RTVSPost2010PropOp47
 70
     0
102
RTVSPost2010Prop48
 90
       50
102
RTVSPost2010PropOp48
 70
     0
102
RTVSPost2010Prop49
280
     0
102
RTVSPost2010PropOp49
 70
     0
102
RTVSPost2010Prop50
 90
       50
102
RTVSPost2010PropOp50
 70
     0
102
RTVSPost2010Prop51ColorIndex
 90
      256
102
RTVSPost2010Prop51ColorRGB
 90
-16777216
102
RTVSPost2010PropOp51
 70
     0
102
RTVSPost2010Prop52
140
1.0
102
RTVSPost2010PropOp52
 70
     0
102
RTVSPost2010Prop53
 90
        2
102
RTVSPost2010PropOp53
 70
     0
102
RTVSPost2010Prop54
  1
strokes_ogs.tif
102
RTVSPost2010PropOp54
 70
     0
102
RTVSPost2010Prop55
280
     0
102
RTVSPost2010PropOp55
 70
     0
102
RTVSPost2010Prop56
140
1.0
102
RTVSPost2010PropOp56
 70
     0
102
RTVSPost2010Prop57
140
1.0
102
RTVSPost2010PropOp57
 70
     0
  0
XRECORD
  5
2B9
102
{ACAD_REACTORS
330
2B8
102
}
330
2B8
100
AcDbXrecord
280
     1
102
RTVSPropertyOp0
 70
     1
102
RTVSPropertyOp1
 70
     1
102
RTVSPropertyOp2
 70
     1
102
RTVSPropertyOp3
 70
     1
102
RTVSPropertyOp4
 70
     1
102
RTVSPropertyOp5
 70
     1
102
RTVSPropertyOp6
 70
     1
102
RTVSPropertyOp7
 70
     1
102
RTVSPropertyOp8
 70
     1
102
RTVSPropertyOp9
 70
     1
102
RTVSPropertyOp10
 70
     1
102
RTVSPropertyOp11
 70
     1
102
RTVSPropertyOp12
 70
     1
102
RTVSPropertyOp13
 70
     1
102
RTVSPropertyOp14
 70
     1
102
RTVSPropertyOp15
 70
     1
102
RTVSPropertyOp16
 70
     1
102
RTVSPropertyOp17
 70
     1
102
RTVSPropertyOp18
 70
     1
102
RTVSPropertyOp19
 70
     1
102
RTVSPropertyOp20
 70
     1
102
RTVSPropertyOp21
 70
     1
102
RTVSPropertyOp22
 70
     1
102
RTVSPropertyOp23
 70
     1
102
RTVSPropertyOp24
 70
     1
102
RTVSPropertyOp25
 70
     1
102
RTVSPropertyOp26
 70
     1
102
RTVSPropertyOp27
 70
     1
102
RTVSPropertyOp28
 70
     1
102
RTVSPropertyOp29
 70
     1
102
RTVSPropertyOp30
 70
     1
102
RTVSPropertyOp31
 70
     1
102
RTVSPropertyOp32
 70
     1
102
RTVSPropertyOp33
 70
     1
102
RTVSPropertyOp34
 70
     1
102
RTVSPropertyOp35
 70
     1
102
RTVSPropertyOp36
 70
     1
102
RTVSPropertyOp37
 70
     1
102
RTVSPropertyOp38
 70
     1
102
RTVSPropertyOp39
 70
     1
102
RTVSPropertyOp40
 70
     1
102
RTVSPropertyOp41
 70
     1
102
RTVSPropertyOp42
 70
     1
102
RTVSPropertyOp43
 70
     1
102
RTVSPropertyOp44
 70
     1
102
RTVSPropertyOp45
 70
     1
102
RTVSPropertyOp46
 70
     1
102
RTVSPropertyOp47
 70
     1
102
RTVSPropertyOp48
 70
     1
102
RTVSPropertyOp49
 70
     1
102
RTVSPropertyOp50
 70
     1
102
RTVSPropertyOp51
 70
     0
102
RTVSPropertyOp52
 70
     0
102
RTVSPropertyOp53
 70
     1
102
RTVSPropertyOp54
 70
     1
102
RTVSPropertyOp55
 70
     1
102
RTVSPropertyOp56
 70
     1
102
RTVSPropertyOp57
 70
     1
102
RTVSPost2010Prop28
280
     0
102
RTVSPost2010PropOp28
 70
     1
102
RTVSPost2010Prop29
280
     1
102
RTVSPost2010PropOp29
 70
     1
102
RTVSPost2010Prop30
280
     1
102
RTVSPost2010PropOp30
 70
     1
102
RTVSPost2010Prop31
280
     0
102
RTVSPost2010PropOp31
 70
     1
102
RTVSPost2010Prop32
280
     0
102
RTVSPost2010PropOp32
 70
     1
102
RTVSPost2010Prop33
280
     0
102
RTVSPost2010PropOp33
 70
     1
102
RTVSPost2010Prop34
280
     0
102
RTVSPost2010PropOp34
 70
     1
102
RTVSPost2010Prop35
280
     0
102
RTVSPost2010PropOp35
 70
     1
102
RTVSPost2010Prop36
280
     0
102
RTVSPost2010PropOp36
 70
     1
102
RTVSPost2010Prop37
 90
       50
102
RTVSPost2010PropOp37
 70
     1
102
RTVSPost2010Prop38
140
0.0
102
RTVSPost2010PropOp38
 70
     1
102
RTVSPost2010Prop39
140
1.0
102
RTVSPost2010PropOp39
 70
     1
102
RTVSPost2010Prop40
 90
        0
102
RTVSPost2010PropOp40
 70
     1
102
RTVSPost2010Prop41ColorIndex
 90
       18
102
RTVSPost2010Prop41ColorRGB
 90
        0
102
RTVSPost2010PropOp41
 70
     1
102
RTVSPost2010Prop42
 90
       50
102
RTVSPost2010PropOp42
 70
     1
102
RTVSPost2010Prop43
 90
        3
102
RTVSPost2010PropOp43
 70
     1
102
RTVSPost2010Prop44ColorIndex
 90
        5
102
RTVSPost2010Prop44ColorRGB
 90
      255
102
RTVSPost2010PropOp44
 70
     1
102
RTVSPost2010Prop45
280
     0
102
RTVSPost2010PropOp45
 70
     1
102
RTVSPost2010Prop46
 90
       50
102
RTVSPost2010PropOp46
 70
     1
102
RTVSPost2010Prop47
 90
       50
102
RTVSPost2010PropOp47
 70
     1
102
RTVSPost2010Prop48
 90
       50
102
RTVSPost2010PropOp48
 70
     1
102
RTVSPost2010Prop49
280
     0
102
RTVSPost2010PropOp49
 70
     1
102
RTVSPost2010Prop50
 90
       50
102
RTVSPost2010PropOp50
 70
     1
102
RTVSPost2010Prop51ColorIndex
 90
      256
102
RTVSPost2010Prop51ColorRGB
 90
-16777216
102
RTVSPost2010PropOp51
 70
     0
102
RTVSPost2010Prop52
140
1.0
102
RTVSPost2010PropOp52
 70
     0
102
RTVSPost2010Prop53
 90
        2
102
RTVSPost2010PropOp53
 70
     1
102
RTVSPost2010Prop54
  1
strokes_ogs.tif
102
RTVSPost2010PropOp54
 70
     1
102
RTVSPost2010Prop55
280
     0
102
RTVSPost2010PropOp55
 70
     1
102
RTVSPost2010Prop56
140
1.0
102
RTVSPost2010PropOp56
 70
     1
102
RTVSPost2010Prop57
140
1.0
102
RTVSPost2010PropOp57
 70
     1
  0
XRECORD
  5
2C1
102
{ACAD_REACTORS
330
2C0
102
}
330
2C0
100
AcDbXrecord
280
     1
102
RTVSPropertyOp0
 70
     0
102
RTVSPropertyOp1
 70
     0
102
RTVSPropertyOp2
 70
     0
102
RTVSPropertyOp3
 70
     0
102
RTVSPropertyOp4
 70
     0
102
RTVSPropertyOp5
 70
     0
102
RTVSPropertyOp6
 70
     0
102
RTVSPropertyOp7
 70
     0
102
RTVSPropertyOp8
 70
     0
102
RTVSPropertyOp9
 70
     0
102
RTVSPropertyOp10
 70
     0
102
RTVSPropertyOp11
 70
     0
102
RTVSPropertyOp12
 70
     0
102
RTVSPropertyOp13
 70
     0
102
RTVSPropertyOp14
 70
     2
102
RTVSPropertyOp15
 70
     0
102
RTVSPropertyOp16
 70
     0
102
RTVSPropertyOp17
 70
     0
102
RTVSPropertyOp18
 70
     0
102
RTVSPropertyOp19
 70
     0
102
RTVSPropertyOp20
 70
     0
102
RTVSPropertyOp21
 70
     0
102
RTVSPropertyOp22
 70
     0
102
RTVSPropertyOp23
 70
     0
102
RTVSPropertyOp24
 70
     0
102
RTVSPropertyOp25
 70
     0
102
RTVSPropertyOp26
 70
     0
102
RTVSPropertyOp27
 70
     0
102
RTVSPropertyOp28
 70
     0
102
RTVSPropertyOp29
 70
     0
102
RTVSPropertyOp30
 70
     0
102
RTVSPropertyOp31
 70
     0
102
RTVSPropertyOp32
 70
     0
102
RTVSPropertyOp33
 70
     0
102
RTVSPropertyOp34
 70
     0
102
RTVSPropertyOp35
 70
     0
102
RTVSPropertyOp36
 70
     0
102
RTVSPropertyOp37
 70
     0
102
RTVSPropertyOp38
 70
     0
102
RTVSPropertyOp39
 70
     0
102
RTVSPropertyOp40
 70
     0
102
RTVSPropertyOp41
 70
     0
102
RTVSPropertyOp42
 70
     0
102
RTVSPropertyOp43
 70
     0
102
RTVSPropertyOp44
 70
     0
102
RTVSPropertyOp45
 70
     0
102
RTVSPropertyOp46
 70
     0
102
RTVSPropertyOp47
 70
     0
102
RTVSPropertyOp48
 70
     0
102
RTVSPropertyOp49
 70
     0
102
RTVSPropertyOp50
 70
     0
102
RTVSPropertyOp51
 70
     0
102
RTVSPropertyOp52
 70
     0
102
RTVSPropertyOp53
 70
     0
102
RTVSPropertyOp54
 70
     0
102
RTVSPropertyOp55
 70
     0
102
RTVSPropertyOp56
 70
     0
102
RTVSPropertyOp57
 70
     0
102
RTVSPost2010Prop28
280
     0
102
RTVSPost2010PropOp28
 70
     0
102
RTVSPost2010Prop29
280
     1
102
RTVSPost2010PropOp29
 70
     0
102
RTVSPost2010Prop30
280
     1
102
RTVSPost2010PropOp30
 70
     0
102
RTVSPost2010Prop31
280
     0
102
RTVSPost2010PropOp31
 70
     0
102
RTVSPost2010Prop32
280
     0
102
RTVSPost2010PropOp32
 70
     0
102
RTVSPost2010Prop33
280
     0
102
RTVSPost2010PropOp33
 70
     0
102
RTVSPost2010Prop34
280
     0
102
RTVSPost2010PropOp34
 70
     0
102
RTVSPost2010Prop35
280
     0
102
RTVSPost2010PropOp35
 70
     0
102
RTVSPost2010Prop36
280
     0
102
RTVSPost2010PropOp36
 70
     0
102
RTVSPost2010Prop37
 90
       50
102
RTVSPost2010PropOp37
 70
     0
102
RTVSPost2010Prop38
140
0.0
102
RTVSPost2010PropOp38
 70
     0
102
RTVSPost2010Prop39
140
1.0
102
RTVSPost2010PropOp39
 70
     0
102
RTVSPost2010Prop40
 90
        0
102
RTVSPost2010PropOp40
 70
     0
102
RTVSPost2010Prop41ColorIndex
 90
       18
102
RTVSPost2010Prop41ColorRGB
 90
        0
102
RTVSPost2010PropOp41
 70
     0
102
RTVSPost2010Prop42
 90
       50
102
RTVSPost2010PropOp42
 70
     0
102
RTVSPost2010Prop43
 90
        3
102
RTVSPost2010PropOp43
 70
     0
102
RTVSPost2010Prop44ColorIndex
 90
        5
102
RTVSPost2010Prop44ColorRGB
 90
      255
102
RTVSPost2010PropOp44
 70
     0
102
RTVSPost2010Prop45
280
     0
102
RTVSPost2010PropOp45
 70
     0
102
RTVSPost2010Prop46
 90
       50
102
RTVSPost2010PropOp46
 70
     0
102
RTVSPost2010Prop47
 90
       50
102
RTVSPost2010PropOp47
 70
     0
102
RTVSPost2010Prop48
 90
       50
102
RTVSPost2010PropOp48
 70
     0
102
RTVSPost2010Prop49
280
     0
102
RTVSPost2010PropOp49
 70
     0
102
RTVSPost2010Prop50
 90
       50
102
RTVSPost2010PropOp50
 70
     0
102
RTVSPost2010Prop51ColorIndex
 90
      256
102
RTVSPost2010Prop51ColorRGB
 90
-16777216
102
RTVSPost2010PropOp51
 70
     0
102
RTVSPost2010Prop52
140
1.0
102
RTVSPost2010PropOp52
 70
     0
102
RTVSPost2010Prop53
 90
        2
102
RTVSPost2010PropOp53
 70
     0
102
RTVSPost2010Prop54
  1
strokes_ogs.tif
102
RTVSPost2010PropOp54
 70
     0
102
RTVSPost2010Prop55
280
     0
102
RTVSPost2010PropOp55
 70
     0
102
RTVSPost2010Prop56
140
1.0
102
RTVSPost2010PropOp56
 70
     0
102
RTVSPost2010Prop57
140
1.0
102
RTVSPost2010PropOp57
 70
     0
  0
XRECORD
  5
2AF
102
{ACAD_REACTORS
330
2AE
102
}
330
2AE
100
AcDbXrecord
280
     1
102
RTVSPropertyOp0
 70
     1
102
RTVSPropertyOp1
 70
     1
102
RTVSPropertyOp2
 70
     1
102
RTVSPropertyOp3
 70
     1
102
RTVSPropertyOp4
 70
     1
102
RTVSPropertyOp5
 70
     1
102
RTVSPropertyOp6
 70
     1
102
RTVSPropertyOp7
 70
     1
102
RTVSPropertyOp8
 70
     1
102
RTVSPropertyOp9
 70
     1
102
RTVSPropertyOp10
 70
     1
102
RTVSPropertyOp11
 70
     1
102
RTVSPropertyOp12
 70
     1
102
RTVSPropertyOp13
 70
     1
102
RTVSPropertyOp14
 70
     1
102
RTVSPropertyOp15
 70
     1
102
RTVSPropertyOp16
 70
     1
102
RTVSPropertyOp17
 70
     1
102
RTVSPropertyOp18
 70
     1
102
RTVSPropertyOp19
 70
     1
102
RTVSPropertyOp20
 70
     1
102
RTVSPropertyOp21
 70
     1
102
RTVSPropertyOp22
 70
     1
102
RTVSPropertyOp23
 70
     1
102
RTVSPropertyOp24
 70
     1
102
RTVSPropertyOp25
 70
     1
102
RTVSPropertyOp26
 70
     1
102
RTVSPropertyOp27
 70
     1
102
RTVSPropertyOp28
 70
     1
102
RTVSPropertyOp29
 70
     1
102
RTVSPropertyOp30
 70
     1
102
RTVSPropertyOp31
 70
     1
102
RTVSPropertyOp32
 70
     1
102
RTVSPropertyOp33
 70
     1
102
RTVSPropertyOp34
 70
     1
102
RTVSPropertyOp35
 70
     1
102
RTVSPropertyOp36
 70
     1
102
RTVSPropertyOp37
 70
     1
102
RTVSPropertyOp38
 70
     1
102
RTVSPropertyOp39
 70
     1
102
RTVSPropertyOp40
 70
     1
102
RTVSPropertyOp41
 70
     1
102
RTVSPropertyOp42
 70
     1
102
RTVSPropertyOp43
 70
     1
102
RTVSPropertyOp44
 70
     1
102
RTVSPropertyOp45
 70
     1
102
RTVSPropertyOp46
 70
     1
102
RTVSPropertyOp47
 70
     1
102
RTVSPropertyOp48
 70
     1
102
RTVSPropertyOp49
 70
     1
102
RTVSPropertyOp50
 70
     1
102
RTVSPropertyOp51
 70
     0
102
RTVSPropertyOp52
 70
     0
102
RTVSPropertyOp53
 70
     1
102
RTVSPropertyOp54
 70
     1
102
RTVSPropertyOp55
 70
     1
102
RTVSPropertyOp56
 70
     1
102
RTVSPropertyOp57
 70
     1
102
RTVSPost2010Prop28
280
     0
102
RTVSPost2010PropOp28
 70
     1
102
RTVSPost2010Prop29
280
     1
102
RTVSPost2010PropOp29
 70
     1
102
RTVSPost2010Prop30
280
     1
102
RTVSPost2010PropOp30
 70
     1
102
RTVSPost2010Prop31
280
     0
102
RTVSPost2010PropOp31
 70
     1
102
RTVSPost2010Prop32
280
     0
102
RTVSPost2010PropOp32
 70
     1
102
RTVSPost2010Prop33
280
     0
102
RTVSPost2010PropOp33
 70
     1
102
RTVSPost2010Prop34
280
     0
102
RTVSPost2010PropOp34
 70
     1
102
RTVSPost2010Prop35
280
     0
102
RTVSPost2010PropOp35
 70
     1
102
RTVSPost2010Prop36
280
     0
102
RTVSPost2010PropOp36
 70
     1
102
RTVSPost2010Prop37
 90
       50
102
RTVSPost2010PropOp37
 70
     1
102
RTVSPost2010Prop38
140
0.0
102
RTVSPost2010PropOp38
 70
     1
102
RTVSPost2010Prop39
140
1.0
102
RTVSPost2010PropOp39
 70
     1
102
RTVSPost2010Prop40
 90
        0
102
RTVSPost2010PropOp40
 70
     1
102
RTVSPost2010Prop41ColorIndex
 90
       18
102
RTVSPost2010Prop41ColorRGB
 90
        0
102
RTVSPost2010PropOp41
 70
     1
102
RTVSPost2010Prop42
 90
       50
102
RTVSPost2010PropOp42
 70
     1
102
RTVSPost2010Prop43
 90
        3
102
RTVSPost2010PropOp43
 70
     1
102
RTVSPost2010Prop44ColorIndex
 90
        5
102
RTVSPost2010Prop44ColorRGB
 90
      255
102
RTVSPost2010PropOp44
 70
     1
102
RTVSPost2010Prop45
280
     0
102
RTVSPost2010PropOp45
 70
     1
102
RTVSPost2010Prop46
 90
       50
102
RTVSPost2010PropOp46
 70
     1
102
RTVSPost2010Prop47
 90
       50
102
RTVSPost2010PropOp47
 70
     1
102
RTVSPost2010Prop48
 90
       50
102
RTVSPost2010PropOp48
 70
     1
102
RTVSPost2010Prop49
280
     0
102
RTVSPost2010PropOp49
 70
     1
102
RTVSPost2010Prop50
 90
       50
102
RTVSPost2010PropOp50
 70
     1
102
RTVSPost2010Prop51ColorIndex
 90
      256
102
RTVSPost2010Prop51ColorRGB
 90
-16777216
102
RTVSPost2010PropOp51
 70
     0
102
RTVSPost2010Prop52
140
1.0
102
RTVSPost2010PropOp52
 70
     0
102
RTVSPost2010Prop53
 90
        2
102
RTVSPost2010PropOp53
 70
     1
102
RTVSPost2010Prop54
  1
strokes_ogs.tif
102
RTVSPost2010PropOp54
 70
     1
102
RTVSPost2010Prop55
280
     0
102
RTVSPost2010PropOp55
 70
     1
102
RTVSPost2010Prop56
140
1.0
102
RTVSPost2010PropOp56
 70
     1
102
RTVSPost2010Prop57
140
1.0
102
RTVSPost2010PropOp57
 70
     1
  0
XRECORD
  5
2CD
102
{ACAD_REACTORS
330
2CC
102
}
330
2CC
100
AcDbXrecord
280
     1
102
RTVSPropertyOp0
 70
     1
102
RTVSPropertyOp1
 70
     1
102
RTVSPropertyOp2
 70
     1
102
RTVSPropertyOp3
 70
     1
102
RTVSPropertyOp4
 70
     1
102
RTVSPropertyOp5
 70
     1
102
RTVSPropertyOp6
 70
     1
102
RTVSPropertyOp7
 70
     1
102
RTVSPropertyOp8
 70
     1
102
RTVSPropertyOp9
 70
     1
102
RTVSPropertyOp10
 70
     1
102
RTVSPropertyOp11
 70
     1
102
RTVSPropertyOp12
 70
     1
102
RTVSPropertyOp13
 70
     1
102
RTVSPropertyOp14
 70
     1
102
RTVSPropertyOp15
 70
     1
102
RTVSPropertyOp16
 70
     1
102
RTVSPropertyOp17
 70
     1
102
RTVSPropertyOp18
 70
     1
102
RTVSPropertyOp19
 70
     1
102
RTVSPropertyOp20
 70
     1
102
RTVSPropertyOp21
 70
     1
102
RTVSPropertyOp22
 70
     1
102
RTVSPropertyOp23
 70
     1
102
RTVSPropertyOp24
 70
     1
102
RTVSPropertyOp25
 70
     1
102
RTVSPropertyOp26
 70
     1
102
RTVSPropertyOp27
 70
     1
102
RTVSPropertyOp28
 70
     1
102
RTVSPropertyOp29
 70
     1
102
RTVSPropertyOp30
 70
     1
102
RTVSPropertyOp31
 70
     1
102
RTVSPropertyOp32
 70
     1
102
RTVSPropertyOp33
 70
     1
102
RTVSPropertyOp34
 70
     1
102
RTVSPropertyOp35
 70
     1
102
RTVSPropertyOp36
 70
     1
102
RTVSPropertyOp37
 70
     1
102
RTVSPropertyOp38
 70
     1
102
RTVSPropertyOp39
 70
     1
102
RTVSPropertyOp40
 70
     1
102
RTVSPropertyOp41
 70
     1
102
RTVSPropertyOp42
 70
     1
102
RTVSPropertyOp43
 70
     1
102
RTVSPropertyOp44
 70
     1
102
RTVSPropertyOp45
 70
     1
102
RTVSPropertyOp46
 70
     1
102
RTVSPropertyOp47
 70
     1
102
RTVSPropertyOp48
 70
     1
102
RTVSPropertyOp49
 70
     1
102
RTVSPropertyOp50
 70
     1
102
RTVSPropertyOp51
 70
     0
102
RTVSPropertyOp52
 70
     0
102
RTVSPropertyOp53
 70
     1
102
RTVSPropertyOp54
 70
     1
102
RTVSPropertyOp55
 70
     1
102
RTVSPropertyOp56
 70
     1
102
RTVSPropertyOp57
 70
     1
102
RTVSPost2010Prop28
280
     0
102
RTVSPost2010PropOp28
 70
     1
102
RTVSPost2010Prop29
280
     1
102
RTVSPost2010PropOp29
 70
     1
102
RTVSPost2010Prop30
280
     1
102
RTVSPost2010PropOp30
 70
     1
102
RTVSPost2010Prop31
280
     0
102
RTVSPost2010PropOp31
 70
     1
102
RTVSPost2010Prop32
280
     0
102
RTVSPost2010PropOp32
 70
     1
102
RTVSPost2010Prop33
280
     0
102
RTVSPost2010PropOp33
 70
     1
102
RTVSPost2010Prop34
280
     0
102
RTVSPost2010PropOp34
 70
     1
102
RTVSPost2010Prop35
280
     0
102
RTVSPost2010PropOp35
 70
     1
102
RTVSPost2010Prop36
280
     0
102
RTVSPost2010PropOp36
 70
     1
102
RTVSPost2010Prop37
 90
       50
102
RTVSPost2010PropOp37
 70
     1
102
RTVSPost2010Prop38
140
0.0
102
RTVSPost2010PropOp38
 70
     1
102
RTVSPost2010Prop39
140
1.0
102
RTVSPost2010PropOp39
 70
     1
102
RTVSPost2010Prop40
 90
        0
102
RTVSPost2010PropOp40
 70
     1
102
RTVSPost2010Prop41ColorIndex
 90
       18
102
RTVSPost2010Prop41ColorRGB
 90
        0
102
RTVSPost2010PropOp41
 70
     1
102
RTVSPost2010Prop42
 90
       50
102
RTVSPost2010PropOp42
 70
     1
102
RTVSPost2010Prop43
 90
        3
102
RTVSPost2010PropOp43
 70
     1
102
RTVSPost2010Prop44ColorIndex
 90
        5
102
RTVSPost2010Prop44ColorRGB
 90
      255
102
RTVSPost2010PropOp44
 70
     1
102
RTVSPost2010Prop45
280
     0
102
RTVSPost2010PropOp45
 70
     1
102
RTVSPost2010Prop46
 90
       50
102
RTVSPost2010PropOp46
 70
     1
102
RTVSPost2010Prop47
 90
       50
102
RTVSPost2010PropOp47
 70
     1
102
RTVSPost2010Prop48
 90
       50
102
RTVSPost2010PropOp48
 70
     1
102
RTVSPost2010Prop49
280
     0
102
RTVSPost2010PropOp49
 70
     1
102
RTVSPost2010Prop50
 90
       50
102
RTVSPost2010PropOp50
 70
     1
102
RTVSPost2010Prop51ColorIndex
 90
      256
102
RTVSPost2010Prop51ColorRGB
 90
-16777216
102
RTVSPost2010PropOp51
 70
     0
102
RTVSPost2010Prop52
140
1.0
102
RTVSPost2010PropOp52
 70
     0
102
RTVSPost2010Prop53
 90
        2
102
RTVSPost2010PropOp53
 70
     1
102
RTVSPost2010Prop54
  1
strokes_ogs.tif
102
RTVSPost2010PropOp54
 70
     1
102
RTVSPost2010Prop55
280
     0
102
RTVSPost2010PropOp55
 70
     1
102
RTVSPost2010Prop56
140
1.0
102
RTVSPost2010PropOp56
 70
     1
102
RTVSPost2010Prop57
140
1.0
102
RTVSPost2010PropOp57
 70
     1
  0
XRECORD
  5
2CB
102
{ACAD_REACTORS
330
2CA
102
}
330
2CA
100
AcDbXrecord
280
     1
102
RTVSPropertyOp0
 70
     1
102
RTVSPropertyOp1
 70
     1
102
RTVSPropertyOp2
 70
     1
102
RTVSPropertyOp3
 70
     1
102
RTVSPropertyOp4
 70
     1
102
RTVSPropertyOp5
 70
     1
102
RTVSPropertyOp6
 70
     1
102
RTVSPropertyOp7
 70
     1
102
RTVSPropertyOp8
 70
     1
102
RTVSPropertyOp9
 70
     1
102
RTVSPropertyOp10
 70
     1
102
RTVSPropertyOp11
 70
     1
102
RTVSPropertyOp12
 70
     1
102
RTVSPropertyOp13
 70
     1
102
RTVSPropertyOp14
 70
     1
102
RTVSPropertyOp15
 70
     1
102
RTVSPropertyOp16
 70
     1
102
RTVSPropertyOp17
 70
     1
102
RTVSPropertyOp18
 70
     1
102
RTVSPropertyOp19
 70
     1
102
RTVSPropertyOp20
 70
     1
102
RTVSPropertyOp21
 70
     1
102
RTVSPropertyOp22
 70
     1
102
RTVSPropertyOp23
 70
     1
102
RTVSPropertyOp24
 70
     1
102
RTVSPropertyOp25
 70
     1
102
RTVSPropertyOp26
 70
     1
102
RTVSPropertyOp27
 70
     1
102
RTVSPropertyOp28
 70
     1
102
RTVSPropertyOp29
 70
     1
102
RTVSPropertyOp30
 70
     1
102
RTVSPropertyOp31
 70
     1
102
RTVSPropertyOp32
 70
     1
102
RTVSPropertyOp33
 70
     1
102
RTVSPropertyOp34
 70
     1
102
RTVSPropertyOp35
 70
     1
102
RTVSPropertyOp36
 70
     1
102
RTVSPropertyOp37
 70
     1
102
RTVSPropertyOp38
 70
     1
102
RTVSPropertyOp39
 70
     1
102
RTVSPropertyOp40
 70
     1
102
RTVSPropertyOp41
 70
     1
102
RTVSPropertyOp42
 70
     1
102
RTVSPropertyOp43
 70
     1
102
RTVSPropertyOp44
 70
     1
102
RTVSPropertyOp45
 70
     1
102
RTVSPropertyOp46
 70
     1
102
RTVSPropertyOp47
 70
     1
102
RTVSPropertyOp48
 70
     1
102
RTVSPropertyOp49
 70
     1
102
RTVSPropertyOp50
 70
     1
102
RTVSPropertyOp51
 70
     0
102
RTVSPropertyOp52
 70
     0
102
RTVSPropertyOp53
 70
     1
102
RTVSPropertyOp54
 70
     1
102
RTVSPropertyOp55
 70
     1
102
RTVSPropertyOp56
 70
     1
102
RTVSPropertyOp57
 70
     1
102
RTVSPost2010Prop28
280
     0
102
RTVSPost2010PropOp28
 70
     1
102
RTVSPost2010Prop29
280
     1
102
RTVSPost2010PropOp29
 70
     1
102
RTVSPost2010Prop30
280
     1
102
RTVSPost2010PropOp30
 70
     1
102
RTVSPost2010Prop31
280
     0
102
RTVSPost2010PropOp31
 70
     1
102
RTVSPost2010Prop32
280
     0
102
RTVSPost2010PropOp32
 70
     1
102
RTVSPost2010Prop33
280
     0
102
RTVSPost2010PropOp33
 70
     1
102
RTVSPost2010Prop34
280
     0
102
RTVSPost2010PropOp34
 70
     1
102
RTVSPost2010Prop35
280
     0
102
RTVSPost2010PropOp35
 70
     1
102
RTVSPost2010Prop36
280
     0
102
RTVSPost2010PropOp36
 70
     1
102
RTVSPost2010Prop37
 90
       50
102
RTVSPost2010PropOp37
 70
     1
102
RTVSPost2010Prop38
140
0.0
102
RTVSPost2010PropOp38
 70
     1
102
RTVSPost2010Prop39
140
1.0
102
RTVSPost2010PropOp39
 70
     1
102
RTVSPost2010Prop40
 90
        0
102
RTVSPost2010PropOp40
 70
     1
102
RTVSPost2010Prop41ColorIndex
 90
       18
102
RTVSPost2010Prop41ColorRGB
 90
        0
102
RTVSPost2010PropOp41
 70
     1
102
RTVSPost2010Prop42
 90
       50
102
RTVSPost2010PropOp42
 70
     1
102
RTVSPost2010Prop43
 90
        3
102
RTVSPost2010PropOp43
 70
     1
102
RTVSPost2010Prop44ColorIndex
 90
        5
102
RTVSPost2010Prop44ColorRGB
 90
      255
102
RTVSPost2010PropOp44
 70
     1
102
RTVSPost2010Prop45
280
     0
102
RTVSPost2010PropOp45
 70
     1
102
RTVSPost2010Prop46
 90
       50
102
RTVSPost2010PropOp46
 70
     1
102
RTVSPost2010Prop47
 90
       50
102
RTVSPost2010PropOp47
 70
     1
102
RTVSPost2010Prop48
 90
       50
102
RTVSPost2010PropOp48
 70
     1
102
RTVSPost2010Prop49
280
     0
102
RTVSPost2010PropOp49
 70
     1
102
RTVSPost2010Prop50
 90
       50
102
RTVSPost2010PropOp50
 70
     1
102
RTVSPost2010Prop51ColorIndex
 90
      256
102
RTVSPost2010Prop51ColorRGB
 90
-16777216
102
RTVSPost2010PropOp51
 70
     0
102
RTVSPost2010Prop52
140
1.0
102
RTVSPost2010PropOp52
 70
     0
102
RTVSPost2010Prop53
 90
        2
102
RTVSPost2010PropOp53
 70
     1
102
RTVSPost2010Prop54
  1
strokes_ogs.tif
102
RTVSPost2010PropOp54
 70
     1
102
RTVSPost2010Prop55
280
     0
102
RTVSPost2010PropOp55
 70
     1
102
RTVSPost2010Prop56
140
1.0
102
RTVSPost2010PropOp56
 70
     1
102
RTVSPost2010Prop57
140
1.0
102
RTVSPost2010PropOp57
 70
     1
  0
XRECORD
  5
2C5
102
{ACAD_REACTORS
330
2C4
102
}
330
2C4
100
AcDbXrecord
280
     1
102
RTVSPropertyOp0
 70
     1
102
RTVSPropertyOp1
 70
     1
102
RTVSPropertyOp2
 70
     1
102
RTVSPropertyOp3
 70
     1
102
RTVSPropertyOp4
 70
     1
102
RTVSPropertyOp5
 70
     1
102
RTVSPropertyOp6
 70
     1
102
RTVSPropertyOp7
 70
     1
102
RTVSPropertyOp8
 70
     1
102
RTVSPropertyOp9
 70
     1
102
RTVSPropertyOp10
 70
     1
102
RTVSPropertyOp11
 70
     1
102
RTVSPropertyOp12
 70
     1
102
RTVSPropertyOp13
 70
     1
102
RTVSPropertyOp14
 70
     1
102
RTVSPropertyOp15
 70
     1
102
RTVSPropertyOp16
 70
     1
102
RTVSPropertyOp17
 70
     1
102
RTVSPropertyOp18
 70
     1
102
RTVSPropertyOp19
 70
     1
102
RTVSPropertyOp20
 70
     1
102
RTVSPropertyOp21
 70
     1
102
RTVSPropertyOp22
 70
     1
102
RTVSPropertyOp23
 70
     1
102
RTVSPropertyOp24
 70
     1
102
RTVSPropertyOp25
 70
     1
102
RTVSPropertyOp26
 70
     1
102
RTVSPropertyOp27
 70
     1
102
RTVSPropertyOp28
 70
     1
102
RTVSPropertyOp29
 70
     1
102
RTVSPropertyOp30
 70
     1
102
RTVSPropertyOp31
 70
     1
102
RTVSPropertyOp32
 70
     1
102
RTVSPropertyOp33
 70
     1
102
RTVSPropertyOp34
 70
     1
102
RTVSPropertyOp35
 70
     1
102
RTVSPropertyOp36
 70
     1
102
RTVSPropertyOp37
 70
     1
102
RTVSPropertyOp38
 70
     1
102
RTVSPropertyOp39
 70
     1
102
RTVSPropertyOp40
 70
     1
102
RTVSPropertyOp41
 70
     1
102
RTVSPropertyOp42
 70
     1
102
RTVSPropertyOp43
 70
     1
102
RTVSPropertyOp44
 70
     1
102
RTVSPropertyOp45
 70
     1
102
RTVSPropertyOp46
 70
     1
102
RTVSPropertyOp47
 70
     1
102
RTVSPropertyOp48
 70
     1
102
RTVSPropertyOp49
 70
     1
102
RTVSPropertyOp50
 70
     1
102
RTVSPropertyOp51
 70
     0
102
RTVSPropertyOp52
 70
     0
102
RTVSPropertyOp53
 70
     1
102
RTVSPropertyOp54
 70
     1
102
RTVSPropertyOp55
 70
     1
102
RTVSPropertyOp56
 70
     1
102
RTVSPropertyOp57
 70
     1
102
RTVSPost2010Prop28
280
     0
102
RTVSPost2010PropOp28
 70
     1
102
RTVSPost2010Prop29
280
     1
102
RTVSPost2010PropOp29
 70
     1
102
RTVSPost2010Prop30
280
     1
102
RTVSPost2010PropOp30
 70
     1
102
RTVSPost2010Prop31
280
     0
102
RTVSPost2010PropOp31
 70
     1
102
RTVSPost2010Prop32
280
     0
102
RTVSPost2010PropOp32
 70
     1
102
RTVSPost2010Prop33
280
     0
102
RTVSPost2010PropOp33
 70
     1
102
RTVSPost2010Prop34
280
     0
102
RTVSPost2010PropOp34
 70
     1
102
RTVSPost2010Prop35
280
     0
102
RTVSPost2010PropOp35
 70
     1
102
RTVSPost2010Prop36
280
     0
102
RTVSPost2010PropOp36
 70
     1
102
RTVSPost2010Prop37
 90
       50
102
RTVSPost2010PropOp37
 70
     1
102
RTVSPost2010Prop38
140
0.0
102
RTVSPost2010PropOp38
 70
     1
102
RTVSPost2010Prop39
140
1.0
102
RTVSPost2010PropOp39
 70
     1
102
RTVSPost2010Prop40
 90
        0
102
RTVSPost2010PropOp40
 70
     1
102
RTVSPost2010Prop41ColorIndex
 90
       18
102
RTVSPost2010Prop41ColorRGB
 90
        0
102
RTVSPost2010PropOp41
 70
     1
102
RTVSPost2010Prop42
 90
       50
102
RTVSPost2010PropOp42
 70
     1
102
RTVSPost2010Prop43
 90
        3
102
RTVSPost2010PropOp43
 70
     1
102
RTVSPost2010Prop44ColorIndex
 90
        5
102
RTVSPost2010Prop44ColorRGB
 90
      255
102
RTVSPost2010PropOp44
 70
     1
102
RTVSPost2010Prop45
280
     0
102
RTVSPost2010PropOp45
 70
     1
102
RTVSPost2010Prop46
 90
       50
102
RTVSPost2010PropOp46
 70
     1
102
RTVSPost2010Prop47
 90
       50
102
RTVSPost2010PropOp47
 70
     1
102
RTVSPost2010Prop48
 90
       50
102
RTVSPost2010PropOp48
 70
     1
102
RTVSPost2010Prop49
280
     0
102
RTVSPost2010PropOp49
 70
     1
102
RTVSPost2010Prop50
 90
       50
102
RTVSPost2010PropOp50
 70
     1
102
RTVSPost2010Prop51ColorIndex
 90
      256
102
RTVSPost2010Prop51ColorRGB
 90
-16777216
102
RTVSPost2010PropOp51
 70
     0
102
RTVSPost2010Prop52
140
1.0
102
RTVSPost2010PropOp52
 70
     0
102
RTVSPost2010Prop53
 90
        2
102
RTVSPost2010PropOp53
 70
     1
102
RTVSPost2010Prop54
  1
strokes_ogs.tif
102
RTVSPost2010PropOp54
 70
     1
102
RTVSPost2010Prop55
280
     0
102
RTVSPost2010PropOp55
 70
     1
102
RTVSPost2010Prop56
140
1.0
102
RTVSPost2010PropOp56
 70
     1
102
RTVSPost2010Prop57
140
1.0
102
RTVSPost2010PropOp57
 70
     1
  0
XRECORD
  5
2C7
102
{ACAD_REACTORS
330
2C6
102
}
330
2C6
100
AcDbXrecord
280
     1
102
RTVSPropertyOp0
 70
     1
102
RTVSPropertyOp1
 70
     1
102
RTVSPropertyOp2
 70
     1
102
RTVSPropertyOp3
 70
     1
102
RTVSPropertyOp4
 70
     1
102
RTVSPropertyOp5
 70
     1
102
RTVSPropertyOp6
 70
     1
102
RTVSPropertyOp7
 70
     1
102
RTVSPropertyOp8
 70
     1
102
RTVSPropertyOp9
 70
     1
102
RTVSPropertyOp10
 70
     1
102
RTVSPropertyOp11
 70
     1
102
RTVSPropertyOp12
 70
     1
102
RTVSPropertyOp13
 70
     1
102
RTVSPropertyOp14
 70
     1
102
RTVSPropertyOp15
 70
     1
102
RTVSPropertyOp16
 70
     1
102
RTVSPropertyOp17
 70
     1
102
RTVSPropertyOp18
 70
     1
102
RTVSPropertyOp19
 70
     1
102
RTVSPropertyOp20
 70
     1
102
RTVSPropertyOp21
 70
     1
102
RTVSPropertyOp22
 70
     1
102
RTVSPropertyOp23
 70
     1
102
RTVSPropertyOp24
 70
     1
102
RTVSPropertyOp25
 70
     1
102
RTVSPropertyOp26
 70
     1
102
RTVSPropertyOp27
 70
     1
102
RTVSPropertyOp28
 70
     1
102
RTVSPropertyOp29
 70
     1
102
RTVSPropertyOp30
 70
     1
102
RTVSPropertyOp31
 70
     1
102
RTVSPropertyOp32
 70
     1
102
RTVSPropertyOp33
 70
     1
102
RTVSPropertyOp34
 70
     1
102
RTVSPropertyOp35
 70
     1
102
RTVSPropertyOp36
 70
     1
102
RTVSPropertyOp37
 70
     1
102
RTVSPropertyOp38
 70
     1
102
RTVSPropertyOp39
 70
     1
102
RTVSPropertyOp40
 70
     1
102
RTVSPropertyOp41
 70
     1
102
RTVSPropertyOp42
 70
     1
102
RTVSPropertyOp43
 70
     1
102
RTVSPropertyOp44
 70
     1
102
RTVSPropertyOp45
 70
     1
102
RTVSPropertyOp46
 70
     1
102
RTVSPropertyOp47
 70
     1
102
RTVSPropertyOp48
 70
     1
102
RTVSPropertyOp49
 70
     1
102
RTVSPropertyOp50
 70
     1
102
RTVSPropertyOp51
 70
     0
102
RTVSPropertyOp52
 70
     0
102
RTVSPropertyOp53
 70
     1
102
RTVSPropertyOp54
 70
     1
102
RTVSPropertyOp55
 70
     1
102
RTVSPropertyOp56
 70
     1
102
RTVSPropertyOp57
 70
     1
102
RTVSPost2010Prop28
280
     0
102
RTVSPost2010PropOp28
 70
     1
102
RTVSPost2010Prop29
280
     1
102
RTVSPost2010PropOp29
 70
     1
102
RTVSPost2010Prop30
280
     1
102
RTVSPost2010PropOp30
 70
     1
102
RTVSPost2010Prop31
280
     0
102
RTVSPost2010PropOp31
 70
     1
102
RTVSPost2010Prop32
280
     0
102
RTVSPost2010PropOp32
 70
     1
102
RTVSPost2010Prop33
280
     0
102
RTVSPost2010PropOp33
 70
     1
102
RTVSPost2010Prop34
280
     0
102
RTVSPost2010PropOp34
 70
     1
102
RTVSPost2010Prop35
280
     0
102
RTVSPost2010PropOp35
 70
     1
102
RTVSPost2010Prop36
280
     0
102
RTVSPost2010PropOp36
 70
     1
102
RTVSPost2010Prop37
 90
       50
102
RTVSPost2010PropOp37
 70
     1
102
RTVSPost2010Prop38
140
0.0
102
RTVSPost2010PropOp38
 70
     1
102
RTVSPost2010Prop39
140
1.0
102
RTVSPost2010PropOp39
 70
     1
102
RTVSPost2010Prop40
 90
        0
102
RTVSPost2010PropOp40
 70
     1
102
RTVSPost2010Prop41ColorIndex
 90
       18
102
RTVSPost2010Prop41ColorRGB
 90
        0
102
RTVSPost2010PropOp41
 70
     1
102
RTVSPost2010Prop42
 90
       50
102
RTVSPost2010PropOp42
 70
     1
102
RTVSPost2010Prop43
 90
        3
102
RTVSPost2010PropOp43
 70
     1
102
RTVSPost2010Prop44ColorIndex
 90
        5
102
RTVSPost2010Prop44ColorRGB
 90
      255
102
RTVSPost2010PropOp44
 70
     1
102
RTVSPost2010Prop45
280
     0
102
RTVSPost2010PropOp45
 70
     1
102
RTVSPost2010Prop46
 90
       50
102
RTVSPost2010PropOp46
 70
     1
102
RTVSPost2010Prop47
 90
       50
102
RTVSPost2010PropOp47
 70
     1
102
RTVSPost2010Prop48
 90
       50
102
RTVSPost2010PropOp48
 70
     1
102
RTVSPost2010Prop49
280
     0
102
RTVSPost2010PropOp49
 70
     1
102
RTVSPost2010Prop50
 90
       50
102
RTVSPost2010PropOp50
 70
     1
102
RTVSPost2010Prop51ColorIndex
 90
      256
102
RTVSPost2010Prop51ColorRGB
 90
-16777216
102
RTVSPost2010PropOp51
 70
     0
102
RTVSPost2010Prop52
140
1.0
102
RTVSPost2010PropOp52
 70
     0
102
RTVSPost2010Prop53
 90
        2
102
RTVSPost2010PropOp53
 70
     1
102
RTVSPost2010Prop54
  1
strokes_ogs.tif
102
RTVSPost2010PropOp54
 70
     1
102
RTVSPost2010Prop55
280
     0
102
RTVSPost2010PropOp55
 70
     1
102
RTVSPost2010Prop56
140
1.0
102
RTVSPost2010PropOp56
 70
     1
102
RTVSPost2010Prop57
140
1.0
102
RTVSPost2010PropOp57
 70
     1
  0
XRECORD
  5
2B7
102
{ACAD_REACTORS
330
2B6
102
}
330
2B6
100
AcDbXrecord
280
     1
102
RTVSPropertyOp0
 70
     1
102
RTVSPropertyOp1
 70
     1
102
RTVSPropertyOp2
 70
     1
102
RTVSPropertyOp3
 70
     1
102
RTVSPropertyOp4
 70
     1
102
RTVSPropertyOp5
 70
     1
102
RTVSPropertyOp6
 70
     1
102
RTVSPropertyOp7
 70
     1
102
RTVSPropertyOp8
 70
     1
102
RTVSPropertyOp9
 70
     1
102
RTVSPropertyOp10
 70
     1
102
RTVSPropertyOp11
 70
     1
102
RTVSPropertyOp12
 70
     1
102
RTVSPropertyOp13
 70
     1
102
RTVSPropertyOp14
 70
     1
102
RTVSPropertyOp15
 70
     1
102
RTVSPropertyOp16
 70
     1
102
RTVSPropertyOp17
 70
     1
102
RTVSPropertyOp18
 70
     1
102
RTVSPropertyOp19
 70
     1
102
RTVSPropertyOp20
 70
     1
102
RTVSPropertyOp21
 70
     1
102
RTVSPropertyOp22
 70
     1
102
RTVSPropertyOp23
 70
     1
102
RTVSPropertyOp24
 70
     1
102
RTVSPropertyOp25
 70
     1
102
RTVSPropertyOp26
 70
     1
102
RTVSPropertyOp27
 70
     1
102
RTVSPropertyOp28
 70
     1
102
RTVSPropertyOp29
 70
     1
102
RTVSPropertyOp30
 70
     1
102
RTVSPropertyOp31
 70
     1
102
RTVSPropertyOp32
 70
     1
102
RTVSPropertyOp33
 70
     1
102
RTVSPropertyOp34
 70
     1
102
RTVSPropertyOp35
 70
     1
102
RTVSPropertyOp36
 70
     1
102
RTVSPropertyOp37
 70
     1
102
RTVSPropertyOp38
 70
     1
102
RTVSPropertyOp39
 70
     1
102
RTVSPropertyOp40
 70
     1
102
RTVSPropertyOp41
 70
     1
102
RTVSPropertyOp42
 70
     1
102
RTVSPropertyOp43
 70
     1
102
RTVSPropertyOp44
 70
     1
102
RTVSPropertyOp45
 70
     1
102
RTVSPropertyOp46
 70
     1
102
RTVSPropertyOp47
 70
     1
102
RTVSPropertyOp48
 70
     1
102
RTVSPropertyOp49
 70
     1
102
RTVSPropertyOp50
 70
     1
102
RTVSPropertyOp51
 70
     0
102
RTVSPropertyOp52
 70
     0
102
RTVSPropertyOp53
 70
     1
102
RTVSPropertyOp54
 70
     1
102
RTVSPropertyOp55
 70
     1
102
RTVSPropertyOp56
 70
     1
102
RTVSPropertyOp57
 70
     1
102
RTVSPost2010Prop28
280
     0
102
RTVSPost2010PropOp28
 70
     1
102
RTVSPost2010Prop29
280
     1
102
RTVSPost2010PropOp29
 70
     1
102
RTVSPost2010Prop30
280
     1
102
RTVSPost2010PropOp30
 70
     1
102
RTVSPost2010Prop31
280
     0
102
RTVSPost2010PropOp31
 70
     1
102
RTVSPost2010Prop32
280
     0
102
RTVSPost2010PropOp32
 70
     1
102
RTVSPost2010Prop33
280
     0
102
RTVSPost2010PropOp33
 70
     1
102
RTVSPost2010Prop34
280
     0
102
RTVSPost2010PropOp34
 70
     1
102
RTVSPost2010Prop35
280
     0
102
RTVSPost2010PropOp35
 70
     1
102
RTVSPost2010Prop36
280
     0
102
RTVSPost2010PropOp36
 70
     1
102
RTVSPost2010Prop37
 90
       50
102
RTVSPost2010PropOp37
 70
     1
102
RTVSPost2010Prop38
140
0.0
102
RTVSPost2010PropOp38
 70
     1
102
RTVSPost2010Prop39
140
1.0
102
RTVSPost2010PropOp39
 70
     1
102
RTVSPost2010Prop40
 90
        0
102
RTVSPost2010PropOp40
 70
     1
102
RTVSPost2010Prop41ColorIndex
 90
       18
102
RTVSPost2010Prop41ColorRGB
 90
        0
102
RTVSPost2010PropOp41
 70
     1
102
RTVSPost2010Prop42
 90
       50
102
RTVSPost2010PropOp42
 70
     1
102
RTVSPost2010Prop43
 90
        3
102
RTVSPost2010PropOp43
 70
     1
102
RTVSPost2010Prop44ColorIndex
 90
        5
102
RTVSPost2010Prop44ColorRGB
 90
      255
102
RTVSPost2010PropOp44
 70
     1
102
RTVSPost2010Prop45
280
     0
102
RTVSPost2010PropOp45
 70
     1
102
RTVSPost2010Prop46
 90
       50
102
RTVSPost2010PropOp46
 70
     1
102
RTVSPost2010Prop47
 90
       50
102
RTVSPost2010PropOp47
 70
     1
102
RTVSPost2010Prop48
 90
       50
102
RTVSPost2010PropOp48
 70
     1
102
RTVSPost2010Prop49
280
     0
102
RTVSPost2010PropOp49
 70
     1
102
RTVSPost2010Prop50
 90
       50
102
RTVSPost2010PropOp50
 70
     1
102
RTVSPost2010Prop51ColorIndex
 90
      256
102
RTVSPost2010Prop51ColorRGB
 90
-16777216
102
RTVSPost2010PropOp51
 70
     0
102
RTVSPost2010Prop52
140
1.0
102
RTVSPost2010PropOp52
 70
     0
102
RTVSPost2010Prop53
 90
        2
102
RTVSPost2010PropOp53
 70
     1
102
RTVSPost2010Prop54
  1
strokes_ogs.tif
102
RTVSPost2010PropOp54
 70
     1
102
RTVSPost2010Prop55
280
     0
102
RTVSPost2010PropOp55
 70
     1
102
RTVSPost2010Prop56
140
1.0
102
RTVSPost2010PropOp56
 70
     1
102
RTVSPost2010Prop57
140
1.0
102
RTVSPost2010PropOp57
 70
     1
  0
XRECORD
  5
2A9
102
{ACAD_REACTORS
330
2A8
102
}
330
2A8
100
AcDbXrecord
280
     1
102
RTVSPropertyOp0
 70
     1
102
RTVSPropertyOp1
 70
     1
102
RTVSPropertyOp2
 70
     1
102
RTVSPropertyOp3
 70
     1
102
RTVSPropertyOp4
 70
     1
102
RTVSPropertyOp5
 70
     1
102
RTVSPropertyOp6
 70
     1
102
RTVSPropertyOp7
 70
     1
102
RTVSPropertyOp8
 70
     1
102
RTVSPropertyOp9
 70
     1
102
RTVSPropertyOp10
 70
     1
102
RTVSPropertyOp11
 70
     1
102
RTVSPropertyOp12
 70
     1
102
RTVSPropertyOp13
 70
     1
102
RTVSPropertyOp14
 70
     1
102
RTVSPropertyOp15
 70
     1
102
RTVSPropertyOp16
 70
     1
102
RTVSPropertyOp17
 70
     1
102
RTVSPropertyOp18
 70
     1
102
RTVSPropertyOp19
 70
     1
102
RTVSPropertyOp20
 70
     1
102
RTVSPropertyOp21
 70
     1
102
RTVSPropertyOp22
 70
     1
102
RTVSPropertyOp23
 70
     1
102
RTVSPropertyOp24
 70
     1
102
RTVSPropertyOp25
 70
     1
102
RTVSPropertyOp26
 70
     1
102
RTVSPropertyOp27
 70
     1
102
RTVSPropertyOp28
 70
     1
102
RTVSPropertyOp29
 70
     1
102
RTVSPropertyOp30
 70
     1
102
RTVSPropertyOp31
 70
     1
102
RTVSPropertyOp32
 70
     1
102
RTVSPropertyOp33
 70
     1
102
RTVSPropertyOp34
 70
     1
102
RTVSPropertyOp35
 70
     1
102
RTVSPropertyOp36
 70
     1
102
RTVSPropertyOp37
 70
     1
102
RTVSPropertyOp38
 70
     1
102
RTVSPropertyOp39
 70
     1
102
RTVSPropertyOp40
 70
     1
102
RTVSPropertyOp41
 70
     1
102
RTVSPropertyOp42
 70
     1
102
RTVSPropertyOp43
 70
     1
102
RTVSPropertyOp44
 70
     1
102
RTVSPropertyOp45
 70
     1
102
RTVSPropertyOp46
 70
     1
102
RTVSPropertyOp47
 70
     1
102
RTVSPropertyOp48
 70
     1
102
RTVSPropertyOp49
 70
     1
102
RTVSPropertyOp50
 70
     1
102
RTVSPropertyOp51
 70
     0
102
RTVSPropertyOp52
 70
     0
102
RTVSPropertyOp53
 70
     1
102
RTVSPropertyOp54
 70
     1
102
RTVSPropertyOp55
 70
     1
102
RTVSPropertyOp56
 70
     1
102
RTVSPropertyOp57
 70
     1
102
RTVSPost2010Prop28
280
     0
102
RTVSPost2010PropOp28
 70
     1
102
RTVSPost2010Prop29
280
     1
102
RTVSPost2010PropOp29
 70
     1
102
RTVSPost2010Prop30
280
     1
102
RTVSPost2010PropOp30
 70
     1
102
RTVSPost2010Prop31
280
     0
102
RTVSPost2010PropOp31
 70
     1
102
RTVSPost2010Prop32
280
     0
102
RTVSPost2010PropOp32
 70
     1
102
RTVSPost2010Prop33
280
     0
102
RTVSPost2010PropOp33
 70
     1
102
RTVSPost2010Prop34
280
     0
102
RTVSPost2010PropOp34
 70
     1
102
RTVSPost2010Prop35
280
     0
102
RTVSPost2010PropOp35
 70
     1
102
RTVSPost2010Prop36
280
     0
102
RTVSPost2010PropOp36
 70
     1
102
RTVSPost2010Prop37
 90
       50
102
RTVSPost2010PropOp37
 70
     1
102
RTVSPost2010Prop38
140
0.0
102
RTVSPost2010PropOp38
 70
     1
102
RTVSPost2010Prop39
140
1.0
102
RTVSPost2010PropOp39
 70
     1
102
RTVSPost2010Prop40
 90
        0
102
RTVSPost2010PropOp40
 70
     1
102
RTVSPost2010Prop41ColorIndex
 90
       18
102
RTVSPost2010Prop41ColorRGB
 90
        0
102
RTVSPost2010PropOp41
 70
     1
102
RTVSPost2010Prop42
 90
       50
102
RTVSPost2010PropOp42
 70
     1
102
RTVSPost2010Prop43
 90
        3
102
RTVSPost2010PropOp43
 70
     1
102
RTVSPost2010Prop44ColorIndex
 90
        5
102
RTVSPost2010Prop44ColorRGB
 90
      255
102
RTVSPost2010PropOp44
 70
     1
102
RTVSPost2010Prop45
280
     0
102
RTVSPost2010PropOp45
 70
     1
102
RTVSPost2010Prop46
 90
       50
102
RTVSPost2010PropOp46
 70
     1
102
RTVSPost2010Prop47
 90
       50
102
RTVSPost2010PropOp47
 70
     1
102
RTVSPost2010Prop48
 90
       50
102
RTVSPost2010PropOp48
 70
     1
102
RTVSPost2010Prop49
280
     0
102
RTVSPost2010PropOp49
 70
     1
102
RTVSPost2010Prop50
 90
       50
102
RTVSPost2010PropOp50
 70
     1
102
RTVSPost2010Prop51ColorIndex
 90
      256
102
RTVSPost2010Prop51ColorRGB
 90
-16777216
102
RTVSPost2010PropOp51
 70
     0
102
RTVSPost2010Prop52
140
1.0
102
RTVSPost2010PropOp52
 70
     0
102
RTVSPost2010Prop53
 90
        2
102
RTVSPost2010PropOp53
 70
     1
102
RTVSPost2010Prop54
  1
strokes_ogs.tif
102
RTVSPost2010PropOp54
 70
     1
102
RTVSPost2010Prop55
280
     0
102
RTVSPost2010PropOp55
 70
     1
102
RTVSPost2010Prop56
140
1.0
102
RTVSPost2010PropOp56
 70
     1
102
RTVSPost2010Prop57
140
1.0
102
RTVSPost2010PropOp57
 70
     1
  0
XRECORD
  5
2C9
102
{ACAD_REACTORS
330
2C8
102
}
330
2C8
100
AcDbXrecord
280
     1
102
RTVSPropertyOp0
 70
     1
102
RTVSPropertyOp1
 70
     1
102
RTVSPropertyOp2
 70
     1
102
RTVSPropertyOp3
 70
     1
102
RTVSPropertyOp4
 70
     1
102
RTVSPropertyOp5
 70
     1
102
RTVSPropertyOp6
 70
     1
102
RTVSPropertyOp7
 70
     1
102
RTVSPropertyOp8
 70
     1
102
RTVSPropertyOp9
 70
     1
102
RTVSPropertyOp10
 70
     1
102
RTVSPropertyOp11
 70
     1
102
RTVSPropertyOp12
 70
     1
102
RTVSPropertyOp13
 70
     1
102
RTVSPropertyOp14
 70
     1
102
RTVSPropertyOp15
 70
     1
102
RTVSPropertyOp16
 70
     1
102
RTVSPropertyOp17
 70
     1
102
RTVSPropertyOp18
 70
     1
102
RTVSPropertyOp19
 70
     1
102
RTVSPropertyOp20
 70
     1
102
RTVSPropertyOp21
 70
     1
102
RTVSPropertyOp22
 70
     1
102
RTVSPropertyOp23
 70
     1
102
RTVSPropertyOp24
 70
     1
102
RTVSPropertyOp25
 70
     1
102
RTVSPropertyOp26
 70
     1
102
RTVSPropertyOp27
 70
     1
102
RTVSPropertyOp28
 70
     1
102
RTVSPropertyOp29
 70
     1
102
RTVSPropertyOp30
 70
     1
102
RTVSPropertyOp31
 70
     1
102
RTVSPropertyOp32
 70
     1
102
RTVSPropertyOp33
 70
     1
102
RTVSPropertyOp34
 70
     1
102
RTVSPropertyOp35
 70
     1
102
RTVSPropertyOp36
 70
     1
102
RTVSPropertyOp37
 70
     1
102
RTVSPropertyOp38
 70
     1
102
RTVSPropertyOp39
 70
     1
102
RTVSPropertyOp40
 70
     1
102
RTVSPropertyOp41
 70
     1
102
RTVSPropertyOp42
 70
     1
102
RTVSPropertyOp43
 70
     1
102
RTVSPropertyOp44
 70
     1
102
RTVSPropertyOp45
 70
     1
102
RTVSPropertyOp46
 70
     1
102
RTVSPropertyOp47
 70
     1
102
RTVSPropertyOp48
 70
     1
102
RTVSPropertyOp49
 70
     1
102
RTVSPropertyOp50
 70
     1
102
RTVSPropertyOp51
 70
     0
102
RTVSPropertyOp52
 70
     0
102
RTVSPropertyOp53
 70
     1
102
RTVSPropertyOp54
 70
     1
102
RTVSPropertyOp55
 70
     1
102
RTVSPropertyOp56
 70
     1
102
RTVSPropertyOp57
 70
     1
102
RTVSPost2010Prop28
280
     0
102
RTVSPost2010PropOp28
 70
     1
102
RTVSPost2010Prop29
280
     1
102
RTVSPost2010PropOp29
 70
     1
102
RTVSPost2010Prop30
280
     1
102
RTVSPost2010PropOp30
 70
     1
102
RTVSPost2010Prop31
280
     0
102
RTVSPost2010PropOp31
 70
     1
102
RTVSPost2010Prop32
280
     0
102
RTVSPost2010PropOp32
 70
     1
102
RTVSPost2010Prop33
280
     0
102
RTVSPost2010PropOp33
 70
     1
102
RTVSPost2010Prop34
280
     0
102
RTVSPost2010PropOp34
 70
     1
102
RTVSPost2010Prop35
280
     0
102
RTVSPost2010PropOp35
 70
     1
102
RTVSPost2010Prop36
280
     0
102
RTVSPost2010PropOp36
 70
     1
102
RTVSPost2010Prop37
 90
       50
102
RTVSPost2010PropOp37
 70
     1
102
RTVSPost2010Prop38
140
0.0
102
RTVSPost2010PropOp38
 70
     1
102
RTVSPost2010Prop39
140
1.0
102
RTVSPost2010PropOp39
 70
     1
102
RTVSPost2010Prop40
 90
        0
102
RTVSPost2010PropOp40
 70
     1
102
RTVSPost2010Prop41ColorIndex
 90
       18
102
RTVSPost2010Prop41ColorRGB
 90
        0
102
RTVSPost2010PropOp41
 70
     1
102
RTVSPost2010Prop42
 90
       50
102
RTVSPost2010PropOp42
 70
     1
102
RTVSPost2010Prop43
 90
        3
102
RTVSPost2010PropOp43
 70
     1
102
RTVSPost2010Prop44ColorIndex
 90
        5
102
RTVSPost2010Prop44ColorRGB
 90
      255
102
RTVSPost2010PropOp44
 70
     1
102
RTVSPost2010Prop45
280
     0
102
RTVSPost2010PropOp45
 70
     1
102
RTVSPost2010Prop46
 90
       50
102
RTVSPost2010PropOp46
 70
     1
102
RTVSPost2010Prop47
 90
       50
102
RTVSPost2010PropOp47
 70
     1
102
RTVSPost2010Prop48
 90
       50
102
RTVSPost2010PropOp48
 70
     1
102
RTVSPost2010Prop49
280
     0
102
RTVSPost2010PropOp49
 70
     1
102
RTVSPost2010Prop50
 90
       50
102
RTVSPost2010PropOp50
 70
     1
102
RTVSPost2010Prop51ColorIndex
 90
      256
102
RTVSPost2010Prop51ColorRGB
 90
-16777216
102
RTVSPost2010PropOp51
 70
     0
102
RTVSPost2010Prop52
140
1.0
102
RTVSPost2010PropOp52
 70
     0
102
RTVSPost2010Prop53
 90
        2
102
RTVSPost2010PropOp53
 70
     1
102
RTVSPost2010Prop54
  1
strokes_ogs.tif
102
RTVSPost2010PropOp54
 70
     1
102
RTVSPost2010Prop55
280
     0
102
RTVSPost2010PropOp55
 70
     1
102
RTVSPost2010Prop56
140
1.0
102
RTVSPost2010PropOp56
 70
     1
102
RTVSPost2010Prop57
140
1.0
102
RTVSPost2010PropOp57
 70
     1
  0
ENDSEC
  0
EOF
