  0
SECTION
  2
HEADER
  9
$ACADVER
  1
AC1015
  9
$ACADMAINTVER
 70
     6
  9
$DWGCODEPAGE
  3
ANSI_932
  9
$INSBASE
 10
0.0
 20
0.0
 30
0.0
  9
$EXTMIN
 10
-769.1545879036601
 20
-288.3341572859389
 30
0.0
  9
$EXTMAX
 10
743.7503202676196
 20
399.1405036242331
 30
0.0
  9
$LIMMIN
 10
-315.0
 20
-222.75
  9
$LIMMAX
 10
315.0
 20
222.75
  9
$ORTHOMODE
 70
     0
  9
$REGENMODE
 70
     1
  9
$FILLMODE
 70
     1
  9
$QTEXTMODE
 70
     0
  9
$MIRRTEXT
 70
     1
  9
$LTSCALE
 40
0.375
  9
$ATTMODE
 70
     1
  9
$TEXTSIZE
 40
0.2
  9
$TRACEWID
 40
0.05
  9
$TEXTSTYLE
  7
Standard
  9
$CLAYER
  8
0
  9
$CELTYPE
  6
ByLayer
  9
$CECOLOR
 62
   256
  9
$CELTSCALE
 40
1.0
  9
$DISPSILH
 70
     0
  9
$DIMSCALE
 40
1.0
  9
$DIMASZ
 40
2.249998927116394
  9
$DIMEXO
 40
1.0
  9
$DIMDLI
 40
10.0
  9
$DIMRND
 40
0.0
  9
$DIMDLE
 40
0.0
  9
$DIMEXE
 40
1.0
  9
$DIMTP
 40
0.0
  9
$DIMTM
 40
0.0
  9
$DIMTXT
 40
4.5
  9
$DIMCEN
 40
0.0
  9
$DIMTSZ
 40
0.0
  9
$DIMTOL
 70
     0
  9
$DIMLIM
 70
     0
  9
$DIMTIH
 70
     0
  9
$DIMTOH
 70
     0
  9
$DIMSE1
 70
     0
  9
$DIMSE2
 70
     0
  9
$DIMTAD
 70
     1
  9
$DIMZIN
 70
     8
  9
$DIMBLK
  1

  9
$DIMASO
 70
     1
  9
$DIMSHO
 70
     1
  9
$DIMPOST
  1

  9
$DIMAPOST
  1

  9
$DIMALT
 70
     0
  9
$DIMALTD
 70
     2
  9
$DIMALTF
 40
0.0393700787401575
  9
$DIMLFAC
 40
1.0
  9
$DIMTOFL
 70
     0
  9
$DIMTVP
 40
0.0
  9
$DIMTIX
 70
     0
  9
$DIMSOXD
 70
     0
  9
$DIMSAH
 70
     0
  9
$DIMBLK1
  1

  9
$DIMBLK2
  1

  9
$DIMSTYLE
  2
Standard
  9
$DIMCLRD
 70
     0
  9
$DIMCLRE
 70
     0
  9
$DIMCLRT
 70
     0
  9
$DIMTFAC
 40
0.65
  9
$DIMGAP
 40
0.09
  9
$DIMJUST
 70
     0
  9
$DIMSD1
 70
     0
  9
$DIMSD2
 70
     0
  9
$DIMTOLJ
 70
     0
  9
$DIMTZIN
 70
     0
  9
$DIMALTZ
 70
     0
  9
$DIMALTTZ
 70
     0
  9
$DIMUPT
 70
     0
  9
$DIMDEC
 70
     2
  9
$DIMTDEC
 70
     2
  9
$DIMALTU
 70
     2
  9
$DIMALTTD
 70
     2
  9
$DIMTXSTY
  7
Standard
  9
$DIMAUNIT
 70
     0
  9
$DIMADEC
 70
     2
  9
$DIMALTRND
 40
0.0
  9
$DIMAZIN
 70
     2
  9
$DIMDSEP
 70
    46
  9
$DIMATFIT
 70
     3
  9
$DIMFRAC
 70
     0
  9
$DIMLDRBLK
  1

  9
$DIMLUNIT
 70
     2
  9
$DIMLWD
 70
    -2
  9
$DIMLWE
 70
    -2
  9
$DIMTMOVE
 70
     0
  9
$LUNITS
 70
     2
  9
$LUPREC
 70
     4
  9
$SKETCHINC
 40
0.1
  9
$FILLETRAD
 40
0.5
  9
$AUNITS
 70
     0
  9
$AUPREC
 70
     0
  9
$MENU
  1
.
  9
$ELEVATION
 40
0.0
  9
$PELEVATION
 40
0.0
  9
$THICKNESS
 40
0.0
  9
$LIMCHECK
 70
     0
  9
$CHAMFERA
 40
0.0
  9
$CHAMFERB
 40
0.0
  9
$CHAMFERC
 40
0.0
  9
$CHAMFERD
 40
0.0
  9
$SKPOLY
 70
     0
  9
$TDCREATE
 40
2459926.425321261
  9
$TDUCREATE
 40
2459926.050321261
  9
$TDUPDATE
 40
2459926.425321736
  9
$TDUUPDATE
 40
2459926.050321736
  9
$TDINDWG
 40
0.0000000116
  9
$TDUSRTIMER
 40
0.0000000116
  9
$USRTIMER
 70
     1
  9
$ANGBASE
 50
0.0
  9
$ANGDIR
 70
     0
  9
$PDMODE
 70
     0
  9
$PDSIZE
 40
1.0
  9
$PLINEWID
 40
0.0
  9
$SPLFRAME
 70
     0
  9
$SPLINETYPE
 70
     6
  9
$SPLINESEGS
 70
     8
  9
$HANDSEED
  5
2D1
  9
$SURFTAB1
 70
     6
  9
$SURFTAB2
 70
     6
  9
$SURFTYPE
 70
     6
  9
$SURFU
 70
     6
  9
$SURFV
 70
     6
  9
$UCSBASE
  2

  9
$UCSNAME
  2

  9
$UCSORG
 10
0.0
 20
0.0
 30
0.0
  9
$UCSXDIR
 10
1.0
 20
0.0
 30
0.0
  9
$UCSYDIR
 10
0.0
 20
1.0
 30
0.0
  9
$UCSORTHOREF
  2

  9
$UCSORTHOVIEW
 70
     0
  9
$UCSORGTOP
 10
0.0
 20
0.0
 30
0.0
  9
$UCSORGBOTTOM
 10
0.0
 20
0.0
 30
0.0
  9
$UCSORGLEFT
 10
0.0
 20
0.0
 30
0.0
  9
$UCSORGRIGHT
 10
0.0
 20
0.0
 30
0.0
  9
$UCSORGFRONT
 10
0.0
 20
0.0
 30
0.0
  9
$UCSORGBACK
 10
0.0
 20
0.0
 30
0.0
  9
$PUCSBASE
  2

  9
$PUCSNAME
  2

  9
$PUCSORG
 10
0.0
 20
0.0
 30
0.0
  9
$PUCSXDIR
 10
1.0
 20
0.0
 30
0.0
  9
$PUCSYDIR
 10
0.0
 20
1.0
 30
0.0
  9
$PUCSORTHOREF
  2

  9
$PUCSORTHOVIEW
 70
     0
  9
$PUCSORGTOP
 10
0.0
 20
0.0
 30
0.0
  9
$PUCSORGBOTTOM
 10
0.0
 20
0.0
 30
0.0
  9
$PUCSORGLEFT
 10
0.0
 20
0.0
 30
0.0
  9
$PUCSORGRIGHT
 10
0.0
 20
0.0
 30
0.0
  9
$PUCSORGFRONT
 10
0.0
 20
0.0
 30
0.0
  9
$PUCSORGBACK
 10
0.0
 20
0.0
 30
0.0
  9
$USERI1
 70
     0
  9
$USERI2
 70
     0
  9
$USERI3
 70
     0
  9
$USERI4
 70
     0
  9
$USERI5
 70
     0
  9
$USERR1
 40
0.0
  9
$USERR2
 40
0.0
  9
$USERR3
 40
0.0
  9
$USERR4
 40
0.0
  9
$USERR5
 40
0.0
  9
$WORLDVIEW
 70
     1
  9
$SHADEDGE
 70
     3
  9
$SHADEDIF
 70
    70
  9
$TILEMODE
 70
     1
  9
$MAXACTVP
 70
    64
  9
$PINSBASE
 10
0.0
 20
0.0
 30
0.0
  9
$PLIMCHECK
 70
     0
  9
$PEXTMIN
 10
1.000000000000000E+20
 20
1.000000000000000E+20
 30
1.000000000000000E+20
  9
$PEXTMAX
 10
-1.000000000000000E+20
 20
-1.000000000000000E+20
 30
-1.000000000000000E+20
  9
$PLIMMIN
 10
0.0
 20
0.0
  9
$PLIMMAX
 10
12.0
 20
9.0
  9
$UNITMODE
 70
     0
  9
$VISRETAIN
 70
     0
  9
$PLINEGEN
 70
     1
  9
$PSLTSCALE
 70
     0
  9
$TREEDEPTH
 70
  3020
  9
$CMLSTYLE
  2
Standard
  9
$CMLJUST
 70
     0
  9
$CMLSCALE
 40
1.0
  9
$PROXYGRAPHICS
 70
     0
  9
$MEASUREMENT
 70
     1
  9
$CELWEIGHT
370
    -1
  9
$ENDCAPS
280
     0
  9
$JOINSTYLE
280
     0
  9
$LWDISPLAY
290
     1
  9
$INSUNITS
 70
     4
  9
$HYPERLINKBASE
  1

  9
$STYLESHEET
  1

  9
$XEDIT
290
     1
  9
$CEPSNTYPE
380
     0
  9
$PSTYLEMODE
290
     1
  9
$FINGERPRINTGUID
  2
{af48f071-dc8e-4401-84f9-f59ac0c7747a}
  9
$VERSIONGUID
  2
{FAEB1C32-E019-11D5-929B-00C0DF256EC4}
  9
$EXTNAMES
290
     1
  9
$PSVPSCALE
 40
0.0
  9
$OLESTARTUP
290
     0
  0
ENDSEC
  0
SECTION
  2
CLASSES
  0
CLASS
  1
ACDBDICTIONARYWDFLT
  2
AcDbDictionaryWithDefault
  3
ObjectDBX Classes
 90
        0
280
     0
281
     0
  0
CLASS
  1
VISUALSTYLE
  2
AcDbVisualStyle
  3
ObjectDBX Classes
 90
     4095
280
     0
281
     0
  0
CLASS
  1
MATERIAL
  2
AcDbMaterial
  3
ObjectDBX Classes
 90
     1153
280
     0
281
     0
  0
CLASS
  1
SCALE
  2
AcDbScale
  3
ObjectDBX Classes
 90
     1153
280
     0
281
     0
  0
CLASS
  1
TABLESTYLE
  2
AcDbTableStyle
  3
ObjectDBX Classes
 90
     4095
280
     0
281
     0
  0
CLASS
  1
MLEADERSTYLE
  2
AcDbMLeaderStyle
  3
ACDB_MLEADERSTYLE_CLASS
 90
     4095
280
     0
281
     0
  0
CLASS
  1
SUN
  2
AcDbSun
  3
SCENEOE
 90
     1153
280
     0
281
     0
  0
CLASS
  1
DICTIONARYVAR
  2
AcDbDictionaryVar
  3
ObjectDBX Classes
 90
        0
280
     0
281
     0
  0
CLASS
  1
ACDBPLACEHOLDER
  2
AcDbPlaceHolder
  3
ObjectDBX Classes
 90
        0
280
     0
281
     0
  0
CLASS
  1
LAYOUT
  2
AcDbLayout
  3
ObjectDBX Classes
 90
        0
280
     0
281
     0
  0
ENDSEC
  0
SECTION
  2
TABLES
  0
TABLE
  2
VPORT
  5
8
102
{ACAD_XDICTIONARY
360
294
102
}
330
0
100
AcDbSymbolTable
 70
     1
  0
VPORT
  5
29
330
8
100
AcDbSymbolTableRecord
100
AcDbViewportTableRecord
  2
*Active
 70
     0
 10
0.0
 20
0.0
 11
1.0
 21
1.0
 12
-12.70213381802026
 22
63.10757209665628
 13
0.0
 23
0.0
 14
0.5
 24
0.5
 15
0.5
 25
0.5
 16
0.0
 26
0.0
 36
1.0
 17
0.0
 27
0.0
 37
0.0
 40
218.0244108973397
 41
2.359312274534445
 42
50.0
 43
0.0
 44
0.0
 50
0.0
 51
0.0
 71
     0
 72
  1000
 73
     1
 74
     1
 75
     0
 76
     0
 77
     0
 78
     0
281
     0
 65
     1
110
0.0
120
0.0
130
0.0
111
1.0
121
0.0
131
0.0
112
0.0
122
1.0
132
0.0
 79
     0
146
0.0
  0
ENDTAB
  0
TABLE
  2
LTYPE
  5
5
330
0
100
AcDbSymbolTable
 70
    67
  0
LTYPE
  5
14
330
5
100
AcDbSymbolTableRecord
100
AcDbLinetypeTableRecord
  2
ByBlock
 70
     0
  3

 72
    65
 73
     0
 40
0.0
  0
LTYPE
  5
15
330
5
100
AcDbSymbolTableRecord
100
AcDbLinetypeTableRecord
  2
ByLayer
 70
     0
  3

 72
    65
 73
     0
 40
0.0
  0
LTYPE
  5
16
330
5
100
AcDbSymbolTableRecord
100
AcDbLinetypeTableRecord
  2
Continuous
 70
     0
  3
Solid line
 72
    65
 73
     0
 40
0.0
  0
LTYPE
  5
6F
330
5
100
AcDbSymbolTableRecord
100
AcDbLinetypeTableRecord
  2
HIDDENX2
 70
     0
  3
Hidden (2x) ____ ____ ____ ____ ____ ____ ____ 
 72
    65
 73
     2
 40
19.05
 49
12.7
 74
     0
 49
-6.35
 74
     0
  0
LTYPE
  5
70
330
5
100
AcDbSymbolTableRecord
100
AcDbLinetypeTableRecord
  2
HIDDEN
 70
     0
  3
Hidden __ __ __ __ __ __ __ __ __ __ __ __ __ __
 72
    65
 73
     2
 40
9.524999999999999
 49
6.35
 74
     0
 49
-3.175
 74
     0
  0
LTYPE
  5
71
330
5
100
AcDbSymbolTableRecord
100
AcDbLinetypeTableRecord
  2
HIDDEN2
 70
     0
  3
Hidden (.5x) _ _ _ _ _ _ _ _ _ _ _ _ _ _ _ _ _ 
 72
    65
 73
     2
 40
4.762499999999999
 49
3.175
 74
     0
 49
-1.5875
 74
     0
  0
LTYPE
  5
72
330
5
100
AcDbSymbolTableRecord
100
AcDbLinetypeTableRecord
  2
DASHED
 70
     0
  3
Dashed __ __ __ __ __ __ __ __ __ __ __ __ __ _
 72
    65
 73
     2
 40
19.05
 49
12.7
 74
     0
 49
-6.35
 74
     0
  0
LTYPE
  5
73
330
5
100
AcDbSymbolTableRecord
100
AcDbLinetypeTableRecord
  2
DASHED2
 70
     0
  3
Dashed (.5x) _ _ _ _ _ _ _ _ _ _ _ _ _ _ _ _ _ 
 72
    65
 73
     2
 40
9.524999999999999
 49
6.35
 74
     0
 49
-3.175
 74
     0
  0
LTYPE
  5
74
330
5
100
AcDbSymbolTableRecord
100
AcDbLinetypeTableRecord
  2
DASHEDX2
 70
     0
  3
Dashed (2x) ____  ____  ____  ____  ____  ___
 72
    65
 73
     2
 40
38.09999999999999
 49
25.4
 74
     0
 49
-12.7
 74
     0
  0
LTYPE
  5
75
330
5
100
AcDbSymbolTableRecord
100
AcDbLinetypeTableRecord
  2
DOTX2
 70
     0
  3
Dot (2x) .  .  .  .  .  .  .  .  .  .  .  .  .  .
 72
    65
 73
     2
 40
12.7
 49
0.0
 74
     0
 49
-12.7
 74
     0
  0
LTYPE
  5
76
330
5
100
AcDbSymbolTableRecord
100
AcDbLinetypeTableRecord
  2
DOT
 70
     0
  3
Dot . . . . . . . . . . . . . . . . . . . . . . . .
 72
    65
 73
     2
 40
6.35
 49
0.0
 74
     0
 49
-6.35
 74
     0
  0
LTYPE
  5
77
330
5
100
AcDbSymbolTableRecord
100
AcDbLinetypeTableRecord
  2
DOT2
 70
     0
  3
Dot (.5x) ........................................
 72
    65
 73
     2
 40
3.175
 49
0.0
 74
     0
 49
-3.175
 74
     0
  0
LTYPE
  5
78
330
5
100
AcDbSymbolTableRecord
100
AcDbLinetypeTableRecord
  2
CENTERX2
 70
     0
  3
Center (2x) ________  __  ________  __  _____
 72
    65
 73
     4
 40
101.6
 49
63.5
 74
     0
 49
-12.7
 74
     0
 49
12.7
 74
     0
 49
-12.7
 74
     0
  0
LTYPE
  5
79
330
5
100
AcDbSymbolTableRecord
100
AcDbLinetypeTableRecord
  2
CENTER
 70
     0
  3
Center ____ _ ____ _ ____ _ ____ _ ____ _ ____
 72
    65
 73
     4
 40
50.8
 49
31.75
 74
     0
 49
-6.35
 74
     0
 49
6.35
 74
     0
 49
-6.35
 74
     0
  0
LTYPE
  5
7A
330
5
100
AcDbSymbolTableRecord
100
AcDbLinetypeTableRecord
  2
CENTER2
 70
     0
  3
Center (.5x) ___ _ ___ _ ___ _ ___ _ ___ _ ___
 72
    65
 73
     4
 40
28.575
 49
19.05
 74
     0
 49
-3.175
 74
     0
 49
3.175
 74
     0
 49
-3.175
 74
     0
  0
LTYPE
  5
7B
330
5
100
AcDbSymbolTableRecord
100
AcDbLinetypeTableRecord
  2
DASHDOTX2
 70
     0
  3
Dash dot (2x) ____  .  ____  .  ____  .  ___
 72
    65
 73
     4
 40
50.8
 49
25.4
 74
     0
 49
-12.7
 74
     0
 49
0.0
 74
     0
 49
-12.7
 74
     0
  0
LTYPE
  5
7C
330
5
100
AcDbSymbolTableRecord
100
AcDbLinetypeTableRecord
  2
DASHDOT
 70
     0
  3
Dash dot __ . __ . __ . __ . __ . __ . __ . __
 72
    65
 73
     4
 40
25.4
 49
12.7
 74
     0
 49
-6.35
 74
     0
 49
0.0
 74
     0
 49
-6.35
 74
     0
  0
LTYPE
  5
7D
330
5
100
AcDbSymbolTableRecord
100
AcDbLinetypeTableRecord
  2
DASHDOT2
 70
     0
  3
Dash dot (.5x) _._._._._._._._._._._._._._._.
 72
    65
 73
     4
 40
12.7
 49
6.35
 74
     0
 49
-3.175
 74
     0
 49
0.0
 74
     0
 49
-3.175
 74
     0
  0
LTYPE
  5
7E
330
5
100
AcDbSymbolTableRecord
100
AcDbLinetypeTableRecord
  2
DIVIDEX2
 70
     0
  3
Divide (2x) ________  .  .  ________  .  .  _
 72
    65
 73
     6
 40
63.5
 49
25.4
 74
     0
 49
-12.7
 74
     0
 49
0.0
 74
     0
 49
-12.7
 74
     0
 49
0.0
 74
     0
 49
-12.7
 74
     0
  0
LTYPE
  5
7F
330
5
100
AcDbSymbolTableRecord
100
AcDbLinetypeTableRecord
  2
DIVIDE
 70
     0
  3
Divide ____ . . ____ . . ____ . . ____ . . ____
 72
    65
 73
     6
 40
31.75
 49
12.7
 74
     0
 49
-6.35
 74
     0
 49
0.0
 74
     0
 49
-6.35
 74
     0
 49
0.0
 74
     0
 49
-6.35
 74
     0
  0
LTYPE
  5
80
330
5
100
AcDbSymbolTableRecord
100
AcDbLinetypeTableRecord
  2
DIVIDE2
 70
     0
  3
Divide (.5x) __..__..__..__..__..__..__..__.._
 72
    65
 73
     6
 40
15.875
 49
6.35
 74
     0
 49
-3.175
 74
     0
 49
0.0
 74
     0
 49
-3.175
 74
     0
 49
0.0
 74
     0
 49
-3.175
 74
     0
  0
LTYPE
  5
81
330
5
100
AcDbSymbolTableRecord
100
AcDbLinetypeTableRecord
  2
BORDERX2
 70
     0
  3
Border (2x) ____  ____  .  ____  ____  .  ___
 72
    65
 73
     6
 40
88.89999999999999
 49
25.4
 74
     0
 49
-12.7
 74
     0
 49
25.4
 74
     0
 49
-12.7
 74
     0
 49
0.0
 74
     0
 49
-12.7
 74
     0
  0
LTYPE
  5
82
330
5
100
AcDbSymbolTableRecord
100
AcDbLinetypeTableRecord
  2
BORDER
 70
     0
  3
Border __ __ . __ __ . __ __ . __ __ . __ __ .
 72
    65
 73
     6
 40
44.45
 49
12.7
 74
     0
 49
-6.35
 74
     0
 49
12.7
 74
     0
 49
-6.35
 74
     0
 49
0.0
 74
     0
 49
-6.35
 74
     0
  0
LTYPE
  5
83
330
5
100
AcDbSymbolTableRecord
100
AcDbLinetypeTableRecord
  2
BORDER2
 70
     0
  3
Border (.5x) __.__.__.__.__.__.__.__.__.__.__.
 72
    65
 73
     6
 40
22.225
 49
6.35
 74
     0
 49
-3.175
 74
     0
 49
6.35
 74
     0
 49
-3.175
 74
     0
 49
0.0
 74
     0
 49
-3.175
 74
     0
  0
LTYPE
  5
84
330
5
100
AcDbSymbolTableRecord
100
AcDbLinetypeTableRecord
  2
PHANTOMX2
 70
     0
  3
Phantom (2x) ____________    ____    ____   _
 72
    65
 73
     6
 40
127.0
 49
63.5
 74
     0
 49
-12.7
 74
     0
 49
12.7
 74
     0
 49
-12.7
 74
     0
 49
12.7
 74
     0
 49
-12.7
 74
     0
  0
LTYPE
  5
85
330
5
100
AcDbSymbolTableRecord
100
AcDbLinetypeTableRecord
  2
PHANTOM
 70
     0
  3
Phantom ______  __  __  ______  __  __  ______ 
 72
    65
 73
     6
 40
63.5
 49
31.75
 74
     0
 49
-6.35
 74
     0
 49
6.35
 74
     0
 49
-6.35
 74
     0
 49
6.35
 74
     0
 49
-6.35
 74
     0
  0
LTYPE
  5
86
330
5
100
AcDbSymbolTableRecord
100
AcDbLinetypeTableRecord
  2
PHANTOM2
 70
     0
  3
Phantom (.5x) ___ _ _ ___ _ _ ___ _ _ ___ _ _
 72
    65
 73
     6
 40
31.75
 49
15.875
 74
     0
 49
-3.175
 74
     0
 49
3.175
 74
     0
 49
-3.175
 74
     0
 49
3.175
 74
     0
 49
-3.175
 74
     0
  0
LTYPE
  5
87
330
5
100
AcDbSymbolTableRecord
100
AcDbLinetypeTableRecord
  2
ACAD_ISO06W100
 70
     0
  3
ISO long-dash triple-dot ____ ... ____ ... ____
 72
    65
 73
     8
 40
36.0
 49
24.0
 74
     0
 49
-3.0
 74
     0
 49
0.0
 74
     0
 49
-3.0
 74
     0
 49
0.0
 74
     0
 49
-3.0
 74
     0
 49
0.0
 74
     0
 49
-3.0
 74
     0
  0
LTYPE
  5
88
330
5
100
AcDbSymbolTableRecord
100
AcDbLinetypeTableRecord
  2
ACAD_ISO13W100
 70
     0
  3
ISO double-dash double-dot __ __ . . __ __ . . _
 72
    65
 73
     8
 40
36.0
 49
12.0
 74
     0
 49
-3.0
 74
     0
 49
12.0
 74
     0
 49
-3.0
 74
     0
 49
0.0
 74
     0
 49
-3.0
 74
     0
 49
0.0
 74
     0
 49
-3.0
 74
     0
  0
LTYPE
  5
89
330
5
100
AcDbSymbolTableRecord
100
AcDbLinetypeTableRecord
  2
ACAD_ISO14W100
 70
     0
  3
ISO dash triple-dot __ . . . __ . . . __ . . . _
 72
    65
 73
     8
 40
24.0
 49
12.0
 74
     0
 49
-3.0
 74
     0
 49
0.0
 74
     0
 49
-3.0
 74
     0
 49
0.0
 74
     0
 49
-3.0
 74
     0
 49
0.0
 74
     0
 49
-3.0
 74
     0
  0
LTYPE
  5
8A
330
5
100
AcDbSymbolTableRecord
100
AcDbLinetypeTableRecord
  2
ACAD_ISO02W100
 70
     0
  3
ISO dash __ __ __ __ __ __ __ __ __ __ __ __ __
 72
    65
 73
     2
 40
15.0
 49
12.0
 74
     0
 49
-3.0
 74
     0
  0
LTYPE
  5
8B
330
5
100
AcDbSymbolTableRecord
100
AcDbLinetypeTableRecord
  2
ACAD_ISO03W100
 70
     0
  3
ISO dash space __    __    __    __    __    __
 72
    65
 73
     2
 40
30.0
 49
12.0
 74
     0
 49
-18.0
 74
     0
  0
LTYPE
  5
8C
330
5
100
AcDbSymbolTableRecord
100
AcDbLinetypeTableRecord
  2
ACAD_ISO04W100
 70
     0
  3
ISO long-dash dot ____ . ____ . ____ . ____ . _
 72
    65
 73
     4
 40
30.0
 49
24.0
 74
     0
 49
-3.0
 74
     0
 49
0.0
 74
     0
 49
-3.0
 74
     0
  0
LTYPE
  5
8D
330
5
100
AcDbSymbolTableRecord
100
AcDbLinetypeTableRecord
  2
ACAD_ISO05W100
 70
     0
  3
ISO long-dash double-dot ____ .. ____ .. ____ . 
 72
    65
 73
     6
 40
33.0
 49
24.0
 74
     0
 49
-3.0
 74
     0
 49
0.0
 74
     0
 49
-3.0
 74
     0
 49
0.0
 74
     0
 49
-3.0
 74
     0
  0
LTYPE
  5
8E
330
5
100
AcDbSymbolTableRecord
100
AcDbLinetypeTableRecord
  2
ACAD_ISO07W100
 70
     0
  3
ISO dot . . . . . . . . . . . . . . . . . . . . 
 72
    65
 73
     2
 40
3.0
 49
0.0
 74
     0
 49
-3.0
 74
     0
  0
LTYPE
  5
8F
330
5
100
AcDbSymbolTableRecord
100
AcDbLinetypeTableRecord
  2
ACAD_ISO08W100
 70
     0
  3
ISO long-dash short-dash ____ __ ____ __ ____ _
 72
    65
 73
     4
 40
36.0
 49
24.0
 74
     0
 49
-3.0
 74
     0
 49
6.0
 74
     0
 49
-3.0
 74
     0
  0
LTYPE
  5
90
330
5
100
AcDbSymbolTableRecord
100
AcDbLinetypeTableRecord
  2
ACAD_ISO09W100
 70
     0
  3
ISO long-dash double-short-dash ____ __ __ ____
 72
    65
 73
     6
 40
45.0
 49
24.0
 74
     0
 49
-3.0
 74
     0
 49
6.0
 74
     0
 49
-3.0
 74
     0
 49
6.0
 74
     0
 49
-3.0
 74
     0
  0
LTYPE
  5
91
330
5
100
AcDbSymbolTableRecord
100
AcDbLinetypeTableRecord
  2
ACAD_ISO10W100
 70
     0
  3
ISO dash dot __ . __ . __ . __ . __ . __ . __ . 
 72
    65
 73
     4
 40
18.0
 49
12.0
 74
     0
 49
-3.0
 74
     0
 49
0.0
 74
     0
 49
-3.0
 74
     0
  0
LTYPE
  5
92
330
5
100
AcDbSymbolTableRecord
100
AcDbLinetypeTableRecord
  2
ACAD_ISO11W100
 70
     0
  3
ISO double-dash dot __ __ . __ __ . __ __ . __ _
 72
    65
 73
     6
 40
33.0
 49
12.0
 74
     0
 49
-3.0
 74
     0
 49
12.0
 74
     0
 49
-3.0
 74
     0
 49
0.0
 74
     0
 49
-3.0
 74
     0
  0
LTYPE
  5
93
330
5
100
AcDbSymbolTableRecord
100
AcDbLinetypeTableRecord
  2
ACAD_ISO12W100
 70
     0
  3
ISO dash double-dot __ . . __ . . __ . . __ . . 
 72
    65
 73
     6
 40
21.0
 49
12.0
 74
     0
 49
-3.0
 74
     0
 49
0.0
 74
     0
 49
-3.0
 74
     0
 49
0.0
 74
     0
 49
-3.0
 74
     0
  0
LTYPE
  5
94
330
5
100
AcDbSymbolTableRecord
100
AcDbLinetypeTableRecord
  2
ACAD_ISO15W100
 70
     0
  3
ISO double-dash triple-dot __ __ . . . __ __ . .
 72
    65
 73
    10
 40
39.0
 49
12.0
 74
     0
 49
-3.0
 74
     0
 49
12.0
 74
     0
 49
-3.0
 74
     0
 49
0.0
 74
     0
 49
-3.0
 74
     0
 49
0.0
 74
     0
 49
-3.0
 74
     0
 49
0.0
 74
     0
 49
-3.0
 74
     0
  0
LTYPE
  5
95
330
5
100
AcDbSymbolTableRecord
100
AcDbLinetypeTableRecord
  2
JIS_02_0.7
 70
     0
  3
HIDDEN0.75 _ _ _ _ _ _ _ _ _ _ _ _ _ _ _ _ _ 
 72
    65
 73
     2
 40
1.35
 49
0.75
 74
     0
 49
-0.6
 74
     0
  0
LTYPE
  5
96
330
5
100
AcDbSymbolTableRecord
100
AcDbLinetypeTableRecord
  2
JIS_02_1.0
 70
     0
  3
HIDDEN01 _ _ _ _ _ _ _ _ _ _ _ _ _ _ _ _ _ 
 72
    65
 73
     2
 40
2.0
 49
1.0
 74
     0
 49
-1.0
 74
     0
  0
LTYPE
  5
97
330
5
100
AcDbSymbolTableRecord
100
AcDbLinetypeTableRecord
  2
JIS_02_1.2
 70
     0
  3
HIDDEN01.25  _ _ _ _ _ _ _ _ _ _ _ _ _ _ _ _ _ 
 72
    65
 73
     2
 40
2.5
 49
1.25
 74
     0
 49
-1.25
 74
     0
  0
LTYPE
  5
98
330
5
100
AcDbSymbolTableRecord
100
AcDbLinetypeTableRecord
  2
JIS_02_2.0
 70
     0
  3
HIDDEN02 __ __ __ __ __ __ __ __ __ __ __ 
 72
    65
 73
     2
 40
3.0
 49
2.0
 74
     0
 49
-1.0
 74
     0
  0
LTYPE
  5
99
330
5
100
AcDbSymbolTableRecord
100
AcDbLinetypeTableRecord
  2
JIS_02_4.0
 70
     0
  3
HIDDEN04 ____ ____ ____ ____ ____ ____ ____ 
 72
    65
 73
     2
 40
5.5
 49
4.0
 74
     0
 49
-1.5
 74
     0
  0
LTYPE
  5
9A
330
5
100
AcDbSymbolTableRecord
100
AcDbLinetypeTableRecord
  2
JIS_08_11
 70
     0
  3
1SASEN11 ___ _ ___ _ ___ _ ___ _ ___ _ ___
 72
    65
 73
     4
 40
12.8
 49
11.0
 74
     0
 49
-0.6
 74
     0
 49
0.6
 74
     0
 49
-0.6
 74
     0
  0
LTYPE
  5
9B
330
5
100
AcDbSymbolTableRecord
100
AcDbLinetypeTableRecord
  2
JIS_08_15
 70
     0
  3
1SASEN15 ____ _ ____ _ ____ _ ____ _ ____ 
 72
    65
 73
     4
 40
17.25
 49
15.0
 74
     0
 49
-0.75
 74
     0
 49
0.75
 74
     0
 49
-0.75
 74
     0
  0
LTYPE
  5
9C
330
5
100
AcDbSymbolTableRecord
100
AcDbLinetypeTableRecord
  2
JIS_08_25
 70
     0
  3
1SASEN25 ________  __  ________  __  _____
 72
    65
 73
     4
 40
28.0
 49
25.0
 74
     0
 49
-1.125
 74
     0
 49
0.75
 74
     0
 49
-1.125
 74
     0
  0
LTYPE
  5
9D
330
5
100
AcDbSymbolTableRecord
100
AcDbLinetypeTableRecord
  2
JIS_08_37
 70
     0
  3
1SASEN37 ________  __  ________  __  _____
 72
    65
 73
     4
 40
40.5
 49
37.5
 74
     0
 49
-1.125
 74
     0
 49
0.75
 74
     0
 49
-1.125
 74
     0
  0
LTYPE
  5
9E
330
5
100
AcDbSymbolTableRecord
100
AcDbLinetypeTableRecord
  2
JIS_08_50
 70
     0
  3
1SASEN50 _______________  __  ____________
 72
    65
 73
     4
 40
53.0
 49
50.0
 74
     0
 49
-1.125
 74
     0
 49
0.75
 74
     0
 49
-1.125
 74
     0
  0
LTYPE
  5
9F
330
5
100
AcDbSymbolTableRecord
100
AcDbLinetypeTableRecord
  2
JIS_09_08
 70
     0
  3
2SASEN8 __ _ _ __ _ _ __ _ _ __ _ _ __ _ _ 
 72
    65
 73
     6
 40
10.75
 49
8.0
 74
     0
 49
-0.55
 74
     0
 49
0.55
 74
     0
 49
-0.55
 74
     0
 49
0.55
 74
     0
 49
-0.55
 74
     0
  0
LTYPE
  5
A0
330
5
100
AcDbSymbolTableRecord
100
AcDbLinetypeTableRecord
  2
JIS_09_15
 70
     0
  3
2SASEN15 ___ _ _ ___ _ _ ___ _ _ ___ _ _ ___ 
 72
    65
 73
     6
 40
18.9
 49
15.0
 74
     0
 49
-0.9
 74
     0
 49
0.6
 74
     0
 49
-0.9
 74
     0
 49
0.6
 74
     0
 49
-0.9
 74
     0
  0
LTYPE
  5
A1
330
5
100
AcDbSymbolTableRecord
100
AcDbLinetypeTableRecord
  2
JIS_09_29
 70
     0
  3
2SASEN29 ______　__  __  ______　__  __  ___
 72
    65
 73
     6
 40
34.0
 49
29.0
 74
     0
 49
-1.2
 74
     0
 49
0.7
 74
     0
 49
-1.2
 74
     0
 49
0.7
 74
     0
 49
-1.2
 74
     0
  0
LTYPE
  5
A2
330
5
100
AcDbSymbolTableRecord
100
AcDbLinetypeTableRecord
  2
JIS_09_50
 70
     0
  3
2SASEN50 ____________　__  __  _____________
 72
    65
 73
     6
 40
55.0
 49
50.0
 74
     0
 49
-1.2
 74
     0
 49
0.7
 74
     0
 49
-1.2
 74
     0
 49
0.7
 74
     0
 49
-1.2
 74
     0
  0
LTYPE
  5
A3
330
5
100
AcDbSymbolTableRecord
100
AcDbLinetypeTableRecord
  2
SXF_破線
 70
     0
  3
02 dashed -- -- -- -- -- --
 72
    65
 73
     2
 40
7.5
 49
6.0
 74
     0
 49
-1.5
 74
     0
  0
LTYPE
  5
A4
330
5
100
AcDbSymbolTableRecord
100
AcDbLinetypeTableRecord
  2
SXF_跳び破線
 70
     0
  3
03 dashed_spaced --  --  --  --
 72
    65
 73
     2
 40
12.0
 49
6.0
 74
     0
 49
-6.0
 74
     0
  0
LTYPE
  5
A5
330
5
100
AcDbSymbolTableRecord
100
AcDbLinetypeTableRecord
  2
SXF_一点長鎖線
 70
     0
  3
04 long_dashed_dotted ---- . ---- . ----
 72
    65
 73
     4
 40
15.25
 49
12.0
 74
     0
 49
-1.5
 74
     0
 49
0.25
 74
     0
 49
-1.5
 74
     0
  0
LTYPE
  5
A6
330
5
100
AcDbSymbolTableRecord
100
AcDbLinetypeTableRecord
  2
SXF_二点長鎖線
 70
     0
  3
05 long_dashed_double-dotted ---- . . ---- 
 72
    65
 73
     6
 40
17.0
 49
12.0
 74
     0
 49
-1.5
 74
     0
 49
0.25
 74
     0
 49
-1.5
 74
     0
 49
0.25
 74
     0
 49
-1.5
 74
     0
  0
LTYPE
  5
A7
330
5
100
AcDbSymbolTableRecord
100
AcDbLinetypeTableRecord
  2
SXF_三点長鎖線
 70
     0
  3
06 long_dashed_triplicate-dotted ---- ... ---- 
 72
    65
 73
     8
 40
18.75
 49
12.0
 74
     0
 49
-1.5
 74
     0
 49
0.25
 74
     0
 49
-1.5
 74
     0
 49
0.25
 74
     0
 49
-1.5
 74
     0
 49
0.25
 74
     0
 49
-1.5
 74
     0
  0
LTYPE
  5
A8
330
5
100
AcDbSymbolTableRecord
100
AcDbLinetypeTableRecord
  2
SXF_点線
 70
     0
  3
07 dotted . . . . . . . . . . . . 
 72
    65
 73
     2
 40
1.75
 49
0.25
 74
     0
 49
-1.5
 74
     0
  0
LTYPE
  5
A9
330
5
100
AcDbSymbolTableRecord
100
AcDbLinetypeTableRecord
  2
SXF_一点鎖線
 70
     0
  3
08 chain ---- - --- - --- - ---
 72
    65
 73
     4
 40
18.5
 49
12.0
 74
     0
 49
-1.5
 74
     0
 49
3.5
 74
     0
 49
-1.5
 74
     0
  0
LTYPE
  5
AA
330
5
100
AcDbSymbolTableRecord
100
AcDbLinetypeTableRecord
  2
SXF_二点鎖線
 70
     0
  3
09 chain_double_dash ---- - - ---- - - ----
 72
    65
 73
     6
 40
23.5
 49
12.0
 74
     0
 49
-1.5
 74
     0
 49
3.5
 74
     0
 49
-1.5
 74
     0
 49
3.5
 74
     0
 49
-1.5
 74
     0
  0
LTYPE
  5
AB
330
5
100
AcDbSymbolTableRecord
100
AcDbLinetypeTableRecord
  2
SXF_一点短鎖線
 70
     0
  3
10 dashed_dotted -- . -- . -- . --
 72
    65
 73
     4
 40
9.25
 49
6.0
 74
     0
 49
-1.5
 74
     0
 49
0.25
 74
     0
 49
-1.5
 74
     0
  0
LTYPE
  5
AC
330
5
100
AcDbSymbolTableRecord
100
AcDbLinetypeTableRecord
  2
SXF_一点二短鎖線
 70
     0
  3
11 double-dashed_dotted -- -- . -- --
 72
    65
 73
     6
 40
16.75
 49
6.0
 74
     0
 49
-1.5
 74
     0
 49
6.0
 74
     0
 49
-1.5
 74
     0
 49
0.25
 74
     0
 49
-1.5
 74
     0
  0
LTYPE
  5
AD
330
5
100
AcDbSymbolTableRecord
100
AcDbLinetypeTableRecord
  2
SXF_二点短鎖線
 70
     0
  3
12 dashed_double_dotted -- . . -- . . --
 72
    65
 73
     6
 40
11.0
 49
6.0
 74
     0
 49
-1.5
 74
     0
 49
0.25
 74
     0
 49
-1.5
 74
     0
 49
0.25
 74
     0
 49
-1.5
 74
     0
  0
LTYPE
  5
AE
330
5
100
AcDbSymbolTableRecord
100
AcDbLinetypeTableRecord
  2
SXF_二点二短鎖線
 70
     0
  3
13 double-dashed_double-dotted -- -- . . -- --
 72
    65
 73
     8
 40
18.5
 49
6.0
 74
     0
 49
-1.5
 74
     0
 49
6.0
 74
     0
 49
-1.5
 74
     0
 49
0.25
 74
     0
 49
-1.5
 74
     0
 49
0.25
 74
     0
 49
-1.5
 74
     0
  0
LTYPE
  5
AF
330
5
100
AcDbSymbolTableRecord
100
AcDbLinetypeTableRecord
  2
SXF_三点短鎖線
 70
     0
  3
14 dashed triplicate-dotted -- . . . -- . . . --
 72
    65
 73
     8
 40
12.75
 49
6.0
 74
     0
 49
-1.5
 74
     0
 49
0.25
 74
     0
 49
-1.5
 74
     0
 49
0.25
 74
     0
 49
-1.5
 74
     0
 49
0.25
 74
     0
 49
-1.5
 74
     0
  0
LTYPE
  5
B0
330
5
100
AcDbSymbolTableRecord
100
AcDbLinetypeTableRecord
  2
SXF_三点二短鎖線
 70
     0
  3
15 double-dashed triplicate-dotted -- -- . . . -- -- 
 72
    65
 73
    10
 40
20.25
 49
6.0
 74
     0
 49
-1.5
 74
     0
 49
6.0
 74
     0
 49
-1.5
 74
     0
 49
0.25
 74
     0
 49
-1.5
 74
     0
 49
0.25
 74
     0
 49
-1.5
 74
     0
 49
0.25
 74
     0
 49
-1.5
 74
     0
  0
ENDTAB
  0
TABLE
  2
LAYER
  5
2
330
0
100
AcDbSymbolTable
 70
     2
  0
LAYER
  5
10
330
2
100
AcDbSymbolTableRecord
100
AcDbLayerTableRecord
  2
0
 70
     0
 62
     7
  6
Continuous
370
    -3
390
F
  0
LAYER
  5
B1
330
2
100
AcDbSymbolTableRecord
100
AcDbLayerTableRecord
  2
Layer0016
 70
     0
 62
     7
  6
Continuous
370
    -3
390
F
  0
ENDTAB
  0
TABLE
  2
STYLE
  5
3
330
0
100
AcDbSymbolTable
 70
     1
  0
STYLE
  5
11
330
3
100
AcDbSymbolTableRecord
100
AcDbTextStyleTableRecord
  2
Standard
 70
     0
 40
0.0
 41
1.0
 50
0.0
 71
     0
 42
0.2
  3
txt.shx
  4
bigfont.shx
  0
ENDTAB
  0
TABLE
  2
VIEW
  5
6
330
0
100
AcDbSymbolTable
 70
     0
  0
ENDTAB
  0
TABLE
  2
UCS
  5
7
330
0
100
AcDbSymbolTable
 70
     0
  0
ENDTAB
  0
TABLE
  2
APPID
  5
9
330
0
100
AcDbSymbolTable
 70
     3
  0
APPID
  5
12
330
9
100
AcDbSymbolTableRecord
100
AcDbRegAppTableRecord
  2
ACAD
 70
     0
  0
APPID
  5
6E
330
9
100
AcDbSymbolTableRecord
100
AcDbRegAppTableRecord
  2
DaFusionOut
 70
     0
  0
APPID
  5
2CE
330
9
100
AcDbSymbolTableRecord
100
AcDbRegAppTableRecord
  2
ACAD_MLEADERVER
 70
     0
  0
ENDTAB
  0
TABLE
  2
DIMSTYLE
  5
A
330
0
100
AcDbSymbolTable
 70
     1
100
AcDbDimStyleTable
  0
DIMSTYLE
105
27
330
A
100
AcDbSymbolTableRecord
100
AcDbDimStyleTableRecord
  2
Standard
 70
     0
178
     0
340
11
  0
ENDTAB
  0
TABLE
  2
BLOCK_RECORD
  5
1
330
0
100
AcDbSymbolTable
 70
    10
  0
BLOCK_RECORD
  5
1F
330
1
100
AcDbSymbolTableRecord
100
AcDbBlockTableRecord
  2
*Model_Space
340
22
  0
BLOCK_RECORD
  5
1B
330
1
100
AcDbSymbolTableRecord
100
AcDbBlockTableRecord
  2
*Paper_Space
340
1E
  0
BLOCK_RECORD
  5
23
330
1
100
AcDbSymbolTableRecord
100
AcDbBlockTableRecord
  2
*Paper_Space0
340
26
  0
BLOCK_RECORD
  5
B3
330
1
100
AcDbSymbolTableRecord
100
AcDbBlockTableRecord
  2
DC_GROUP_HMC-50_1
340
0
102
{BLKREFS
331
243
102
}
  0
BLOCK_RECORD
  5
B6
330
1
100
AcDbSymbolTableRecord
100
AcDbBlockTableRecord
  2
DC_GROUP_HMC-50_2
340
0
102
{BLKREFS
331
244
102
}
  0
BLOCK_RECORD
  5
B9
330
1
100
AcDbSymbolTableRecord
100
AcDbBlockTableRecord
  2
DC_GROUP_HMC-50_3
340
0
102
{BLKREFS
331
27F
102
}
  0
BLOCK_RECORD
  5
BC
330
1
100
AcDbSymbolTableRecord
100
AcDbBlockTableRecord
  2
DC_GROUP_HMC-50_4
340
0
102
{BLKREFS
331
280
102
}
  0
BLOCK_RECORD
  5
BF
330
1
100
AcDbSymbolTableRecord
100
AcDbBlockTableRecord
  2
DC_GROUP_HMC-50_5
340
0
102
{BLKREFS
331
281
102
}
  0
BLOCK_RECORD
  5
C2
330
1
100
AcDbSymbolTableRecord
100
AcDbBlockTableRecord
  2
DC_GROUP_HMC-50_6
340
0
102
{BLKREFS
331
282
102
}
  0
BLOCK_RECORD
  5
C5
330
1
100
AcDbSymbolTableRecord
100
AcDbBlockTableRecord
  2
DC_GROUP_HMC-50_7
340
0
102
{BLKREFS
331
283
102
}
  0
BLOCK_RECORD
  5
C8
330
1
100
AcDbSymbolTableRecord
100
AcDbBlockTableRecord
  2
DC_GROUP_HMC-50_8
340
0
102
{BLKREFS
331
284
102
}
  0
BLOCK_RECORD
  5
CB
330
1
100
AcDbSymbolTableRecord
100
AcDbBlockTableRecord
  2
DC_GROUP_HMC-50_9
340
0
102
{BLKREFS
331
285
102
}
  0
ENDTAB
  0
ENDSEC
  0
SECTION
  2
BLOCKS
  0
BLOCK
  5
20
330
1F
100
AcDbEntity
  8
0
100
AcDbBlockBegin
  2
*Model_Space
 70
     0
 10
0.0
 20
0.0
 30
0.0
  3
*Model_Space
  1

  0
ENDBLK
  5
21
330
1F
100
AcDbEntity
  8
0
100
AcDbBlockEnd
  0
BLOCK
  5
1C
330
1B
100
AcDbEntity
 67
     1
  8
0
100
AcDbBlockBegin
  2
*Paper_Space
 70
     0
 10
0.0
 20
0.0
 30
0.0
  3
*Paper_Space
  1

  0
ENDBLK
  5
1D
330
1B
100
AcDbEntity
 67
     1
  8
0
100
AcDbBlockEnd
  0
BLOCK
  5
24
330
23
100
AcDbEntity
  8
0
100
AcDbBlockBegin
  2
*Paper_Space0
 70
     0
 10
0.0
 20
0.0
 30
0.0
  3
*Paper_Space0
  1

  0
ENDBLK
  5
25
330
23
100
AcDbEntity
  8
0
100
AcDbBlockEnd
  0
BLOCK
  5
B4
330
B3
100
AcDbEntity
  8
0
100
AcDbBlockBegin
  2
DC_GROUP_HMC-50_1
 70
     0
 10
0.0
 20
0.0
 30
0.0
  3
DC_GROUP_HMC-50_1
  1

  0
CIRCLE
  5
CE
330
B3
100
AcDbEntity
  8
Layer0016
  6
Continuous
 62
    91
370
    18
100
AcDbCircle
 10
141.6689833194775
 20
41.23286087247014
 30
0.0
 40
2.1
  0
CIRCLE
  5
CF
330
B3
100
AcDbEntity
  8
Layer0016
  6
Continuous
 62
     4
370
    18
100
AcDbCircle
 10
141.6689833194775
 20
41.23286087247014
 30
0.0
 40
2.5
  0
ENDBLK
  5
B5
330
B3
100
AcDbEntity
  8
0
100
AcDbBlockEnd
  0
BLOCK
  5
B7
330
B6
100
AcDbEntity
  8
0
100
AcDbBlockBegin
  2
DC_GROUP_HMC-50_2
 70
     0
 10
0.0
 20
0.0
 30
0.0
  3
DC_GROUP_HMC-50_2
  1

  0
CIRCLE
  5
D0
330
B6
100
AcDbEntity
  8
Layer0016
  6
Continuous
 62
    91
370
    18
100
AcDbCircle
 10
181.6689833194775
 20
41.23286087247014
 30
0.0
 40
2.1
  0
CIRCLE
  5
D1
330
B6
100
AcDbEntity
  8
Layer0016
  6
Continuous
 62
     4
370
    18
100
AcDbCircle
 10
181.6689833194775
 20
41.23286087247014
 30
0.0
 40
2.5
  0
ENDBLK
  5
B8
330
B6
100
AcDbEntity
  8
0
100
AcDbBlockEnd
  0
BLOCK
  5
BA
330
B9
100
AcDbEntity
  8
0
100
AcDbBlockBegin
  2
DC_GROUP_HMC-50_3
 70
     0
 10
0.0
 20
0.0
 30
0.0
  3
DC_GROUP_HMC-50_3
  1

  0
LINE
  5
D2
330
B9
100
AcDbEntity
  8
0
  6
DASHED2
 62
    91
370
    18
100
AcDbLine
 10
137.0048589469738
 20
58.31153087155576
 30
0.0
 11
153.6129310608196
 21
48.7228556659112
 31
0.0
  0
LINE
  5
D3
330
B9
100
AcDbEntity
  8
0
  6
DASHED2
 62
    91
370
    18
100
AcDbLine
 10
134.5463589618129
 20
54.05328395258027
 30
0.0
 11
151.1544312053842
 21
44.46460867203876
 31
0.0
  0
LINE
  5
D4
330
B9
100
AcDbEntity
  8
0
  6
DASHED2
 62
     4
370
    13
100
AcDbLine
 10
137.3184513484979
 20
58.75574855487844
 30
0.0
 11
154.0038316568075
 21
49.12243944095326
 31
0.0
  0
LINE
  5
D5
330
B9
100
AcDbEntity
  8
0
  6
DASHED2
 62
     4
370
    13
100
AcDbLine
 10
134.3184513667521
 20
53.55959612163275
 30
0.0
 11
151.0038318364487
 21
43.92628691453069
 31
0.0
  0
ENDBLK
  5
BB
330
B9
100
AcDbEntity
  8
0
100
AcDbBlockEnd
  0
BLOCK
  5
BD
330
BC
100
AcDbEntity
  8
0
100
AcDbBlockBegin
  2
DC_GROUP_HMC-50_4
 70
     0
 10
0.0
 20
0.0
 30
0.0
  3
DC_GROUP_HMC-50_4
  1

  0
LINE
  5
D6
330
BC
100
AcDbEntity
  8
0
  6
Continuous
 62
    91
370
    25
100
AcDbLine
 10
133.590663595397
 20
53.97978460048375
 30
0.0
 11
133.5929457286767
 21
54.60373735660215
 31
0.0
  0
LINE
  5
D7
330
BC
100
AcDbEntity
  8
0
  6
Continuous
 62
    91
370
    25
100
AcDbLine
 10
136.5906636657913
 20
59.17593698254825
 30
0.0
 11
136.0514457863649
 21
58.86198423370388
 31
0.0
  0
LINE
  5
D8
330
BC
100
AcDbEntity
  8
0
  6
Continuous
 62
    91
370
    25
100
AcDbLine
 10
133.5929457286767
 20
54.60373735660215
 30
0.0
 11
136.0514457863649
 21
58.86198423370388
 31
0.0
  0
LINE
  5
D9
330
BC
100
AcDbEntity
  8
0
  6
Continuous
 62
    91
370
    25
100
AcDbLine
 10
136.5906636657913
 20
59.17593698254825
 30
0.0
 11
133.590663595397
 21
53.97978460048375
 31
0.0
  0
LINE
  5
DA
330
BC
100
AcDbEntity
  8
0
  6
Continuous
 62
    91
370
    25
100
AcDbLine
 10
137.3184513484979
 20
58.75574855487844
 30
0.0
 11
136.5906636657913
 21
59.17593698254825
 31
0.0
  0
LINE
  5
DB
330
BC
100
AcDbEntity
  8
0
  6
Continuous
 62
    91
370
    25
100
AcDbLine
 10
134.3184513667521
 20
53.55959612163275
 30
0.0
 11
133.590663595397
 21
53.97978460048375
 31
0.0
  0
LINE
  5
DC
330
BC
100
AcDbEntity
  8
0
  6
DASHED2
 62
    91
370
    25
100
AcDbLine
 10
149.7766782655277
 20
44.63478438120535
 30
0.0
 11
152.776678335922
 21
49.83093676326973
 31
0.0
  0
LINE
  5
DD
330
BC
100
AcDbEntity
  8
0
  6
DASHED2
 62
    91
370
    25
100
AcDbLine
 10
149.7766782655277
 20
44.63478438120535
 30
0.0
 11
151.1427036742708
 21
45.00080976648371
 31
0.0
  0
LINE
  5
DE
330
BC
100
AcDbEntity
  8
0
  6
DASHED2
 62
    91
370
    25
100
AcDbLine
 10
152.776678335922
 20
49.83093676326973
 30
0.0
 11
153.1427037212004
 21
48.46491135452663
 31
0.0
  0
LINE
  5
DF
330
BC
100
AcDbEntity
  8
0
  6
DASHED2
 62
    91
370
    25
100
AcDbLine
 10
151.1427036742708
 20
45.00080976648371
 30
0.0
 11
153.1427037212004
 21
48.46491135452663
 31
0.0
  0
LINE
  5
E0
330
BC
100
AcDbEntity
  8
0
  6
DASHED2
 62
    91
370
    25
100
AcDbLine
 10
152.776678335922
 20
49.83093676326973
 30
0.0
 11
137.3184513484979
 21
58.75574855487844
 31
0.0
  0
LINE
  5
E1
330
BC
100
AcDbEntity
  8
0
  6
DASHED2
 62
    91
370
    25
100
AcDbLine
 10
134.3184513667521
 20
53.55959612163275
 30
0.0
 11
149.7766782655277
 21
44.63478438120535
 31
0.0
  0
LINE
  5
E2
330
BC
100
AcDbEntity
  8
0
  6
DASHED2
 62
     4
370
    25
100
AcDbLine
 10
137.0048589469738
 20
58.31153087155576
 30
0.0
 11
152.9748810820502
 21
49.09123400443536
 31
0.0
  0
LINE
  5
E3
330
BC
100
AcDbEntity
  8
0
  6
DASHED2
 62
     4
370
    25
100
AcDbLine
 10
134.546358961813
 20
54.05328395258027
 30
0.0
 11
150.5163810243621
 21
44.83298712733358
 31
0.0
  0
LINE
  5
E4
330
BC
100
AcDbEntity
  8
0
  6
Continuous
 62
     4
370
    25
100
AcDbLine
 10
137.0048589469738
 20
58.31153087155576
 30
0.0
 11
136.0514457863649
 21
58.86198423370388
 31
0.0
  0
LINE
  5
E5
330
BC
100
AcDbEntity
  8
0
  6
Continuous
 62
     4
370
    25
100
AcDbLine
 10
134.546358961813
 20
54.05328395258027
 30
0.0
 11
133.5929457286767
 21
54.60373735660215
 31
0.0
  0
ENDBLK
  5
BE
330
BC
100
AcDbEntity
  8
0
100
AcDbBlockEnd
  0
BLOCK
  5
C0
330
BF
100
AcDbEntity
  8
0
100
AcDbBlockBegin
  2
DC_GROUP_HMC-50_5
 70
     0
 10
0.0
 20
0.0
 30
0.0
  3
DC_GROUP_HMC-50_5
  1

  0
LINE
  5
E6
330
BF
100
AcDbEntity
  8
0
  6
DASHED2
 62
    91
370
    18
100
AcDbLine
 10
164.1274833194774
 20
27.23286087247016
 30
0.0
 11
164.1274833194774
 21
11.33376761280761
 31
0.0
  0
LINE
  5
E7
330
BF
100
AcDbEntity
  8
0
  6
DASHED2
 62
    91
370
    18
100
AcDbLine
 10
159.2104833194775
 20
27.23286087247016
 30
0.0
 11
159.2104833194775
 21
11.33376761280761
 31
0.0
  0
LINE
  5
E8
330
BF
100
AcDbEntity
  8
0
  6
DASHED2
 62
     4
370
    13
100
AcDbLine
 10
164.6689833194775
 20
27.23286087247016
 30
0.0
 11
164.6689833194775
 21
11.38323775927159
 31
0.0
  0
LINE
  5
E9
330
BF
100
AcDbEntity
  8
0
  6
DASHED2
 62
     4
370
    13
100
AcDbLine
 10
158.6689833194775
 20
27.23286087247016
 30
0.0
 11
158.6689833194775
 21
11.38323775927159
 31
0.0
  0
ENDBLK
  5
C1
330
BF
100
AcDbEntity
  8
0
100
AcDbBlockEnd
  0
BLOCK
  5
C3
330
C2
100
AcDbEntity
  8
0
100
AcDbBlockBegin
  2
DC_GROUP_HMC-50_6
 70
     0
 10
0.0
 20
0.0
 30
0.0
  3
DC_GROUP_HMC-50_6
  1

  0
LINE
  5
EA
330
C2
100
AcDbEntity
  8
0
  6
DASHED2
 62
    91
370
    25
100
AcDbLine
 10
164.6689833194775
 20
12.54286087247016
 30
0.0
 11
164.6689833194775
 21
26.23286087247016
 31
0.0
  0
LINE
  5
EB
330
C2
100
AcDbEntity
  8
0
  6
DASHED2
 62
    91
370
    25
100
AcDbLine
 10
164.6689833194775
 20
26.23286087247016
 30
0.0
 11
158.6689833194775
 21
26.23286087247016
 31
0.0
  0
LINE
  5
EC
330
C2
100
AcDbEntity
  8
0
  6
DASHED2
 62
    91
370
    25
100
AcDbLine
 10
158.6689833194775
 20
26.23286087247016
 30
0.0
 11
158.6689833194775
 21
12.54286087247016
 31
0.0
  0
LINE
  5
ED
330
C2
100
AcDbEntity
  8
0
  6
DASHED2
 62
    91
370
    25
100
AcDbLine
 10
158.6689833194775
 20
12.54286087247016
 30
0.0
 11
164.6689833194775
 21
12.54286087247016
 31
0.0
  0
LINE
  5
EE
330
C2
100
AcDbEntity
  8
0
  6
DASHED2
 62
    91
370
    25
100
AcDbLine
 10
164.6689833194775
 20
26.23286087247016
 30
0.0
 11
163.6689833194775
 21
27.23286087247016
 31
0.0
  0
LINE
  5
EF
330
C2
100
AcDbEntity
  8
0
  6
DASHED2
 62
    91
370
    25
100
AcDbLine
 10
158.6689833194775
 20
26.23286087247016
 30
0.0
 11
159.6689833194775
 21
27.23286087247016
 31
0.0
  0
LINE
  5
F0
330
C2
100
AcDbEntity
  8
0
  6
DASHED2
 62
    91
370
    25
100
AcDbLine
 10
163.6689833194775
 20
27.23286087247016
 30
0.0
 11
159.6689833194775
 21
27.23286087247016
 31
0.0
  0
LINE
  5
F1
330
C2
100
AcDbEntity
  8
0
  6
DASHED2
 62
    91
370
    25
100
AcDbLine
 10
159.2104833194775
 20
12.23286087247016
 30
0.0
 11
164.1274833194775
 21
12.23286087247016
 31
0.0
  0
LINE
  5
F2
330
C2
100
AcDbEntity
  8
0
  6
DASHED2
 62
    91
370
    25
100
AcDbLine
 10
164.6689833194775
 20
12.54286087247016
 30
0.0
 11
164.1274833194775
 21
12.23286087247016
 31
0.0
  0
LINE
  5
F3
330
C2
100
AcDbEntity
  8
0
  6
DASHED2
 62
    91
370
    25
100
AcDbLine
 10
158.6689833194775
 20
12.54286087247016
 30
0.0
 11
159.2104833194775
 21
12.23286087247016
 31
0.0
  0
LINE
  5
F4
330
C2
100
AcDbEntity
  8
0
  6
DASHED2
 62
     4
370
    25
100
AcDbLine
 10
164.1274833194775
 20
12.23286087247016
 30
0.0
 11
164.1274833194775
 21
26.77436087247014
 31
0.0
  0
LINE
  5
F5
330
C2
100
AcDbEntity
  8
0
  6
DASHED2
 62
     4
370
    25
100
AcDbLine
 10
159.2104833194775
 20
12.23286087247016
 30
0.0
 11
159.2104833194775
 21
26.77436087247014
 31
0.0
  0
ENDBLK
  5
C4
330
C2
100
AcDbEntity
  8
0
100
AcDbBlockEnd
  0
BLOCK
  5
C6
330
C5
100
AcDbEntity
  8
0
100
AcDbBlockBegin
  2
DC_GROUP_HMC-50_7
 70
     0
 10
0.0
 20
0.0
 30
0.0
  3
DC_GROUP_HMC-50_7
  1

  0
LINE
  5
F6
330
C5
100
AcDbEntity
  8
0
  6
DASHED2
 62
     4
370
    13
100
AcDbLine
 10
36.01798599590345
 20
39.16586087247015
 30
0.0
 11
21.61798599590345
 21
39.16586087247015
 31
0.0
  0
LINE
  5
F7
330
C5
100
AcDbEntity
  8
0
  6
DASHED2
 62
     4
370
    13
100
AcDbLine
 10
36.01798599590345
 20
43.29986087247013
 30
0.0
 11
21.61798599590345
 21
43.29986087247013
 31
0.0
  0
LINE
  5
F8
330
C5
100
AcDbEntity
  8
0
  6
DASHED2
 62
     4
370
    13
100
AcDbLine
 10
21.61798599590345
 20
39.16586087247015
 30
0.0
 11
20.37600709637348
 21
41.23286087247014
 31
0.0
  0
LINE
  5
F9
330
C5
100
AcDbEntity
  8
0
  6
DASHED2
 62
     4
370
    13
100
AcDbLine
 10
21.61798599590345
 20
43.29986087247013
 30
0.0
 11
20.37600709637348
 21
41.23286087247014
 31
0.0
  0
LINE
  5
FA
330
C5
100
AcDbEntity
  8
0
  6
DASHED2
 62
     4
370
    13
100
AcDbLine
 10
21.61798599590345
 20
39.16586087247015
 30
0.0
 11
21.61798599590345
 21
43.29986087247013
 31
0.0
  0
LINE
  5
FB
330
C5
100
AcDbEntity
  8
0
  6
DASHED2
 62
     4
370
    13
100
AcDbLine
 10
36.01798599590345
 20
38.73286087247014
 30
0.0
 11
24.01798599590345
 21
38.73286087247014
 31
0.0
  0
LINE
  5
FC
330
C5
100
AcDbEntity
  8
0
  6
DASHED2
 62
     4
370
    13
100
AcDbLine
 10
24.01798599590345
 20
38.73286087247014
 30
0.0
 11
23.26800799622612
 21
39.16586087247015
 31
0.0
  0
LINE
  5
FD
330
C5
100
AcDbEntity
  8
0
  6
DASHED2
 62
     4
370
    13
100
AcDbLine
 10
36.01798599590345
 20
43.73286087247014
 30
0.0
 11
24.01798599590345
 21
43.73286087247014
 31
0.0
  0
LINE
  5
FE
330
C5
100
AcDbEntity
  8
0
  6
DASHED2
 62
     4
370
    13
100
AcDbLine
 10
24.01798599590345
 20
43.73286087247014
 30
0.0
 11
23.26800799622612
 21
43.29986087247015
 31
0.0
  0
LINE
  5
FF
330
C5
100
AcDbEntity
  8
0
  6
DASHED2
 62
     4
370
    13
100
AcDbLine
 10
24.01798599590345
 20
43.73286087247014
 30
0.0
 11
24.01798599590345
 21
38.73286087247014
 31
0.0
  0
ENDBLK
  5
C7
330
C5
100
AcDbEntity
  8
0
100
AcDbBlockEnd
  0
BLOCK
  5
C9
330
C8
100
AcDbEntity
  8
0
100
AcDbBlockBegin
  2
DC_GROUP_HMC-50_8
 70
     0
 10
0.0
 20
0.0
 30
0.0
  3
DC_GROUP_HMC-50_8
  1

  0
LINE
  5
100
330
C8
100
AcDbEntity
  8
0
  6
Continuous
 62
    91
370
    13
100
AcDbLine
 10
29.58498599590345
 20
27.23286087247016
 30
0.0
 11
29.58498599590345
 21
11.23286087247015
 31
0.0
  0
LINE
  5
101
330
C8
100
AcDbEntity
  8
0
  6
Continuous
 62
    91
370
    13
100
AcDbLine
 10
25.45098599590345
 20
27.23286087247016
 30
0.0
 11
25.45098599590345
 21
11.23286087247015
 31
0.0
  0
LINE
  5
102
330
C8
100
AcDbEntity
  8
0
  6
Continuous
 62
     4
370
    13
100
AcDbLine
 10
30.01798599590345
 20
27.23286087247016
 30
0.0
 11
30.01798599590345
 21
11.23286087247015
 31
0.0
  0
LINE
  5
103
330
C8
100
AcDbEntity
  8
0
  6
Continuous
 62
     4
370
    13
100
AcDbLine
 10
25.01798599590345
 20
27.23286087247016
 30
0.0
 11
25.01798599590345
 21
11.23286087247015
 31
0.0
  0
ENDBLK
  5
CA
330
C8
100
AcDbEntity
  8
0
100
AcDbBlockEnd
  0
BLOCK
  5
CC
330
CB
100
AcDbEntity
  8
0
100
AcDbBlockBegin
  2
DC_GROUP_HMC-50_9
 70
     0
 10
0.0
 20
0.0
 30
0.0
  3
DC_GROUP_HMC-50_9
  1

  0
LINE
  5
104
330
CB
100
AcDbEntity
  8
0
  6
Continuous
 62
    91
370
    13
100
AcDbLine
 10
30.01798599590345
 20
12.48286087247016
 30
0.0
 11
29.58498599590345
 21
12.23286087247016
 31
0.0
  0
LINE
  5
105
330
CB
100
AcDbEntity
  8
0
  6
Continuous
 62
    91
370
    13
100
AcDbLine
 10
25.01798599590345
 20
12.48286087247016
 30
0.0
 11
25.45098599590345
 21
12.23286087247016
 31
0.0
  0
LINE
  5
106
330
CB
100
AcDbEntity
  8
0
  6
Continuous
 62
    91
370
    13
100
AcDbLine
 10
29.58498599590345
 20
12.23286087247016
 30
0.0
 11
25.45098599590345
 21
12.23286087247016
 31
0.0
  0
LINE
  5
107
330
CB
100
AcDbEntity
  8
0
  6
Continuous
 62
    91
370
    13
100
AcDbLine
 10
30.01798599590345
 20
12.48286087247016
 30
0.0
 11
30.01798599590345
 21
26.43286087247015
 31
0.0
  0
LINE
  5
108
330
CB
100
AcDbEntity
  8
0
  6
Continuous
 62
    91
370
    13
100
AcDbLine
 10
30.01798599590345
 20
26.43286087247015
 30
0.0
 11
25.01798599590345
 21
26.43286087247015
 31
0.0
  0
LINE
  5
109
330
CB
100
AcDbEntity
  8
0
  6
Continuous
 62
    91
370
    13
100
AcDbLine
 10
25.01798599590345
 20
26.43286087247015
 30
0.0
 11
25.01798599590345
 21
12.48286087247016
 31
0.0
  0
LINE
  5
10A
330
CB
100
AcDbEntity
  8
0
  6
Continuous
 62
    91
370
    13
100
AcDbLine
 10
25.01798599590345
 20
12.48286087247016
 30
0.0
 11
30.01798599590345
 21
12.48286087247016
 31
0.0
  0
LINE
  5
10B
330
CB
100
AcDbEntity
  8
0
  6
Continuous
 62
    91
370
    13
100
AcDbLine
 10
30.01798599590345
 20
26.43286087247015
 30
0.0
 11
29.21798599590345
 21
27.23286087247016
 31
0.0
  0
LINE
  5
10C
330
CB
100
AcDbEntity
  8
0
  6
Continuous
 62
    91
370
    13
100
AcDbLine
 10
25.01798599590345
 20
26.43286087247015
 30
0.0
 11
25.81798599590346
 21
27.23286087247016
 31
0.0
  0
LINE
  5
10D
330
CB
100
AcDbEntity
  8
0
  6
Continuous
 62
    91
370
    13
100
AcDbLine
 10
29.21798599590345
 20
27.23286087247016
 30
0.0
 11
25.81798599590346
 21
27.23286087247016
 31
0.0
  0
LINE
  5
10E
330
CB
100
AcDbEntity
  8
0
  6
Continuous
 62
     4
370
    13
100
AcDbLine
 10
29.58498599590345
 20
12.23286087247016
 30
0.0
 11
29.58498599590345
 21
26.86586087247016
 31
0.0
  0
LINE
  5
10F
330
CB
100
AcDbEntity
  8
0
  6
Continuous
 62
     4
370
    13
100
AcDbLine
 10
25.45098599590345
 20
12.23286087247016
 30
0.0
 11
25.45098599590345
 21
26.86586087247016
 31
0.0
  0
ENDBLK
  5
CD
330
CB
100
AcDbEntity
  8
0
100
AcDbBlockEnd
  0
ENDSEC
  0
SECTION
  2
ENTITIES
  0
LINE
  5
110
330
1F
100
AcDbEntity
  8
Layer0016
  6
CENTER
 62
     4
370
    18
100
AcDbLine
 10
-118.0424639923534
 20
41.23286087247014
 30
0.0
 11
-264.8529518465669
 21
41.23286087247014
 31
0.0
  0
LINE
  5
111
330
1F
100
AcDbEntity
  8
Layer0016
  6
CENTER
 62
     4
370
    18
100
AcDbLine
 10
-190.1279437519065
 20
111.7849696194071
 30
0.0
 11
-190.1279437519065
 21
-30.23850305666364
 31
0.0
  0
LINE
  5
112
330
1F
100
AcDbEntity
  8
Layer0016
  6
CENTER
 62
     4
370
    18
100
AcDbLine
 10
102.1803934031238
 20
6.88710827216515
 30
0.0
 11
133.4509047061963
 21
24.9411452505219
 31
0.0
  0
LINE
  5
113
330
1F
100
AcDbEntity
  8
Layer0016
  6
CENTER
 62
     4
370
    18
100
AcDbLine
 10
222.0123325094272
 20
6.393611086242569
 30
0.0
 11
189.8870619327588
 21
24.9411452505219
 31
0.0
  0
LINE
  5
114
330
1F
100
AcDbEntity
  8
Layer0016
  6
CENTER
 62
     4
370
    18
100
AcDbLine
 10
239.4486842105263
 20
41.23286087247014
 30
0.0
 11
80.89999999999999
 21
41.23286087247014
 31
0.0
  0
ARC
  5
115
330
1F
100
AcDbEntity
  8
Layer0016
  6
CENTER
 62
     4
370
    18
100
AcDbCircle
 10
161.6689833194775
 20
41.23286087247014
 30
0.0
 40
20.0
100
AcDbArc
 50
170.0
 51
195.0685518486755
  0
ARC
  5
116
330
1F
100
AcDbEntity
  8
Layer0016
  6
CENTER
 62
     4
370
    18
100
AcDbCircle
 10
161.6689833194775
 20
41.23286087247014
 30
0.0
 40
20.0
100
AcDbArc
 50
350.0
 51
15.06855184867552
  0
LINE
  5
117
330
1F
100
AcDbEntity
  8
Layer0016
  6
CENTER
 62
     4
370
    18
100
AcDbLine
 10
161.6689833194775
 20
111.7849696194071
 30
0.0
 11
161.6689833194775
 21
-30.23850305666364
 31
0.0
  0
LINE
  5
118
330
1F
100
AcDbEntity
  8
Layer0016
  6
CENTER
 62
     4
370
    18
100
AcDbLine
 10
133.6109878009036
 20
57.43215205682884
 30
0.0
 11
153.8470012396682
 21
45.74888388510607
 31
0.0
  0
ARC
  5
119
330
1F
100
AcDbEntity
  8
Layer0016
  6
CENTER
 62
     4
370
    18
100
AcDbCircle
 10
161.6689833194775
 20
41.23286087247011
 30
0.0
 40
75.0
100
AcDbArc
 50
129.2484294732005
 51
140.9374151524413
  0
LINE
  5
11A
330
1F
100
AcDbEntity
  8
Layer0016
  6
CENTER
 62
     4
370
    18
100
AcDbLine
 10
103.3326738715874
 20
99.56917032036031
 30
0.0
 11
113.9392755893854
 21
88.96256860256193
 31
0.0
  0
ARC
  5
11B
330
1F
100
AcDbEntity
  8
Layer0016
  6
CENTER
 62
     4
370
    18
100
AcDbCircle
 10
161.6689833194775
 20
41.23286087247011
 30
0.0
 40
75.0
100
AcDbArc
 50
219.2484294732005
 51
230.9374151524413
  0
LINE
  5
11C
330
1F
100
AcDbEntity
  8
Layer0016
  6
CENTER
 62
     4
370
    18
100
AcDbLine
 10
103.3326738715873
 20
-17.10344857541996
 30
0.0
 11
113.9392755893857
 21
-6.496846857621918
 31
0.0
  0
ARC
  5
11D
330
1F
100
AcDbEntity
  8
Layer0016
  6
CENTER
 62
     4
370
    18
100
AcDbCircle
 10
161.6689833194775
 20
41.23286087247011
 30
0.0
 40
75.0
100
AcDbArc
 50
309.2484294732005
 51
320.9374151524413
  0
LINE
  5
11E
330
1F
100
AcDbEntity
  8
Layer0016
  6
CENTER
 62
     4
370
    18
100
AcDbLine
 10
220.0052927673676
 20
-17.10344857542005
 30
0.0
 11
209.3986910495695
 21
-6.496846857621662
 31
0.0
  0
ARC
  5
11F
330
1F
100
AcDbEntity
  8
Layer0016
  6
CENTER
 62
     4
370
    18
100
AcDbCircle
 10
161.6689833194775
 20
41.23286087247014
 30
0.0
 40
75.0
100
AcDbArc
 50
39.24842947320053
 51
50.93741515244134
  0
LINE
  5
120
330
1F
100
AcDbEntity
  8
Layer0016
  6
CENTER
 62
     4
370
    18
100
AcDbLine
 10
220.0052927673677
 20
99.56917032036024
 30
0.0
 11
209.3986910495693
 21
88.9625686025622
 31
0.0
  0
ARC
  5
121
330
1F
100
AcDbEntity
  8
Layer0016
  6
CENTER
 62
     4
370
    18
100
AcDbCircle
 10
-190.1279437519065
 20
41.23286087247011
 30
0.0
 40
75.0
100
AcDbArc
 50
129.2484294732005
 51
140.9374151524413
  0
LINE
  5
122
330
1F
100
AcDbEntity
  8
Layer0016
  6
CENTER
 62
     4
370
    18
100
AcDbLine
 10
-248.4642531997966
 20
99.56917032036031
 30
0.0
 11
-237.8576514819986
 21
88.96256860256193
 31
0.0
  0
ARC
  5
123
330
1F
100
AcDbEntity
  8
Layer0016
  6
CENTER
 62
     4
370
    18
100
AcDbCircle
 10
-190.1279437519065
 20
41.23286087247011
 30
0.0
 40
75.0
100
AcDbArc
 50
219.2484294732005
 51
230.9374151524413
  0
LINE
  5
124
330
1F
100
AcDbEntity
  8
Layer0016
  6
CENTER
 62
     4
370
    18
100
AcDbLine
 10
-248.4642531997967
 20
-17.10344857541996
 30
0.0
 11
-237.8576514819983
 21
-6.496846857621918
 31
0.0
  0
ARC
  5
125
330
1F
100
AcDbEntity
  8
Layer0016
  6
CENTER
 62
     4
370
    18
100
AcDbCircle
 10
-190.1279437519065
 20
41.23286087247011
 30
0.0
 40
75.0
100
AcDbArc
 50
309.2484294732005
 51
320.9374151524413
  0
LINE
  5
126
330
1F
100
AcDbEntity
  8
Layer0016
  6
CENTER
 62
     4
370
    18
100
AcDbLine
 10
-131.7916343040164
 20
-17.10344857542005
 30
0.0
 11
-142.3982360218145
 21
-6.496846857621662
 31
0.0
  0
ARC
  5
127
330
1F
100
AcDbEntity
  8
Layer0016
  6
CENTER
 62
     4
370
    18
100
AcDbCircle
 10
-190.1279437519065
 20
41.23286087247014
 30
0.0
 40
75.0
100
AcDbArc
 50
39.24842947320053
 51
50.93741515244134
  0
LINE
  5
128
330
1F
100
AcDbEntity
  8
Layer0016
  6
CENTER
 62
     4
370
    18
100
AcDbLine
 10
-131.7916343040163
 20
99.56917032036024
 30
0.0
 11
-142.3982360218147
 21
88.9625686025622
 31
0.0
  0
LINE
  5
129
330
1F
100
AcDbEntity
  8
Layer0016
  6
CENTER
 62
     4
370
    18
100
AcDbLine
 10
-61.83493623937596
 20
41.23286087247014
 30
0.0
 11
43.60757031844012
 21
41.23286087247014
 31
0.0
  0
LINE
  5
12A
330
1F
100
AcDbEntity
  8
Layer0016
  6
CENTER
 62
     4
370
    18
100
AcDbLine
 10
27.51798599590345
 20
29.66349935865184
 30
0.0
 11
27.51798599590345
 21
8.732860872470113
 31
0.0
  0
LINE
  5
12B
330
1F
100
AcDbEntity
  8
Layer0016
  6
CENTER
 62
     4
370
    18
100
AcDbLine
 10
37.02881216218882
 20
90.23286087247014
 30
0.0
 11
-11.86880252781163
 21
90.23286087247014
 31
0.0
  0
LINE
  5
12C
330
1F
100
AcDbEntity
  8
Layer0016
  6
CENTER
 62
     4
370
    18
100
AcDbLine
 10
-58.53885548329028
 20
-33.76713912752986
 30
0.0
 11
-46.04196982712129
 21
-33.76713912752986
 31
0.0
  0
LINE
  5
12D
330
1F
100
AcDbEntity
  8
Layer0016
  6
Continuous
 62
     4
370
    18
100
AcDbLine
 10
7.017985995903452
 20
93.4828646871674
 30
0.0
 11
-4.53200942645983
 21
93.4828646871674
 31
0.0
  0
LINE
  5
12E
330
1F
100
AcDbEntity
  8
Layer0016
  6
Continuous
 62
     4
370
    18
100
AcDbLine
 10
7.017985995903452
 20
86.98286087247014
 30
0.0
 11
-4.53200942645983
 21
86.98286087247014
 31
0.0
  0
LINE
  5
12F
330
1F
100
AcDbEntity
  8
Layer0016
  6
Continuous
 62
     4
370
    18
100
AcDbLine
 10
-3.78200942645983
 20
94.2328646871674
 30
0.0
 11
-8.982014004096548
 21
94.2328646871674
 31
0.0
  0
LINE
  5
130
330
1F
100
AcDbEntity
  8
Layer0016
  6
Continuous
 62
     4
370
    18
100
AcDbLine
 10
-3.78200942645983
 20
86.23286087247014
 30
0.0
 11
-8.982014004096548
 21
86.23286087247014
 31
0.0
  0
LINE
  5
131
330
1F
100
AcDbEntity
  8
Layer0016
  6
DASHED2
 62
     4
370
    18
100
AcDbLine
 10
19.81798904766126
 20
100.4828608724701
 30
0.0
 11
28.36799209941908
 21
95.73286087247014
 31
0.0
  0
LINE
  5
132
330
1F
100
AcDbEntity
  8
Layer0016
  6
DASHED2
 62
     4
370
    18
100
AcDbLine
 10
19.81798904766126
 20
79.98286087247014
 30
0.0
 11
28.36799209941908
 21
84.73286087247014
 31
0.0
  0
ARC
  5
133
330
1F
100
AcDbEntity
  8
Layer0016
  6
Continuous
 62
    91
370
    18
100
AcDbCircle
 10
-190.1279437519065
 20
41.23286087247014
 30
0.0
 40
85.0
100
AcDbArc
 50
131.6637576250444
 51
138.3362423749555
  0
ARC
  5
134
330
1F
100
AcDbEntity
  8
Layer0016
  6
Continuous
 62
    91
370
    18
100
AcDbCircle
 10
-190.1279437519065
 20
41.23286087247014
 30
0.0
 40
85.0
100
AcDbArc
 50
221.6637576250444
 51
228.3362423749555
  0
ARC
  5
135
330
1F
100
AcDbEntity
  8
Layer0016
  6
Continuous
 62
    91
370
    18
100
AcDbCircle
 10
-190.1279437519065
 20
41.23286087247014
 30
0.0
 40
85.0
100
AcDbArc
 50
311.6637576250444
 51
318.3362423749555
  0
ARC
  5
136
330
1F
100
AcDbEntity
  8
Layer0016
  6
Continuous
 62
    91
370
    18
100
AcDbCircle
 10
-190.1279437519065
 20
41.23286087247014
 30
0.0
 40
85.0
100
AcDbArc
 50
41.66375762504444
 51
48.33624237495555
  0
LINE
  5
137
330
1F
100
AcDbEntity
  8
Layer0016
  6
Continuous
 62
    91
370
    18
100
AcDbLine
 10
-246.6323683574185
 20
104.7328608724701
 30
0.0
 11
-133.6235191463944
 21
104.7328608724701
 31
0.0
  0
LINE
  5
138
330
1F
100
AcDbEntity
  8
Layer0016
  6
Continuous
 62
    91
370
    18
100
AcDbLine
 10
-246.6323683574185
 20
-22.26713912752986
 30
0.0
 11
-133.6235191463944
 21
-22.26713912752986
 31
0.0
  0
LINE
  5
139
330
1F
100
AcDbEntity
  8
Layer0016
  6
Continuous
 62
    91
370
    18
100
AcDbLine
 10
-253.6279437519064
 20
97.73728547798227
 30
0.0
 11
-253.6279437519064
 21
-15.27156373304198
 31
0.0
  0
LINE
  5
13A
330
1F
100
AcDbEntity
  8
Layer0016
  6
Continuous
 62
    91
370
    18
100
AcDbLine
 10
-126.6279437519065
 20
97.73728547798224
 30
0.0
 11
-126.6279437519065
 21
-15.27156373304195
 31
0.0
  0
CIRCLE
  5
13B
330
1F
100
AcDbEntity
  8
Layer0016
  6
Continuous
 62
    91
370
    18
100
AcDbCircle
 10
-190.1279437519065
 20
41.23286087247014
 30
0.0
 40
27.0
  0
CIRCLE
  5
13C
330
1F
100
AcDbEntity
  8
Layer0016
  6
Continuous
 62
    91
370
    18
100
AcDbCircle
 10
-137.0949351629154
 20
94.26586946146118
 30
0.0
 40
3.3
  0
CIRCLE
  5
13D
330
1F
100
AcDbEntity
  8
Layer0016
  6
Continuous
 62
    91
370
    18
100
AcDbCircle
 10
-243.1609523408976
 20
94.26586946146121
 30
0.0
 40
3.3
  0
CIRCLE
  5
13E
330
1F
100
AcDbEntity
  8
Layer0016
  6
Continuous
 62
    91
370
    18
100
AcDbCircle
 10
-243.1609523408976
 20
-11.80014771652092
 30
0.0
 40
3.3
  0
CIRCLE
  5
13F
330
1F
100
AcDbEntity
  8
Layer0016
  6
Continuous
 62
    91
370
    18
100
AcDbCircle
 10
-137.0949351629154
 20
-11.80014771652095
 30
0.0
 40
3.3
  0
ARC
  5
140
330
1F
100
AcDbEntity
  8
Layer0016
  6
Continuous
 62
    91
370
    18
100
AcDbCircle
 10
-190.1279437519065
 20
41.23286087247014
 30
0.0
 40
68.5
100
AcDbArc
 50
157.9730117393997
 51
202.0269882606003
  0
ARC
  5
141
330
1F
100
AcDbEntity
  8
Layer0016
  6
Continuous
 62
    91
370
    18
100
AcDbCircle
 10
-190.1279437519065
 20
41.23286087247014
 30
0.0
 40
68.5
100
AcDbArc
 50
247.9730117393997
 51
292.0269882606002
  0
ARC
  5
142
330
1F
100
AcDbEntity
  8
Layer0016
  6
Continuous
 62
    91
370
    18
100
AcDbCircle
 10
-190.1279437519065
 20
41.23286087247014
 30
0.0
 40
68.5
100
AcDbArc
 50
337.9730117393997
 51
22.02698826060025
  0
ARC
  5
143
330
1F
100
AcDbEntity
  8
Layer0016
  6
Continuous
 62
    91
370
    18
100
AcDbCircle
 10
-190.1279437519065
 20
41.23286087247014
 30
0.0
 40
68.5
100
AcDbArc
 50
67.97301173939975
 51
87.48989293010028
  0
ARC
  5
144
330
1F
100
AcDbEntity
  8
Layer0016
  6
Continuous
 62
    91
370
    18
100
AcDbCircle
 10
-190.1279437519065
 20
41.23286087247014
 30
0.0
 40
68.5
100
AcDbArc
 50
89.16353554993728
 51
90.8364644500627
  0
ARC
  5
145
330
1F
100
AcDbEntity
  8
Layer0016
  6
Continuous
 62
    91
370
    18
100
AcDbCircle
 10
-190.1279437519065
 20
41.23286087247014
 30
0.0
 40
68.5
100
AcDbArc
 50
92.5101070698997
 51
112.0269882606002
  0
ARC
  5
146
330
1F
100
AcDbEntity
  8
Layer0016
  6
Continuous
 62
    91
370
    18
100
AcDbCircle
 10
-190.1279437519065
 20
40.08286087247014
 30
0.0
 40
21.85
100
AcDbArc
 50
112.8210185117467
 51
67.17898148825262
  0
ARC
  5
147
330
1F
100
AcDbEntity
  8
Layer0016
  6
Continuous
 62
    91
370
    18
100
AcDbCircle
 10
-180.8776320837266
 20
62.06590511210028
 30
0.0
 40
2.0
100
AcDbArc
 50
191.1650207125546
 51
247.1789814882526
  0
ARC
  5
148
330
1F
100
AcDbEntity
  8
Layer0016
  6
Continuous
 62
    91
370
    18
100
AcDbCircle
 10
-199.378255420086
 20
62.06590511210037
 30
0.0
 40
2.0
100
AcDbArc
 50
292.8210185117467
 51
348.834979287436
  0
LINE
  5
149
330
1F
100
AcDbEntity
  8
Layer0016
  6
Continuous
 62
    91
370
    18
100
AcDbLine
 10
-191.6279437519067
 20
65.67194978705554
 30
0.0
 11
-191.6279437519065
 21
61.17653154764928
 31
0.0
  0
LINE
  5
14A
330
1F
100
AcDbEntity
  8
Layer0016
  6
Continuous
 62
    91
370
    18
100
AcDbLine
 10
-188.6279437519066
 20
65.67194978705594
 30
0.0
 11
-188.6279437519065
 21
61.17653154764928
 31
0.0
  0
LINE
  5
14B
330
1F
100
AcDbEntity
  8
Layer0016
  6
Continuous
 62
    91
370
    18
100
AcDbLine
 10
-194.98410255572
 20
65.67194978705622
 30
0.0
 11
-191.6279437519067
 21
65.67194978705591
 31
0.0
  0
LINE
  5
14C
330
1F
100
AcDbEntity
  8
Layer0016
  6
Continuous
 62
    91
370
    18
100
AcDbLine
 10
-188.6279437519066
 20
65.67194978705591
 30
0.0
 11
-185.2717849480923
 21
65.67194978705582
 31
0.0
  0
LINE
  5
14D
330
1F
100
AcDbEntity
  8
Layer0016
  6
Continuous
 62
    91
370
    18
100
AcDbLine
 10
-196.9462496623813
 20
64.05922066360263
 30
0.0
 11
-197.4161083134248
 21
61.67863423555396
 31
0.0
  0
ARC
  5
14E
330
1F
100
AcDbEntity
  8
Layer0016
  6
Continuous
 62
    91
370
    18
100
AcDbCircle
 10
-194.9841025557201
 20
63.67194978705622
 30
0.0
 40
2.0
100
AcDbArc
 50
89.99999999999706
 51
168.8349792874363
  0
LINE
  5
14F
330
1F
100
AcDbEntity
  8
Layer0016
  6
Continuous
 62
    91
370
    18
100
AcDbLine
 10
-183.309637841431
 20
64.05922066360215
 30
0.0
 11
-182.8397791903879
 21
61.67863423555416
 31
0.0
  0
ARC
  5
150
330
1F
100
AcDbEntity
  8
Layer0016
  6
Continuous
 62
    91
370
    18
100
AcDbCircle
 10
-185.2717849480922
 20
63.67194978705582
 30
0.0
 40
2.0
100
AcDbArc
 50
11.16502071256125
 51
90.00000000000212
  0
CIRCLE
  5
151
330
1F
100
AcDbEntity
  8
Layer0016
  6
Continuous
 62
    91
370
    18
100
AcDbCircle
 10
-194.1279437519067
 20
63.17194978705554
 30
0.0
 40
1.25
  0
CIRCLE
  5
152
330
1F
100
AcDbEntity
  8
Layer0016
  6
Continuous
 62
    91
370
    18
100
AcDbCircle
 10
-186.1279437519066
 20
63.17194978705594
 30
0.0
 40
1.25
  0
ARC
  5
153
330
1F
100
AcDbEntity
  8
Layer0016
  6
Continuous
 62
    91
370
    18
100
AcDbCircle
 10
-190.1279437519065
 20
41.23286087247014
 30
0.0
 40
67.5
100
AcDbArc
 50
160.1763285283293
 51
199.8236714716706
  0
ARC
  5
154
330
1F
100
AcDbEntity
  8
Layer0016
  6
Continuous
 62
    91
370
    18
100
AcDbCircle
 10
-190.1279437519065
 20
41.23286087247014
 30
0.0
 40
67.5
100
AcDbArc
 50
250.1763285283294
 51
289.8236714716705
  0
ARC
  5
155
330
1F
100
AcDbEntity
  8
Layer0016
  6
Continuous
 62
    91
370
    18
100
AcDbCircle
 10
-190.1279437519065
 20
41.23286087247014
 30
0.0
 40
67.5
100
AcDbArc
 50
340.1763285283293
 51
19.82367147167064
  0
ARC
  5
156
330
1F
100
AcDbEntity
  8
Layer0016
  6
Continuous
 62
    91
370
    18
100
AcDbCircle
 10
-190.1279437519065
 20
41.23286087247014
 30
0.0
 40
67.5
100
AcDbArc
 50
70.17632852832938
 51
87.4526818174296
  0
ARC
  5
157
330
1F
100
AcDbEntity
  8
Layer0016
  6
Continuous
 62
    91
370
    18
100
AcDbCircle
 10
-190.1279437519065
 20
41.23286087247014
 30
0.0
 40
67.5
100
AcDbArc
 50
89.15114258388634
 51
90.84885741611365
  0
ARC
  5
158
330
1F
100
AcDbEntity
  8
Layer0016
  6
Continuous
 62
    91
370
    18
100
AcDbCircle
 10
-190.1279437519065
 20
41.23286087247014
 30
0.0
 40
67.5
100
AcDbArc
 50
92.54731818257036
 51
109.8236714716706
  0
CIRCLE
  5
159
330
1F
100
AcDbEntity
  8
Layer0016
  6
Continuous
 62
    91
370
    18
100
AcDbCircle
 10
161.6689833194775
 20
90.23286087247014
 30
0.0
 40
5.000001907348597
  0
CIRCLE
  5
15A
330
1F
100
AcDbEntity
  8
Layer0016
  6
Continuous
 62
    91
370
    18
100
AcDbCircle
 10
161.6689833194775
 20
90.23286087247014
 30
0.0
 40
11.24999999999999
  0
CIRCLE
  5
15B
330
1F
100
AcDbEntity
  8
Layer0016
  6
Continuous
 62
    91
370
    18
100
AcDbCircle
 10
119.2337378055615
 20
16.73286087247014
 30
0.0
 40
5.000001907348597
  0
CIRCLE
  5
15C
330
1F
100
AcDbEntity
  8
Layer0016
  6
Continuous
 62
    91
370
    18
100
AcDbCircle
 10
119.2337378055615
 20
16.73286087247014
 30
0.0
 40
11.24999999999999
  0
CIRCLE
  5
15D
330
1F
100
AcDbEntity
  8
Layer0016
  6
Continuous
 62
    91
370
    18
100
AcDbCircle
 10
204.1042250186963
 20
16.73286087247014
 30
0.0
 40
5.000001907348597
  0
CIRCLE
  5
15E
330
1F
100
AcDbEntity
  8
Layer0016
  6
Continuous
 62
    91
370
    18
100
AcDbCircle
 10
204.1042250186963
 20
16.73286087247014
 30
0.0
 40
11.24999999999999
  0
ARC
  5
15F
330
1F
100
AcDbEntity
  8
Layer0016
  6
Continuous
 62
    91
370
    18
100
AcDbCircle
 10
161.6689833194775
 20
41.23286087247014
 30
0.0
 40
85.0
100
AcDbArc
 50
131.6637576250444
 51
138.3362423749555
  0
ARC
  5
160
330
1F
100
AcDbEntity
  8
Layer0016
  6
Continuous
 62
    91
370
    18
100
AcDbCircle
 10
161.6689833194775
 20
41.23286087247014
 30
0.0
 40
85.0
100
AcDbArc
 50
221.6637576250444
 51
228.3362423749555
  0
ARC
  5
161
330
1F
100
AcDbEntity
  8
Layer0016
  6
Continuous
 62
    91
370
    18
100
AcDbCircle
 10
161.6689833194775
 20
41.23286087247014
 30
0.0
 40
85.0
100
AcDbArc
 50
311.6637576250444
 51
318.3362423749555
  0
ARC
  5
162
330
1F
100
AcDbEntity
  8
Layer0016
  6
Continuous
 62
    91
370
    18
100
AcDbCircle
 10
161.6689833194775
 20
41.23286087247014
 30
0.0
 40
85.0
100
AcDbArc
 50
41.66375762504444
 51
48.33624237495555
  0
LINE
  5
163
330
1F
100
AcDbEntity
  8
Layer0016
  6
Continuous
 62
    91
370
    18
100
AcDbLine
 10
105.1645587139654
 20
104.7328608724701
 30
0.0
 11
135.9785181621472
 21
104.7328608724701
 31
0.0
  0
LINE
  5
164
330
1F
100
AcDbEntity
  8
Layer0016
  6
Continuous
 62
    91
370
    18
100
AcDbLine
 10
187.3594484768078
 20
104.7328608724701
 30
0.0
 11
218.1734079249896
 21
104.7328608724701
 31
0.0
  0
LINE
  5
165
330
1F
100
AcDbEntity
  8
Layer0016
  6
Continuous
 62
    91
370
    18
100
AcDbLine
 10
105.1645587139654
 20
-22.26713912752986
 30
0.0
 11
135.9785181621472
 21
-22.26713912752986
 31
0.0
  0
LINE
  5
166
330
1F
100
AcDbEntity
  8
Layer0016
  6
Continuous
 62
    91
370
    18
100
AcDbLine
 10
187.3594484768077
 20
-22.26713912752986
 30
0.0
 11
218.1734079249895
 21
-22.26713912752986
 31
0.0
  0
LINE
  5
167
330
1F
100
AcDbEntity
  8
Layer0016
  6
Continuous
 62
    91
370
    18
100
AcDbLine
 10
98.16898331947755
 20
97.73728547798227
 30
0.0
 11
98.16898331947755
 21
66.92332602980049
 31
0.0
  0
LINE
  5
168
330
1F
100
AcDbEntity
  8
Layer0016
  6
Continuous
 62
    91
370
    18
100
AcDbLine
 10
98.16898331947755
 20
15.54239571513983
 30
0.0
 11
98.16898331947755
 21
-15.27156373304198
 31
0.0
  0
LINE
  5
169
330
1F
100
AcDbEntity
  8
Layer0016
  6
Continuous
 62
    91
370
    18
100
AcDbLine
 10
225.1689833194775
 20
97.73728547798224
 30
0.0
 11
225.1689833194775
 21
66.9233260298004
 31
0.0
  0
LINE
  5
16A
330
1F
100
AcDbEntity
  8
Layer0016
  6
Continuous
 62
    91
370
    18
100
AcDbLine
 10
225.1689833194775
 20
15.54239571513986
 30
0.0
 11
225.1689833194775
 21
-15.27156373304195
 31
0.0
  0
CIRCLE
  5
16B
330
1F
100
AcDbEntity
  8
Layer0016
  6
Continuous
 62
    91
370
    18
100
AcDbCircle
 10
214.7019919084686
 20
94.26586946146118
 30
0.0
 40
3.3
  0
CIRCLE
  5
16C
330
1F
100
AcDbEntity
  8
Layer0016
  6
Continuous
 62
    91
370
    18
100
AcDbCircle
 10
108.6359747304865
 20
94.26586946146121
 30
0.0
 40
3.3
  0
CIRCLE
  5
16D
330
1F
100
AcDbEntity
  8
Layer0016
  6
Continuous
 62
    91
370
    18
100
AcDbCircle
 10
108.6359747304865
 20
-11.80014771652092
 30
0.0
 40
3.3
  0
CIRCLE
  5
16E
330
1F
100
AcDbEntity
  8
Layer0016
  6
Continuous
 62
    91
370
    18
100
AcDbCircle
 10
214.7019919084686
 20
-11.80014771652095
 30
0.0
 40
3.3
  0
CIRCLE
  5
16F
330
1F
100
AcDbEntity
  8
Layer0016
  6
Continuous
 62
    91
370
    18
100
AcDbCircle
 10
161.6689833194775
 20
41.23286087247014
 30
0.0
 40
63.5
  0
LINE
  5
170
330
1F
100
AcDbEntity
  8
Layer0016
  6
Continuous
 62
    91
370
    18
100
AcDbLine
 10
-50.78201400409655
 20
75.23286087247014
 30
0.0
 11
-35.78201400409655
 21
75.23286087247014
 31
0.0
  0
LINE
  5
171
330
1F
100
AcDbEntity
  8
Layer0016
  6
Continuous
 62
    91
370
    18
100
AcDbLine
 10
-33.22201400409632
 20
75.23286087247014
 30
0.0
 11
-20.48201400409655
 21
75.23286087247014
 31
0.0
  0
LINE
  5
172
330
1F
100
AcDbEntity
  8
Layer0016
  6
Continuous
 62
    91
370
    18
100
AcDbLine
 10
-50.78201400409655
 20
7.232860872470141
 30
0.0
 11
-35.78201400409655
 21
7.232860872470141
 31
0.0
  0
LINE
  5
173
330
1F
100
AcDbEntity
  8
Layer0016
  6
Continuous
 62
    91
370
    18
100
AcDbLine
 10
-33.22201400409654
 20
7.232860872470141
 30
0.0
 11
-20.48201400409655
 21
7.232860872470141
 31
0.0
  0
LINE
  5
174
330
1F
100
AcDbEntity
  8
Layer0016
  6
Continuous
 62
    91
370
    18
100
AcDbLine
 10
-46.48201400409653
 20
107.7328608724701
 30
0.0
 11
-37.48201400409653
 21
107.7328608724701
 31
0.0
  0
LINE
  5
175
330
1F
100
AcDbEntity
  8
Layer0016
  6
Continuous
 62
    91
370
    18
100
AcDbLine
 10
-43.78201400409655
 20
104.38286087247
 30
0.0
 11
-20.48201400409655
 21
104.3828608724701
 31
0.0
  0
LINE
  5
176
330
1F
100
AcDbEntity
  8
Layer0016
  6
Continuous
 62
    91
370
    18
100
AcDbLine
 10
-43.78201400409655
 20
-21.91713912752986
 30
0.0
 11
-20.48201400409655
 21
-21.91713912752986
 31
0.0
  0
LINE
  5
177
330
1F
100
AcDbEntity
  8
Layer0016
  6
Continuous
 62
    91
370
    18
100
AcDbLine
 10
-50.78201400409655
 20
75.23286087247011
 30
0.0
 11
-50.78201400409655
 21
68.23286087247011
 31
0.0
  0
LINE
  5
178
330
1F
100
AcDbEntity
  8
Layer0016
  6
Continuous
 62
    91
370
    18
100
AcDbLine
 10
-50.78201400409655
 20
14.23286087247017
 30
0.0
 11
-50.78201400409655
 21
7.232860872470141
 31
0.0
  0
ARC
  5
179
330
1F
100
AcDbEntity
  8
Layer0016
  6
Continuous
 62
    91
370
    18
100
AcDbCircle
 10
-43.78201400409655
 20
97.38286087247006
 30
0.0
 40
7.0
100
AcDbArc
 50
90.00000000000004
 51
163.165019326778
  0
ARC
  5
17A
330
1F
100
AcDbEntity
  8
Layer0016
  6
Continuous
 62
    91
370
    18
100
AcDbCircle
 10
-43.78201400409655
 20
-14.91713912752986
 30
0.0
 40
7.0
100
AcDbArc
 50
196.834980673222
 51
269.9999999999999
  0
LINE
  5
17B
330
1F
100
AcDbEntity
  8
Layer0016
  6
Continuous
 62
    91
370
    18
100
AcDbLine
 10
-53.98201400409655
 20
104.7328608724701
 30
0.0
 11
-50.48201400409655
 21
104.7328608724701
 31
0.0
  0
LINE
  5
17C
330
1F
100
AcDbEntity
  8
Layer0016
  6
Continuous
 62
    91
370
    18
100
AcDbLine
 10
-50.48201400409655
 20
104.7328608724701
 30
0.0
 11
-50.48201400409655
 21
75.23286087247014
 31
0.0
  0
LINE
  5
17D
330
1F
100
AcDbEntity
  8
Layer0016
  6
Continuous
 62
    91
370
    18
100
AcDbLine
 10
-53.98201400409655
 20
68.23286087247014
 30
0.0
 11
-50.78201400409655
 21
68.23286087246991
 31
0.0
  0
LINE
  5
17E
330
1F
100
AcDbEntity
  8
Layer0016
  6
Continuous
 62
    91
370
    18
100
AcDbLine
 10
-53.98201400409655
 20
14.23286087247014
 30
0.0
 11
-50.78201400409655
 21
14.23286087247017
 31
0.0
  0
LINE
  5
17F
330
1F
100
AcDbEntity
  8
Layer0016
  6
Continuous
 62
    91
370
    18
100
AcDbLine
 10
-33.22201400409654
 20
76.73286087247014
 30
0.0
 11
-33.22201400409632
 21
75.23286087247011
 31
0.0
  0
LINE
  5
180
330
1F
100
AcDbEntity
  8
Layer0016
  6
Continuous
 62
    91
370
    18
100
AcDbLine
 10
-35.92201400409687
 20
76.73286087247014
 30
0.0
 11
-35.92201400409666
 21
75.23286087247011
 31
0.0
  0
LINE
  5
181
330
1F
100
AcDbEntity
  8
Layer0016
  6
Continuous
 62
    91
370
    18
100
AcDbLine
 10
-35.92201400409687
 20
76.73286087247014
 30
0.0
 11
-33.22201400409654
 21
76.73286087247014
 31
0.0
  0
LINE
  5
182
330
1F
100
AcDbEntity
  8
Layer0016
  6
Continuous
 62
    91
370
    18
100
AcDbLine
 10
-35.92201400409687
 20
5.732860872470138
 30
0.0
 11
-33.22201400409654
 21
5.732860872470138
 31
0.0
  0
LINE
  5
183
330
1F
100
AcDbEntity
  8
Layer0016
  6
Continuous
 62
    91
370
    18
100
AcDbLine
 10
-35.92201400409687
 20
7.232860872470141
 30
0.0
 11
-35.92201400409687
 21
5.732860872470138
 31
0.0
  0
LINE
  5
184
330
1F
100
AcDbEntity
  8
Layer0016
  6
Continuous
 62
    91
370
    18
100
AcDbLine
 10
-33.22201400409654
 20
7.232860872470141
 30
0.0
 11
-33.22201400409654
 21
5.732860872470138
 31
0.0
  0
LINE
  5
185
330
1F
100
AcDbEntity
  8
Layer0016
  6
Continuous
 62
    91
370
    18
100
AcDbLine
 10
-20.48201400409655
 20
104.3828608724701
 30
0.0
 11
-20.48201400409655
 21
75.23286087247014
 31
0.0
  0
LINE
  5
186
330
1F
100
AcDbEntity
  8
Layer0016
  6
Continuous
 62
    91
370
    18
100
AcDbLine
 10
-20.48201400409655
 20
7.232860872470141
 30
0.0
 11
-20.48201400409655
 21
-21.91713912752986
 31
0.0
  0
LINE
  5
187
330
1F
100
AcDbEntity
  8
Layer0016
  6
Continuous
 62
    91
370
    18
100
AcDbLine
 10
-46.48201400409653
 20
107.7328608724701
 30
0.0
 11
-46.48201400409653
 21
103.8461673964349
 31
0.0
  0
LINE
  5
188
330
1F
100
AcDbEntity
  8
Layer0016
  6
Continuous
 62
    91
370
    18
100
AcDbLine
 10
-37.48201400409653
 20
107.7328608724701
 30
0.0
 11
-37.48201400409653
 21
104.2643513255907
 31
0.0
  0
LINE
  5
189
330
1F
100
AcDbEntity
  8
Layer0016
  6
Continuous
 62
    91
370
    18
100
AcDbLine
 10
-8.982014004096548
 20
-22.76713912752986
 30
0.0
 11
-4.482014004096548
 21
-22.76713912752986
 31
0.0
  0
LINE
  5
18A
330
1F
100
AcDbEntity
  8
Layer0016
  6
Continuous
 62
    91
370
    18
100
AcDbLine
 10
-4.482014004096548
 20
-22.76713912752986
 30
0.0
 11
-4.482014004096548
 21
-18.86713760165096
 31
0.0
  0
LINE
  5
18B
330
1F
100
AcDbEntity
  8
Layer0016
  6
Continuous
 62
    91
370
    18
100
AcDbLine
 10
-4.482014004096548
 20
3.332859346591238
 30
0.0
 11
-4.482014004096548
 21
79.13286239834905
 31
0.0
  0
LINE
  5
18C
330
1F
100
AcDbEntity
  8
Layer0016
  6
Continuous
 62
    91
370
    18
100
AcDbLine
 10
-4.482014004096548
 20
101.3328593465912
 30
0.0
 11
-4.482014004096548
 21
105.2328608724701
 31
0.0
  0
LINE
  5
18D
330
1F
100
AcDbEntity
  8
Layer0016
  6
Continuous
 62
    91
370
    18
100
AcDbLine
 10
-4.482014004096548
 20
105.2328608724701
 30
0.0
 11
-8.982014004096548
 21
105.2328608724701
 31
0.0
  0
LINE
  5
18E
330
1F
100
AcDbEntity
  8
Layer0016
  6
Continuous
 62
    91
370
    18
100
AcDbLine
 10
9.017985995903452
 20
100.2328608724701
 30
0.0
 11
9.017985995903452
 21
80.23286087247014
 31
0.0
  0
LINE
  5
18F
330
1F
100
AcDbEntity
  8
Layer0016
  6
Continuous
 62
    91
370
    18
100
AcDbLine
 10
2.017985995903452
 20
-22.76713912752986
 30
0.0
 11
2.017985995903452
 21
11.23286087247014
 31
0.0
  0
LINE
  5
190
330
1F
100
AcDbEntity
  8
Layer0016
  6
Continuous
 62
    91
370
    18
100
AcDbLine
 10
2.017985995903448
 20
71.23286087247014
 30
0.0
 11
2.017985995903452
 21
80.23286087247014
 31
0.0
  0
LINE
  5
191
330
1F
100
AcDbEntity
  8
Layer0016
  6
Continuous
 62
    91
370
    18
100
AcDbLine
 10
2.017985995903452
 20
100.2328608724701
 30
0.0
 11
2.017985995903452
 21
105.2328608724701
 31
0.0
  0
LINE
  5
192
330
1F
100
AcDbEntity
  8
Layer0016
  6
Continuous
 62
    91
370
    18
100
AcDbLine
 10
9.017985995903452
 20
100.2328608724701
 30
0.0
 11
2.017985995903452
 21
100.2328608724701
 31
0.0
  0
LINE
  5
193
330
1F
100
AcDbEntity
  8
Layer0016
  6
Continuous
 62
    91
370
    18
100
AcDbLine
 10
9.017985995903452
 20
80.23286087247014
 30
0.0
 11
2.017985995903452
 21
80.23286087247014
 31
0.0
  0
LINE
  5
194
330
1F
100
AcDbEntity
  8
Layer0016
  6
Continuous
 62
    91
370
    18
100
AcDbLine
 10
2.017985995903452
 20
105.2328608724701
 30
0.0
 11
-0.4820140040965484
 21
105.2328608724701
 31
0.0
  0
ARC
  5
195
330
1F
100
AcDbEntity
  8
Layer0016
  6
Continuous
 62
    91
370
    18
100
AcDbCircle
 10
-0.4820140040965484
 20
102.7328608724701
 30
0.0
 40
2.5
100
AcDbArc
 50
89.9999999999999
 51
177.7093899573615
  0
ARC
  5
196
330
1F
100
AcDbEntity
  8
Layer0016
  6
Continuous
 62
    91
370
    18
100
AcDbCircle
 10
-2.982014004096548
 20
101.3328593465912
 30
0.0
 40
1.5
100
AcDbArc
 50
89.92369315879465
 51
179.9999999999998
  0
LINE
  5
197
330
1F
100
AcDbEntity
  8
Layer0016
  6
Continuous
 62
    91
370
    18
100
AcDbLine
 10
2.017985995903452
 20
75.23286087247014
 30
0.0
 11
-0.4820140040965484
 21
75.23286087247014
 31
0.0
  0
ARC
  5
198
330
1F
100
AcDbEntity
  8
Layer0016
  6
Continuous
 62
    91
370
    18
100
AcDbCircle
 10
-0.4820140040965484
 20
77.73286087247014
 30
0.0
 40
2.5
100
AcDbArc
 50
182.2906100426381
 51
269.9999999999997
  0
ARC
  5
199
330
1F
100
AcDbEntity
  8
Layer0016
  6
Continuous
 62
    91
370
    18
100
AcDbCircle
 10
-2.982014004096548
 20
79.13286239834905
 30
0.0
 40
1.5
100
AcDbArc
 50
180.0
 51
270.0763068412049
  0
LINE
  5
19A
330
1F
100
AcDbEntity
  8
Layer0016
  6
Continuous
 62
    91
370
    18
100
AcDbLine
 10
2.017985995903452
 20
-22.76713912752986
 30
0.0
 11
-0.4820140040965484
 21
-22.76713912752986
 31
0.0
  0
ARC
  5
19B
330
1F
100
AcDbEntity
  8
Layer0016
  6
Continuous
 62
    91
370
    18
100
AcDbCircle
 10
-0.4820140040965484
 20
-20.26713912752986
 30
0.0
 40
2.5
100
AcDbArc
 50
182.2906100426381
 51
269.9999999999997
  0
ARC
  5
19C
330
1F
100
AcDbEntity
  8
Layer0016
  6
Continuous
 62
    91
370
    18
100
AcDbCircle
 10
-2.982014004096548
 20
-18.86713760165096
 30
0.0
 40
1.5
100
AcDbArc
 50
179.9999999999998
 51
270.0763068412049
  0
LINE
  5
19D
330
1F
100
AcDbEntity
  8
Layer0016
  6
Continuous
 62
    91
370
    18
100
AcDbLine
 10
2.017985995903452
 20
7.232860872470141
 30
0.0
 11
-0.4820140040965484
 21
7.232860872470141
 31
0.0
  0
ARC
  5
19E
330
1F
100
AcDbEntity
  8
Layer0016
  6
Continuous
 62
    91
370
    18
100
AcDbCircle
 10
-0.4820140040965484
 20
4.732860872470138
 30
0.0
 40
2.5
100
AcDbArc
 50
89.99999999999994
 51
177.7093899573615
  0
ARC
  5
19F
330
1F
100
AcDbEntity
  8
Layer0016
  6
Continuous
 62
    91
370
    18
100
AcDbCircle
 10
-2.982014004096548
 20
3.332859346591231
 30
0.0
 40
1.5
100
AcDbArc
 50
89.92369315879468
 51
179.9999999999998
  0
LINE
  5
1A0
330
1F
100
AcDbEntity
  8
Layer0016
  6
Continuous
 62
    91
370
    18
100
AcDbLine
 10
-2.980015102729361
 20
77.63294077659798
 30
0.0
 11
-2.980015102729361
 21
4.832779237948653
 31
0.0
  0
LINE
  5
1A1
330
1F
100
AcDbEntity
  8
Layer0016
  6
Continuous
 62
    91
370
    18
100
AcDbLine
 10
-8.982014004096548
 20
75.23286087247014
 30
0.0
 11
-4.482014004096548
 21
75.23286087247014
 31
0.0
  0
LINE
  5
1A2
330
1F
100
AcDbEntity
  8
Layer0016
  6
Continuous
 62
    91
370
    18
100
AcDbLine
 10
-8.982014004096548
 20
7.232860872470141
 30
0.0
 11
-4.482014004096548
 21
7.232860872470141
 31
0.0
  0
LINE
  5
1A3
330
1F
100
AcDbEntity
  8
Layer0016
  6
Continuous
 62
    91
370
    18
100
AcDbLine
 10
7.017985995903452
 20
94.2328646871674
 30
0.0
 11
-3.78200942645983
 21
94.2328646871674
 31
0.0
  0
LINE
  5
1A4
330
1F
100
AcDbEntity
  8
Layer0016
  6
Continuous
 62
    91
370
    18
100
AcDbLine
 10
7.017985995903452
 20
86.23286087247014
 30
0.0
 11
-3.78200942645983
 21
86.23286087247014
 31
0.0
  0
LINE
  5
1A5
330
1F
100
AcDbEntity
  8
Layer0016
  6
Continuous
 62
    91
370
    18
100
AcDbLine
 10
-3.78200942645983
 20
94.2328646871674
 30
0.0
 11
-4.982014004096548
 21
93.03286392422795
 31
0.0
  0
LINE
  5
1A6
330
1F
100
AcDbEntity
  8
Layer0016
  6
Continuous
 62
    91
370
    18
100
AcDbLine
 10
-3.78200942645983
 20
86.23286087247014
 30
0.0
 11
-4.982014004096548
 21
87.4328616354096
 31
0.0
  0
LINE
  5
1A7
330
1F
100
AcDbEntity
  8
Layer0016
  6
Continuous
 62
    91
370
    18
100
AcDbLine
 10
-4.982014004096548
 20
87.4328616354096
 30
0.0
 11
-4.982014004096548
 21
93.03286392422795
 31
0.0
  0
LINE
  5
1A8
330
1F
100
AcDbEntity
  8
Layer0016
  6
Continuous
 62
    91
370
    18
100
AcDbLine
 10
-3.78200942645983
 20
86.23286087247014
 30
0.0
 11
-3.78200942645983
 21
94.2328646871674
 31
0.0
  0
LINE
  5
1A9
330
1F
100
AcDbEntity
  8
Layer0016
  6
Continuous
 62
    91
370
    18
100
AcDbLine
 10
7.017985995903452
 20
86.23286087247014
 30
0.0
 11
7.017985995903452
 21
94.2328646871674
 31
0.0
  0
LINE
  5
1AA
330
1F
100
AcDbEntity
  8
Layer0016
  6
Continuous
 62
    91
370
    18
100
AcDbLine
 10
7.017985995903452
 20
94.2328646871674
 30
0.0
 11
9.017985995903452
 21
94.2328646871674
 31
0.0
  0
LINE
  5
1AB
330
1F
100
AcDbEntity
  8
Layer0016
  6
Continuous
 62
    91
370
    18
100
AcDbLine
 10
9.017985995903452
 20
95.2328646871674
 30
0.0
 11
12.51798599590406
 21
95.23286401455094
 31
0.0
  0
LINE
  5
1AC
330
1F
100
AcDbEntity
  8
Layer0016
  6
Continuous
 62
    91
370
    18
100
AcDbLine
 10
14.51798599590398
 20
95.23286363019871
 30
0.0
 11
28.86799209941908
 21
95.23286087247014
 31
0.0
  0
LINE
  5
1AD
330
1F
100
AcDbEntity
  8
Layer0016
  6
Continuous
 62
    91
370
    18
100
AcDbLine
 10
30.01798599590345
 20
95.23286087247014
 30
0.0
 11
33.01798599590345
 21
95.23286087247014
 31
0.0
  0
LINE
  5
1AE
330
1F
100
AcDbEntity
  8
Layer0016
  6
Continuous
 62
    91
370
    18
100
AcDbLine
 10
33.01798599590345
 20
95.23286087247014
 30
0.0
 11
34.01798599590345
 21
94.23286087247014
 31
0.0
  0
LINE
  5
1AF
330
1F
100
AcDbEntity
  8
Layer0016
  6
Continuous
 62
    91
370
    18
100
AcDbLine
 10
34.01798599590345
 20
94.23286087247014
 30
0.0
 11
34.01798599590345
 21
86.23286087247014
 31
0.0
  0
LINE
  5
1B0
330
1F
100
AcDbEntity
  8
Layer0016
  6
Continuous
 62
    91
370
    18
100
AcDbLine
 10
34.01798599590345
 20
86.23286087247014
 30
0.0
 11
33.01798599590345
 21
85.23286087247014
 31
0.0
  0
LINE
  5
1B1
330
1F
100
AcDbEntity
  8
Layer0016
  6
Continuous
 62
    91
370
    18
100
AcDbLine
 10
30.01798599590345
 20
97.88286239834905
 30
0.0
 11
30.01798599590345
 21
83.98286087247014
 31
0.0
  0
LINE
  5
1B2
330
1F
100
AcDbEntity
  8
Layer0016
  6
Continuous
 62
    91
370
    18
100
AcDbLine
 10
28.86799209941908
 20
97.88286239834905
 30
0.0
 11
28.86799209941908
 21
83.98286087247014
 31
0.0
  0
LINE
  5
1B3
330
1F
100
AcDbEntity
  8
Layer0016
  6
Continuous
 62
    91
370
    18
100
AcDbLine
 10
30.01798599590345
 20
85.23286087247014
 30
0.0
 11
33.01798599590345
 21
85.23286087247014
 31
0.0
  0
LINE
  5
1B4
330
1F
100
AcDbEntity
  8
Layer0016
  6
Continuous
 62
    91
370
    18
100
AcDbLine
 10
9.017985995903452
 20
85.23286087247014
 30
0.0
 11
12.51798599590345
 21
85.23286087247014
 31
0.0
  0
LINE
  5
1B5
330
1F
100
AcDbEntity
  8
Layer0016
  6
Continuous
 62
    91
370
    18
100
AcDbLine
 10
14.51798599590345
 20
85.23286087247014
 30
0.0
 11
28.86799209941908
 21
85.23286087247014
 31
0.0
  0
LINE
  5
1B6
330
1F
100
AcDbEntity
  8
Layer0016
  6
Continuous
 62
    91
370
    18
100
AcDbLine
 10
7.017985995903452
 20
86.23286087247014
 30
0.0
 11
9.017985995903452
 21
86.23286087247014
 31
0.0
  0
LINE
  5
1B7
330
1F
100
AcDbEntity
  8
Layer0016
  6
Continuous
 62
    91
370
    18
100
AcDbLine
 10
14.51798599590345
 20
95.23286087247014
 30
0.0
 11
14.51798599590345
 21
85.23286087247014
 31
0.0
  0
LINE
  5
1B8
330
1F
100
AcDbEntity
  8
Layer0016
  6
Continuous
 62
    91
370
    18
100
AcDbLine
 10
12.51798599590345
 20
95.23286087247014
 30
0.0
 11
12.51798599590345
 21
85.23286087247014
 31
0.0
  0
LINE
  5
1B9
330
1F
100
AcDbEntity
  8
Layer0016
  6
Continuous
 62
    91
370
    18
100
AcDbLine
 10
33.01798599590345
 20
85.23286087247014
 30
0.0
 11
33.01798599590345
 21
95.23286087247014
 31
0.0
  0
LINE
  5
1BA
330
1F
100
AcDbEntity
  8
Layer0016
  6
Continuous
 62
    91
370
    18
100
AcDbLine
 10
-4.53200942645983
 20
93.4828646871674
 30
0.0
 11
-8.982014004096548
 21
93.4828646871674
 31
0.0
  0
LINE
  5
1BB
330
1F
100
AcDbEntity
  8
Layer0016
  6
Continuous
 62
    91
370
    18
100
AcDbLine
 10
-4.53200942645983
 20
86.98286087247014
 30
0.0
 11
-8.982014004096548
 21
86.98286087247014
 31
0.0
  0
LINE
  5
1BC
330
1F
100
AcDbEntity
  8
Layer0016
  6
Continuous
 62
    91
370
    18
100
AcDbLine
 10
9.017985995903452
 20
100.2328608724701
 30
0.0
 11
9.017985995903452
 21
104.7328608724701
 31
0.0
  0
LINE
  5
1BD
330
1F
100
AcDbEntity
  8
Layer0016
  6
Continuous
 62
    91
370
    18
100
AcDbLine
 10
9.017985995903452
 20
104.7328608724701
 30
0.0
 11
18.51798599590345
 21
104.7328608724701
 31
0.0
  0
LINE
  5
1BE
330
1F
100
AcDbEntity
  8
Layer0016
  6
Continuous
 62
    91
370
    18
100
AcDbLine
 10
36.01798599590345
 20
69.73286087247013
 30
0.0
 11
36.01798599590345
 21
12.73286087247016
 31
0.0
  0
LINE
  5
1BF
330
1F
100
AcDbEntity
  8
Layer0016
  6
Continuous
 62
    91
370
    18
100
AcDbLine
 10
9.017985995903452
 20
80.23286087247014
 30
0.0
 11
9.017985995903452
 21
72.73286087247014
 31
0.0
  0
LINE
  5
1C0
330
1F
100
AcDbEntity
  8
Layer0016
  6
Continuous
 62
    91
370
    18
100
AcDbLine
 10
18.51798599590345
 20
72.73286087247014
 30
0.0
 11
18.51798599590345
 21
85.23286087247014
 31
0.0
  0
LINE
  5
1C1
330
1F
100
AcDbEntity
  8
Layer0016
  6
Continuous
 62
    91
370
    18
100
AcDbLine
 10
18.51798599590345
 20
95.23286087247014
 30
0.0
 11
18.51798599590345
 21
104.7328608724701
 31
0.0
  0
LINE
  5
1C2
330
1F
100
AcDbEntity
  8
Layer0016
  6
Continuous
 62
    91
370
    18
100
AcDbLine
 10
19.01798599590345
 20
98.73286087247014
 30
0.0
 11
20.21799057354017
 21
98.73286087247014
 31
0.0
  0
ARC
  5
1C3
330
1F
100
AcDbEntity
  8
Layer0016
  6
Continuous
 62
    91
370
    18
100
AcDbCircle
 10
19.01798599590345
 20
99.23286087247014
 30
0.0
 40
0.5
100
AcDbArc
 50
179.9999999999998
 51
269.9999999999947
  0
ARC
  5
1C4
330
1F
100
AcDbEntity
  8
Layer0016
  6
Continuous
 62
    91
370
    18
100
AcDbCircle
 10
20.21799057354017
 20
98.23286087247014
 30
0.0
 40
0.5
100
AcDbArc
 50
0.0
 51
89.9999999999999
  0
LINE
  5
1C5
330
1F
100
AcDbEntity
  8
Layer0016
  6
Continuous
 62
    91
370
    18
100
AcDbLine
 10
19.01798599590345
 20
81.73286087247014
 30
0.0
 11
20.21799057354017
 21
81.73286087247014
 31
0.0
  0
ARC
  5
1C6
330
1F
100
AcDbEntity
  8
Layer0016
  6
Continuous
 62
    91
370
    18
100
AcDbCircle
 10
19.01798599590345
 20
81.23286087247014
 30
0.0
 40
0.5
100
AcDbArc
 50
89.99999999999775
 51
179.9999999999998
  0
ARC
  5
1C7
330
1F
100
AcDbEntity
  8
Layer0016
  6
Continuous
 62
    91
370
    18
100
AcDbCircle
 10
20.21799057354017
 20
82.23286087247014
 30
0.0
 40
0.5
100
AcDbArc
 50
269.9999999999997
 51
0.0
  0
LINE
  5
1C8
330
1F
100
AcDbEntity
  8
Layer0016
  6
Continuous
 62
    91
370
    18
100
AcDbLine
 10
19.31798904766126
 20
79.23286087247014
 30
0.0
 11
19.31798904766126
 21
80.9328616354096
 31
0.0
  0
LINE
  5
1C9
330
1F
100
AcDbEntity
  8
Layer0016
  6
Continuous
 62
    91
370
    18
100
AcDbLine
 10
19.31798904766126
 20
101.2328608724701
 30
0.0
 11
19.31798904766126
 21
99.53286010953069
 31
0.0
  0
LINE
  5
1CA
330
1F
100
AcDbEntity
  8
Layer0016
  6
Continuous
 62
    91
370
    18
100
AcDbLine
 10
19.31798904766126
 20
99.53286010953069
 30
0.0
 11
20.51798599590345
 21
99.53286010953069
 31
0.0
  0
ARC
  5
1CB
330
1F
100
AcDbEntity
  8
Layer0016
  6
Continuous
 62
    91
370
    18
100
AcDbCircle
 10
20.51798599590345
 20
98.53286010953069
 30
0.0
 40
1.0
100
AcDbArc
 50
0.0
 51
89.9999999999999
  0
LINE
  5
1CC
330
1F
100
AcDbEntity
  8
Layer0016
  6
Continuous
 62
    91
370
    18
100
AcDbLine
 10
19.31798904766126
 20
80.9328616354096
 30
0.0
 11
20.51798599590345
 21
80.9328616354096
 31
0.0
  0
ARC
  5
1CD
330
1F
100
AcDbEntity
  8
Layer0016
  6
Continuous
 62
    91
370
    18
100
AcDbCircle
 10
20.51798599590345
 20
81.9328616354096
 30
0.0
 40
1.0
100
AcDbArc
 50
269.9999999999997
 51
0.0
  0
LINE
  5
1CE
330
1F
100
AcDbEntity
  8
Layer0016
  6
Continuous
 62
    91
370
    18
100
AcDbLine
 10
20.71799057354017
 20
82.23286087247014
 30
0.0
 11
20.71799057354017
 21
85.23286087247014
 31
0.0
  0
LINE
  5
1CF
330
1F
100
AcDbEntity
  8
Layer0016
  6
Continuous
 62
    91
370
    18
100
AcDbLine
 10
20.71799057354017
 20
95.23286087247014
 30
0.0
 11
20.71799057354017
 21
98.23286087247014
 31
0.0
  0
LINE
  5
1D0
330
1F
100
AcDbEntity
  8
Layer0016
  6
Continuous
 62
    91
370
    18
100
AcDbLine
 10
21.51798599590345
 20
81.9328616354096
 30
0.0
 11
21.51798599590345
 21
85.23286087247014
 31
0.0
  0
LINE
  5
1D1
330
1F
100
AcDbEntity
  8
Layer0016
  6
Continuous
 62
    91
370
    18
100
AcDbLine
 10
21.51798599590345
 20
95.23286087247014
 30
0.0
 11
21.51798599590345
 21
98.53286010953069
 31
0.0
  0
LINE
  5
1D2
330
1F
100
AcDbEntity
  8
Layer0016
  6
Continuous
 62
    91
370
    18
100
AcDbLine
 10
19.31798904766126
 20
101.2328608724701
 30
0.0
 11
18.51798599590345
 21
101.2328608724701
 31
0.0
  0
LINE
  5
1D3
330
1F
100
AcDbEntity
  8
Layer0016
  6
Continuous
 62
    91
370
    18
100
AcDbLine
 10
19.31798904766126
 20
79.23286087247014
 30
0.0
 11
18.51798599590345
 21
79.23286087247014
 31
0.0
  0
LINE
  5
1D4
330
1F
100
AcDbEntity
  8
Layer0016
  6
Continuous
 62
    91
370
    18
100
AcDbLine
 10
28.86799209941908
 20
97.88286239834905
 30
0.0
 11
30.01798599590345
 21
97.88286239834905
 31
0.0
  0
LINE
  5
1D5
330
1F
100
AcDbEntity
  8
Layer0016
  6
Continuous
 62
    91
370
    18
100
AcDbLine
 10
28.86799209941908
 20
83.98286087247014
 30
0.0
 11
30.01798599590345
 21
83.98286087247014
 31
0.0
  0
CIRCLE
  5
1D6
330
1F
100
AcDbEntity
  8
Layer0016
  6
Continuous
 62
    91
370
    18
100
AcDbCircle
 10
28.36799209941908
 20
84.73286087247014
 30
0.0
 40
0.5
  0
CIRCLE
  5
1D7
330
1F
100
AcDbEntity
  8
Layer0016
  6
Continuous
 62
    91
370
    18
100
AcDbCircle
 10
19.81798904766126
 20
79.98286087247014
 30
0.0
 40
0.5
  0
CIRCLE
  5
1D8
330
1F
100
AcDbEntity
  8
Layer0016
  6
Continuous
 62
    91
370
    18
100
AcDbCircle
 10
19.81798904766126
 20
100.4828608724701
 30
0.0
 40
0.5
  0
CIRCLE
  5
1D9
330
1F
100
AcDbEntity
  8
Layer0016
  6
Continuous
 62
    91
370
    18
100
AcDbCircle
 10
28.36799209941908
 20
95.73286087247014
 30
0.0
 40
0.5
  0
LINE
  5
1DA
330
1F
100
AcDbEntity
  8
Layer0016
  6
Continuous
 62
    91
370
    18
100
AcDbLine
 10
9.017985995903452
 20
95.35786087247014
 30
0.0
 11
18.51798599590345
 21
95.35786087247014
 31
0.0
  0
LINE
  5
1DB
330
1F
100
AcDbEntity
  8
Layer0016
  6
Continuous
 62
    91
370
    18
100
AcDbLine
 10
9.017985995903452
 20
85.10786087247014
 30
0.0
 11
18.51798599590345
 21
85.10786087247014
 31
0.0
  0
LINE
  5
1DC
330
1F
100
AcDbEntity
  8
Layer0016
  6
Continuous
 62
    91
370
    18
100
AcDbLine
 10
9.017985995903452
 20
98.23286087247014
 30
0.0
 11
18.51798599590345
 21
98.23286087247014
 31
0.0
  0
LINE
  5
1DD
330
1F
100
AcDbEntity
  8
Layer0016
  6
Continuous
 62
    91
370
    18
100
AcDbLine
 10
9.017985995903452
 20
82.23286087247014
 30
0.0
 11
18.51798599590345
 21
82.23286087247014
 31
0.0
  0
ARC
  5
1DE
330
1F
100
AcDbEntity
  8
Layer0016
  6
Continuous
 62
    91
370
    18
100
AcDbCircle
 10
13.51798599590345
 20
94.63286239834905
 30
0.0
 40
1.0
100
AcDbArc
 50
133.5312791023465
 51
46.46872089765343
  0
ARC
  5
1DF
330
1F
100
AcDbEntity
  8
Layer0016
  6
Continuous
 62
    91
370
    18
100
AcDbCircle
 10
13.51798599590345
 20
85.8328631612885
 30
0.0
 40
1.0
100
AcDbArc
 50
313.5309617643562
 51
226.4690382356438
  0
LINE
  5
1E0
330
1F
100
AcDbEntity
  8
Layer0016
  6
Continuous
 62
    91
370
    18
100
AcDbLine
 10
9.017985995903452
 20
-22.26713912752986
 30
0.0
 11
18.51798599590345
 21
-22.26713912752986
 31
0.0
  0
LINE
  5
1E1
330
1F
100
AcDbEntity
  8
Layer0016
  6
Continuous
 62
    91
370
    18
100
AcDbLine
 10
-34.48201400409649
 20
104.3828608724701
 30
0.0
 11
-34.48201400409649
 21
108.7328608724701
 31
0.0
  0
LINE
  5
1E2
330
1F
100
AcDbEntity
  8
Layer0016
  6
Continuous
 62
    91
370
    18
100
AcDbLine
 10
-34.48201400409649
 20
108.7328608724701
 30
0.0
 11
-33.48201400409653
 21
109.7328608724701
 31
0.0
  0
LINE
  5
1E3
330
1F
100
AcDbEntity
  8
Layer0016
  6
Continuous
 62
    91
370
    18
100
AcDbLine
 10
-9.482014004096492
 20
104.4828608724701
 30
0.0
 11
-9.482014004096492
 21
100.5828608724701
 31
0.0
  0
LINE
  5
1E4
330
1F
100
AcDbEntity
  8
Layer0016
  6
Continuous
 62
    91
370
    18
100
AcDbLine
 10
-9.482014004096492
 20
81.23286087247025
 30
0.0
 11
-9.482014004096492
 21
75.23286087247011
 31
0.0
  0
LINE
  5
1E5
330
1F
100
AcDbEntity
  8
Layer0016
  6
Continuous
 62
    91
370
    18
100
AcDbLine
 10
-12.48201400409649
 20
109.73286087247
 30
0.0
 11
-33.48201400409653
 21
109.7328608724701
 31
0.0
  0
LINE
  5
1E6
330
1F
100
AcDbEntity
  8
Layer0016
  6
Continuous
 62
    91
370
    18
100
AcDbLine
 10
-18.48201400409649
 20
104.53286087247
 30
0.0
 11
-18.48201400409649
 21
75.08286087247014
 31
0.0
  0
LINE
  5
1E7
330
1F
100
AcDbEntity
  8
Layer0016
  6
Continuous
 62
    91
370
    18
100
AcDbLine
 10
-12.48201400409649
 20
109.7328608724701
 30
0.0
 11
-12.48201400409649
 21
104.4828608724702
 31
0.0
  0
LINE
  5
1E8
330
1F
100
AcDbEntity
  8
Layer0016
  6
Continuous
 62
    91
370
    18
100
AcDbLine
 10
-12.48201400409649
 20
100.5828608724702
 30
0.0
 11
-12.48201400409649
 21
81.23286087247014
 31
0.0
  0
LINE
  5
1E9
330
1F
100
AcDbEntity
  8
Layer0016
  6
Continuous
 62
    91
370
    18
100
AcDbLine
 10
-12.48201400409649
 20
104.4828608724702
 30
0.0
 11
-9.482014004096492
 21
104.4828608724703
 31
0.0
  0
LINE
  5
1EA
330
1F
100
AcDbEntity
  8
Layer0016
  6
Continuous
 62
    91
370
    18
100
AcDbLine
 10
-12.48201400409649
 20
100.5828608724701
 30
0.0
 11
-9.482014004096492
 21
100.5828608724701
 31
0.0
  0
LINE
  5
1EB
330
1F
100
AcDbEntity
  8
Layer0016
  6
Continuous
 62
    91
370
    18
100
AcDbLine
 10
-12.48201400409649
 20
81.23286087247017
 30
0.0
 11
-9.482014004096492
 21
81.2328608724702
 31
0.0
  0
LINE
  5
1EC
330
1F
100
AcDbEntity
  8
Layer0016
  6
Continuous
 62
    91
370
    18
100
AcDbLine
 10
-11.48201400409649
 20
75.23286087247023
 30
0.0
 11
-9.482014004096492
 21
75.23286087247011
 31
0.0
  0
LINE
  5
1ED
330
1F
100
AcDbEntity
  8
Layer0016
  6
Continuous
 62
    91
370
    18
100
AcDbLine
 10
-34.48201400409649
 20
104.5328608724701
 30
0.0
 11
-18.48201400409649
 21
104.5328608724701
 31
0.0
  0
LINE
  5
1EE
330
1F
100
AcDbEntity
  8
Layer0016
  6
Continuous
 62
    91
370
    18
100
AcDbLine
 10
-31.7820140040965
 20
75.08286087247014
 30
0.0
 11
-18.48201400409649
 21
75.08286087247014
 31
0.0
  0
LINE
  5
1EF
330
1F
100
AcDbEntity
  8
Layer0016
  6
Continuous
 62
    91
370
    18
100
AcDbLine
 10
-31.7820140040965
 20
71.23286087247008
 30
0.0
 11
-17.48201400409655
 21
71.23286087247014
 31
0.0
  0
LINE
  5
1F0
330
1F
100
AcDbEntity
  8
Layer0016
  6
Continuous
 62
    91
370
    18
100
AcDbLine
 10
-31.7820140040965
 20
75.08286087247014
 30
0.0
 11
-31.78201400409647
 21
67.23286087247011
 31
0.0
  0
LINE
  5
1F1
330
1F
100
AcDbEntity
  8
Layer0016
  6
Continuous
 62
    91
370
    18
100
AcDbLine
 10
-17.48201400409649
 20
61.23286087247014
 30
0.0
 11
-11.48201400409649
 21
61.23286087247028
 31
0.0
  0
LINE
  5
1F2
330
1F
100
AcDbEntity
  8
Layer0016
  6
Continuous
 62
    91
370
    18
100
AcDbLine
 10
-34.48201400409649
 20
-22.06713912752985
 30
0.0
 11
-34.48201400409649
 21
-26.26713912752986
 31
0.0
  0
LINE
  5
1F3
330
1F
100
AcDbEntity
  8
Layer0016
  6
Continuous
 62
    91
370
    18
100
AcDbLine
 10
-34.48201400409649
 20
-26.26713912752986
 30
0.0
 11
-33.48201400409649
 21
-27.26713912752986
 31
0.0
  0
LINE
  5
1F4
330
1F
100
AcDbEntity
  8
Layer0016
  6
Continuous
 62
    91
370
    18
100
AcDbLine
 10
-9.482014004096492
 20
-22.01713912753
 30
0.0
 11
-9.482014004096492
 21
-18.1171391275298
 31
0.0
  0
LINE
  5
1F5
330
1F
100
AcDbEntity
  8
Layer0016
  6
Continuous
 62
    91
370
    18
100
AcDbLine
 10
-9.482014004096492
 20
1.232860872470024
 30
0.0
 11
-9.482014004096492
 21
7.23286087247017
 31
0.0
  0
LINE
  5
1F6
330
1F
100
AcDbEntity
  8
Layer0016
  6
Continuous
 62
    91
370
    18
100
AcDbLine
 10
-12.48201400409649
 20
-27.26713912752975
 30
0.0
 11
-33.48201400409649
 21
-27.26713912752986
 31
0.0
  0
LINE
  5
1F7
330
1F
100
AcDbEntity
  8
Layer0016
  6
Continuous
 62
    91
370
    18
100
AcDbLine
 10
-18.48201400409649
 20
-22.06713912752973
 30
0.0
 11
-18.48201400409649
 21
7.382860872470147
 31
0.0
  0
LINE
  5
1F8
330
1F
100
AcDbEntity
  8
Layer0016
  6
Continuous
 62
    91
370
    18
100
AcDbLine
 10
-12.48201400409649
 20
-27.26713912752981
 30
0.0
 11
-12.48201400409649
 21
-22.01713912752989
 31
0.0
  0
LINE
  5
1F9
330
1F
100
AcDbEntity
  8
Layer0016
  6
Continuous
 62
    91
370
    18
100
AcDbLine
 10
-12.48201400409649
 20
-18.11713912752993
 30
0.0
 11
-12.48201400409649
 21
1.232860872470138
 31
0.0
  0
LINE
  5
1FA
330
1F
100
AcDbEntity
  8
Layer0016
  6
Continuous
 62
    91
370
    18
100
AcDbLine
 10
-12.48201400409649
 20
-22.01713912752995
 30
0.0
 11
-9.482014004096492
 21
-22.01713912753
 31
0.0
  0
LINE
  5
1FB
330
1F
100
AcDbEntity
  8
Layer0016
  6
Continuous
 62
    91
370
    18
100
AcDbLine
 10
-12.48201400409649
 20
-18.1171391275298
 30
0.0
 11
-9.482014004096492
 21
-18.1171391275298
 31
0.0
  0
LINE
  5
1FC
330
1F
100
AcDbEntity
  8
Layer0016
  6
Continuous
 62
    91
370
    18
100
AcDbLine
 10
-12.48201400409649
 20
1.232860872470095
 30
0.0
 11
-9.482014004096492
 21
1.232860872470066
 31
0.0
  0
LINE
  5
1FD
330
1F
100
AcDbEntity
  8
Layer0016
  6
Continuous
 62
    91
370
    18
100
AcDbLine
 10
-11.48201400409649
 20
7.232860872470056
 30
0.0
 11
-9.482014004096492
 21
7.23286087247017
 31
0.0
  0
LINE
  5
1FE
330
1F
100
AcDbEntity
  8
Layer0016
  6
Continuous
 62
    91
370
    18
100
AcDbLine
 10
-34.48201400409649
 20
-22.06713912752985
 30
0.0
 11
-18.48201400409649
 21
-22.06713912752985
 31
0.0
  0
LINE
  5
1FF
330
1F
100
AcDbEntity
  8
Layer0016
  6
Continuous
 62
    91
370
    18
100
AcDbLine
 10
-31.7820140040965
 20
7.382860872470133
 30
0.0
 11
-18.48201400409649
 21
7.382860872470147
 31
0.0
  0
LINE
  5
200
330
1F
100
AcDbEntity
  8
Layer0016
  6
Continuous
 62
    91
370
    18
100
AcDbLine
 10
-31.7820140040965
 20
11.23286087247018
 30
0.0
 11
-17.48201400409655
 21
11.23286087247014
 31
0.0
  0
LINE
  5
201
330
1F
100
AcDbEntity
  8
Layer0016
  6
Continuous
 62
    91
370
    18
100
AcDbLine
 10
-31.7820140040965
 20
7.382860872470147
 30
0.0
 11
-31.7820140040965
 21
15.23286087247011
 31
0.0
  0
LINE
  5
202
330
1F
100
AcDbEntity
  8
Layer0016
  6
Continuous
 62
    91
370
    18
100
AcDbLine
 10
-17.48201400409649
 20
21.23286087247013
 30
0.0
 11
-11.48201400409649
 21
21.23286087247
 31
0.0
  0
LINE
  5
203
330
1F
100
AcDbEntity
  8
Layer0016
  6
Continuous
 62
    91
370
    18
100
AcDbLine
 10
-11.48201400409655
 20
7.232860872470269
 30
0.0
 11
-11.48201400409649
 21
75.23286087247023
 31
0.0
  0
LINE
  5
204
330
1F
100
AcDbEntity
  8
Layer0016
  6
Continuous
 62
    91
370
    18
100
AcDbLine
 10
-35.78201400409655
 20
75.23286087247014
 30
0.0
 11
-35.78201400409656
 21
61.23286087247016
 31
0.0
  0
LINE
  5
205
330
1F
100
AcDbEntity
  8
Layer0016
  6
Continuous
 62
    91
370
    18
100
AcDbLine
 10
-35.78201400409655
 20
61.23286087247016
 30
0.0
 11
-50.78201400409655
 21
61.23286087247014
 31
0.0
  0
LINE
  5
206
330
1F
100
AcDbEntity
  8
Layer0016
  6
Continuous
 62
    91
370
    18
100
AcDbLine
 10
-50.78201400409655
 20
60.23286087247006
 30
0.0
 11
-50.78201400409655
 21
73.73286087247014
 31
0.0
  0
LINE
  5
207
330
1F
100
AcDbEntity
  8
Layer0016
  6
Continuous
 62
    91
370
    18
100
AcDbLine
 10
-35.78201400409655
 20
7.232860872470141
 30
0.0
 11
-35.78201400409655
 21
21.23286087247016
 31
0.0
  0
LINE
  5
208
330
1F
100
AcDbEntity
  8
Layer0016
  6
Continuous
 62
    91
370
    18
100
AcDbLine
 10
-35.78201400409655
 20
21.23286087247016
 30
0.0
 11
-50.78201400409655
 21
21.23286087247014
 31
0.0
  0
LINE
  5
209
330
1F
100
AcDbEntity
  8
Layer0016
  6
Continuous
 62
    91
370
    18
100
AcDbLine
 10
-50.78201400409663
 20
22.23286087247021
 30
0.0
 11
-50.78201400409655
 21
8.732860872470141
 31
0.0
  0
LINE
  5
20A
330
1F
100
AcDbEntity
  8
Layer0016
  6
Continuous
 62
    91
370
    18
100
AcDbLine
 10
-35.72201400409687
 20
76.73286087247014
 30
0.0
 11
-35.72201400409687
 21
70.73286087247014
 31
0.0
  0
LINE
  5
20B
330
1F
100
AcDbEntity
  8
Layer0016
  6
Continuous
 62
    91
370
    18
100
AcDbLine
 10
-33.22201400409654
 20
76.73286087247014
 30
0.0
 11
-33.22201400409654
 21
70.73286087247014
 31
0.0
  0
LINE
  5
20C
330
1F
100
AcDbEntity
  8
Layer0016
  6
Continuous
 62
    91
370
    18
100
AcDbLine
 10
-35.72201400409687
 20
70.73286087247014
 30
0.0
 11
-33.22201400409654
 21
70.73286087247014
 31
0.0
  0
LINE
  5
20D
330
1F
100
AcDbEntity
  8
Layer0016
  6
Continuous
 62
    91
370
    18
100
AcDbLine
 10
-35.72201400409687
 20
5.732860872470138
 30
0.0
 11
-35.72201400409687
 21
11.73286087247014
 31
0.0
  0
LINE
  5
20E
330
1F
100
AcDbEntity
  8
Layer0016
  6
Continuous
 62
    91
370
    18
100
AcDbLine
 10
-33.22201400409654
 20
5.732860872470138
 30
0.0
 11
-33.22201400409654
 21
11.73286087247014
 31
0.0
  0
LINE
  5
20F
330
1F
100
AcDbEntity
  8
Layer0016
  6
Continuous
 62
    91
370
    18
100
AcDbLine
 10
-35.72201400409687
 20
11.73286087247014
 30
0.0
 11
-33.22201400409654
 21
11.73286087247014
 31
0.0
  0
LINE
  5
210
330
1F
100
AcDbEntity
  8
Layer0016
  6
Continuous
 62
    91
370
    18
100
AcDbLine
 10
-53.98201400409655
 20
61.23286087247014
 30
0.0
 11
-52.53201400409659
 21
61.23286087247014
 31
0.0
  0
LINE
  5
211
330
1F
100
AcDbEntity
  8
Layer0016
  6
Continuous
 62
    91
370
    18
100
AcDbLine
 10
-53.98201400409655
 20
21.23286087247014
 30
0.0
 11
-52.5320140040966
 21
21.23286087247014
 31
0.0
  0
LINE
  5
212
330
1F
100
AcDbEntity
  8
Layer0016
  6
Continuous
 62
    91
370
    18
100
AcDbLine
 10
-52.53201400409655
 20
60.23286087247006
 30
0.0
 11
-52.53201400409659
 21
66.0328608724705
 31
0.0
  0
LINE
  5
213
330
1F
100
AcDbEntity
  8
Layer0016
  6
Continuous
 62
    91
370
    18
100
AcDbLine
 10
-50.78201400409655
 20
60.23286087247006
 30
0.0
 11
-52.53201400409655
 21
60.23286087247006
 31
0.0
  0
LINE
  5
214
330
1F
100
AcDbEntity
  8
Layer0016
  6
Continuous
 62
    91
370
    18
100
AcDbLine
 10
-50.78201400409659
 20
66.03286087247007
 30
0.0
 11
-52.53201400409655
 21
66.03286087247007
 31
0.0
  0
LINE
  5
215
330
1F
100
AcDbEntity
  8
Layer0016
  6
Continuous
 62
    91
370
    18
100
AcDbLine
 10
-52.53201400409663
 20
22.23286087247021
 30
0.0
 11
-52.53201400409663
 21
17.73286087247021
 31
0.0
  0
LINE
  5
216
330
1F
100
AcDbEntity
  8
Layer0016
  6
Continuous
 62
    91
370
    18
100
AcDbLine
 10
-50.78201400409663
 20
22.23286087247021
 30
0.0
 11
-52.53201400409663
 21
22.23286087247021
 31
0.0
  0
LINE
  5
217
330
1F
100
AcDbEntity
  8
Layer0016
  6
Continuous
 62
    91
370
    18
100
AcDbLine
 10
-52.53201400409663
 20
17.73286087247021
 30
0.0
 11
-50.78201400409663
 21
17.73286087247021
 31
0.0
  0
LINE
  5
218
330
1F
100
AcDbEntity
  8
Layer0016
  6
Continuous
 62
    91
370
    18
100
AcDbLine
 10
9.017985995903452
 20
9.732860872470141
 30
0.0
 11
9.017985995903452
 21
-22.26713912752986
 31
0.0
  0
LINE
  5
219
330
1F
100
AcDbEntity
  8
Layer0016
  6
Continuous
 62
    91
370
    18
100
AcDbLine
 10
18.51798599590345
 20
9.732860872470141
 30
0.0
 11
18.51798599590345
 21
-22.26713912752986
 31
0.0
  0
LINE
  5
21A
330
1F
100
AcDbEntity
  8
Layer0016
  6
Continuous
 62
    91
370
    18
100
AcDbLine
 10
-35.78201400409653
 20
67.23286087247011
 30
0.0
 11
-31.7820140040965
 21
67.23286087247014
 31
0.0
  0
LINE
  5
21B
330
1F
100
AcDbEntity
  8
Layer0016
  6
Continuous
 62
    91
370
    18
100
AcDbLine
 10
-35.78201400409653
 20
15.23286087247011
 30
0.0
 11
-31.78201400409647
 21
15.23286087247011
 31
0.0
  0
LINE
  5
21C
330
1F
100
AcDbEntity
  8
Layer0016
  6
Continuous
 62
    91
370
    18
100
AcDbLine
 10
20.01798599590345
 20
71.23286087247014
 30
0.0
 11
34.58225577915884
 21
71.23286087247014
 31
0.0
  0
ARC
  5
21D
330
1F
100
AcDbEntity
  8
Layer0016
  6
Continuous
 62
    91
370
    18
100
AcDbCircle
 10
34.51798599590345
 20
69.73286087247013
 30
0.0
 40
1.5
100
AcDbArc
 50
0.0
 51
89.99999999999999
  0
ARC
  5
21E
330
1F
100
AcDbEntity
  8
Layer0016
  6
Continuous
 62
    91
370
    18
100
AcDbCircle
 10
20.01798599590345
 20
72.73286087247014
 30
0.0
 40
1.5
100
AcDbArc
 50
180.0
 51
269.9999999999999
  0
ARC
  5
21F
330
1F
100
AcDbEntity
  8
Layer0016
  6
Continuous
 62
    91
370
    18
100
AcDbCircle
 10
20.01798599590345
 20
9.732860872470141
 30
0.0
 40
1.5
100
AcDbArc
 50
89.99999999999999
 51
180.0
  0
ARC
  5
220
330
1F
100
AcDbEntity
  8
Layer0016
  6
Continuous
 62
    91
370
    18
100
AcDbCircle
 10
34.51798599590345
 20
12.73286087247016
 30
0.0
 40
1.5
100
AcDbArc
 50
269.9999999999999
 51
0.0
  0
LINE
  5
221
330
1F
100
AcDbEntity
  8
Layer0016
  6
Continuous
 62
    91
370
    18
100
AcDbLine
 10
1.017985995903452
 20
69.73286087247014
 30
0.0
 11
1.017985995903452
 21
12.73286087247014
 31
0.0
  0
LINE
  5
222
330
1F
100
AcDbEntity
  8
Layer0016
  6
Continuous
 62
    91
370
    18
100
AcDbLine
 10
2.517985995903452
 20
71.23286087247014
 30
0.0
 11
7.517985995903452
 21
71.23286087247014
 31
0.0
  0
ARC
  5
223
330
1F
100
AcDbEntity
  8
Layer0016
  6
Continuous
 62
    91
370
    18
100
AcDbCircle
 10
2.517985995903452
 20
69.73286087247014
 30
0.0
 40
1.5
100
AcDbArc
 50
89.99999999999999
 51
180.0
  0
ARC
  5
224
330
1F
100
AcDbEntity
  8
Layer0016
  6
Continuous
 62
    91
370
    18
100
AcDbCircle
 10
7.517985995903452
 20
72.73286087247014
 30
0.0
 40
1.5
100
AcDbArc
 50
269.9999999999999
 51
0.0
  0
LINE
  5
225
330
1F
100
AcDbEntity
  8
Layer0016
  6
Continuous
 62
    91
370
    18
100
AcDbLine
 10
2.517985995903452
 20
11.23286087247014
 30
0.0
 11
7.517985995903452
 21
11.23286087247014
 31
0.0
  0
ARC
  5
226
330
1F
100
AcDbEntity
  8
Layer0016
  6
Continuous
 62
    91
370
    18
100
AcDbCircle
 10
7.517985995903452
 20
9.732860872470141
 30
0.0
 40
1.5
100
AcDbArc
 50
0.0
 51
89.99999999999999
  0
ARC
  5
227
330
1F
100
AcDbEntity
  8
Layer0016
  6
Continuous
 62
    91
370
    18
100
AcDbCircle
 10
2.517985995903452
 20
12.73286087247014
 30
0.0
 40
1.5
100
AcDbArc
 50
180.0
 51
269.9999999999999
  0
LINE
  5
228
330
1F
100
AcDbEntity
  8
Layer0016
  6
Continuous
 62
    91
370
    18
100
AcDbLine
 10
-53.98201400409655
 20
-30.46713912752985
 30
0.0
 11
-50.48201400409655
 21
-30.46713912752985
 31
0.0
  0
LINE
  5
229
330
1F
100
AcDbEntity
  8
Layer0016
  6
Continuous
 62
    91
370
    18
100
AcDbLine
 10
-53.98201400409655
 20
-37.06713912752985
 30
0.0
 11
-50.48201400409655
 21
-37.06713912752985
 31
0.0
  0
LINE
  5
22A
330
1F
100
AcDbEntity
  8
Layer0016
  6
Continuous
 62
    91
370
    18
100
AcDbLine
 10
20.01798599590345
 20
11.23286087247014
 30
0.0
 11
34.51798599590345
 21
11.23286087247016
 31
0.0
  0
LINE
  5
22B
330
1F
100
AcDbEntity
  8
Layer0016
  6
Continuous
 62
    91
370
    18
100
AcDbLine
 10
-17.48201400409655
 20
71.23286087247014
 30
0.0
 11
-17.48201400409655
 21
61.23286087247014
 31
0.0
  0
LINE
  5
22C
330
1F
100
AcDbEntity
  8
Layer0016
  6
Continuous
 62
    91
370
    18
100
AcDbLine
 10
-8.982014004096548
 20
-22.76713912752986
 30
0.0
 11
-8.982014004096548
 21
105.2328608724701
 31
0.0
  0
LINE
  5
22D
330
1F
100
AcDbEntity
  8
Layer0016
  6
Continuous
 62
    91
370
    18
100
AcDbLine
 10
-17.48201400409655
 20
11.23286087247014
 30
0.0
 11
-17.48201400409655
 21
21.23286087247013
 31
0.0
  0
LINE
  5
22E
330
1F
100
AcDbEntity
  8
Layer0016
  6
Continuous
 62
    91
370
    18
100
AcDbLine
 10
-53.98201400409655
 20
-43.76713912752986
 30
0.0
 11
-53.98201400409655
 21
104.7328608724701
 31
0.0
  0
LINE
  5
22F
330
1F
100
AcDbEntity
  8
Layer0016
  6
Continuous
 62
    91
370
    18
100
AcDbLine
 10
-53.98201400409655
 20
-43.76713912752986
 30
0.0
 11
-50.48201400409655
 21
-43.76713912752986
 31
0.0
  0
LINE
  5
230
330
1F
100
AcDbEntity
  8
Layer0016
  6
Continuous
 62
    91
370
    18
100
AcDbLine
 10
-50.48201400409655
 20
7.232860872470141
 30
0.0
 11
-50.48201400409655
 21
-43.76713912752986
 31
0.0
  0
POINT
  5
231
330
1F
100
AcDbEntity
  8
Layer0016
  6
Continuous
 62
     5
100
AcDbPoint
 10
99.16898331947755
 20
41.23286087247014
 30
0.0
  0
CIRCLE
  5
232
330
1F
100
AcDbEntity
  8
Layer0016
  6
Continuous
 62
    91
370
    25
100
AcDbCircle
 10
161.6689833194775
 20
41.23286087247021
 30
0.0
 40
68.5
  0
CIRCLE
  5
233
330
1F
100
AcDbEntity
  8
0
  6
Continuous
 62
    91
370
    25
100
AcDbCircle
 10
-190.1279437519065
 20
41.23286087247011
 30
0.0
 40
20.0
  0
LINE
  5
234
330
1F
100
AcDbEntity
  8
0
  6
Continuous
 62
    91
370
    25
100
AcDbLine
 10
-193.6279437519065
 20
27.23286087247016
 30
0.0
 11
-186.6279437519065
 21
27.23286087247016
 31
0.0
  0
LINE
  5
235
330
1F
100
AcDbEntity
  8
0
  6
Continuous
 62
    91
370
    25
100
AcDbLine
 10
-193.6279437519065
 20
27.23286087247016
 30
0.0
 11
-193.6279437519065
 21
30.80453406516301
 31
0.0
  0
LINE
  5
236
330
1F
100
AcDbEntity
  8
0
  6
Continuous
 62
    91
370
    25
100
AcDbLine
 10
-186.6279437519065
 20
27.23286087247016
 30
0.0
 11
-186.6279437519065
 21
30.80453406516301
 31
0.0
  0
ARC
  5
237
330
1F
100
AcDbEntity
  8
0
  6
Continuous
 62
    91
370
    25
100
AcDbCircle
 10
-190.1279437519065
 20
41.23286087247016
 30
0.0
 40
11.0
100
AcDbArc
 50
288.5530045350207
 51
251.4469954649793
  0
LINE
  5
238
330
1F
100
AcDbEntity
  8
0
  6
Continuous
 62
    91
370
    25
100
AcDbLine
 10
158.1689833194775
 20
27.23286087247016
 30
0.0
 11
165.1689833194775
 21
27.23286087247016
 31
0.0
  0
LINE
  5
239
330
1F
100
AcDbEntity
  8
0
  6
Continuous
 62
    91
370
    25
100
AcDbLine
 10
158.1689833194775
 20
27.23286087247016
 30
0.0
 11
158.1689833194775
 21
30.80453406516301
 31
0.0
  0
LINE
  5
23A
330
1F
100
AcDbEntity
  8
0
  6
Continuous
 62
    91
370
    25
100
AcDbLine
 10
165.1689833194775
 20
27.23286087247016
 30
0.0
 11
165.1689833194775
 21
30.80453406516301
 31
0.0
  0
ARC
  5
23B
330
1F
100
AcDbEntity
  8
0
  6
Continuous
 62
    91
370
    25
100
AcDbCircle
 10
161.6689833194775
 20
41.23286087247016
 30
0.0
 40
11.0
100
AcDbArc
 50
288.5530045350207
 51
251.4469954649793
  0
CIRCLE
  5
23C
330
1F
100
AcDbEntity
  8
0
  6
Continuous
 62
    91
370
    25
100
AcDbCircle
 10
161.6689833194775
 20
41.23286087247014
 30
0.0
 40
30.0
  0
LINE
  5
23D
330
1F
100
AcDbEntity
  8
0
  6
Continuous
 62
    91
370
    25
100
AcDbLine
 10
-53.98201400409655
 20
52.23286087247016
 30
0.0
 11
-11.48201400409651
 21
52.23286087247016
 31
0.0
  0
LINE
  5
23E
330
1F
100
AcDbEntity
  8
0
  6
Continuous
 62
    91
370
    25
100
AcDbLine
 10
-53.98201400409655
 20
30.23286087247016
 30
0.0
 11
-11.48201400409653
 21
30.23286087247016
 31
0.0
  0
LINE
  5
23F
330
1F
100
AcDbEntity
  8
0
  6
Continuous
 62
    91
370
    25
100
AcDbLine
 10
-53.98201400409655
 20
27.23286087247016
 30
0.0
 11
-11.48201400409653
 21
27.23286087247016
 31
0.0
  0
LINE
  5
240
330
1F
100
AcDbEntity
  8
0
  6
Continuous
 62
    91
370
    25
100
AcDbLine
 10
1.017985995903445
 20
52.23286087247016
 30
0.0
 11
36.01798599590345
 21
52.23286087247016
 31
0.0
  0
LINE
  5
241
330
1F
100
AcDbEntity
  8
0
  6
Continuous
 62
    91
370
    25
100
AcDbLine
 10
1.017985995903452
 20
30.23286087247016
 30
0.0
 11
36.01798599590345
 21
30.23286087247016
 31
0.0
  0
LINE
  5
242
330
1F
100
AcDbEntity
  8
0
  6
Continuous
 62
    91
370
    25
100
AcDbLine
 10
1.017985995903452
 20
27.23286087247016
 30
0.0
 11
36.01798599590345
 21
27.23286087247016
 31
0.0
  0
INSERT
  5
243
330
1F
100
AcDbEntity
  8
Layer0016
  6
Continuous
100
AcDbBlockReference
  2
DC_GROUP_HMC-50_1
 10
0.0
 20
0.0
 30
0.0
  0
INSERT
  5
244
330
1F
100
AcDbEntity
  8
Layer0016
  6
Continuous
100
AcDbBlockReference
  2
DC_GROUP_HMC-50_2
 10
0.0
 20
0.0
 30
0.0
  0
LINE
  5
245
330
1F
100
AcDbEntity
  8
0
  6
CENTER
 62
     4
370
    18
100
AcDbLine
 10
-192.1279437519065
 20
104.7328608724701
 30
0.0
 11
-192.1279437519065
 21
169.9822833208424
 31
0.0
  0
LINE
  5
246
330
1F
100
AcDbEntity
  8
0
  6
CENTER
 62
     4
370
    18
100
AcDbLine
 10
-188.1279437519065
 20
104.7328608724701
 30
0.0
 11
-188.1279437519065
 21
169.9822833208424
 31
0.0
  0
LINE
  5
247
330
1F
100
AcDbEntity
  8
0
  6
CENTER
 62
     4
370
    18
100
AcDbLine
 10
159.6689833194775
 20
109.7036575671195
 30
0.0
 11
159.6689833194775
 21
169.9822833208424
 31
0.0
  0
LINE
  5
248
330
1F
100
AcDbEntity
  8
0
  6
CENTER
 62
     4
370
    18
100
AcDbLine
 10
163.6689833194775
 20
109.7036575671195
 30
0.0
 11
163.6689833194775
 21
169.9822833208424
 31
0.0
  0
LINE
  5
249
330
1F
100
AcDbEntity
  8
0
  6
CENTER
 62
     4
370
    18
100
AcDbLine
 10
-41.98201400409653
 20
107.7328608724701
 30
0.0
 11
-41.98201400409653
 21
169.9822833208424
 31
0.0
  0
LINE
  5
24A
330
1F
100
AcDbEntity
  8
0
  6
Continuous
 62
    91
370
    18
100
AcDbLine
 10
-194.6279437519065
 20
107.8925103840176
 30
0.0
 11
-185.6279437519065
 21
107.8925103840176
 31
0.0
  0
LINE
  5
24B
330
1F
100
AcDbEntity
  8
0
  6
Continuous
 62
    91
370
    18
100
AcDbLine
 10
-194.6279437519065
 20
107.8925103840176
 30
0.0
 11
-194.6279437519065
 21
104.7328608724701
 31
0.0
  0
LINE
  5
24C
330
1F
100
AcDbEntity
  8
0
  6
Continuous
 62
    91
370
    18
100
AcDbLine
 10
-185.6279437519065
 20
107.8925103840176
 30
0.0
 11
-185.6279437519065
 21
104.7328608724701
 31
0.0
  0
LINE
  5
24D
330
1F
100
AcDbEntity
  8
0
  6
Continuous
 62
    91
370
    18
100
AcDbLine
 10
-193.1279437519065
 20
107.8925103840176
 30
0.0
 11
-193.1279437519065
 21
131.6405835281408
 31
0.0
  0
LINE
  5
24E
330
1F
100
AcDbEntity
  8
0
  6
Continuous
 62
    91
370
    18
100
AcDbLine
 10
-193.1279437519065
 20
134.6405835281408
 30
0.0
 11
-193.1279437519065
 21
148.2394091863389
 31
0.0
  0
LINE
  5
24F
330
1F
100
AcDbEntity
  8
0
  6
Continuous
 62
    91
370
    18
100
AcDbLine
 10
-193.1279437519065
 20
148.2394091863389
 30
0.0
 11
-191.1279437519065
 21
148.2394091863389
 31
0.0
  0
LINE
  5
250
330
1F
100
AcDbEntity
  8
0
  6
Continuous
 62
    91
370
    18
100
AcDbLine
 10
-191.1279437519065
 20
148.2394091863389
 30
0.0
 11
-191.1279437519065
 21
134.6405835281408
 31
0.0
  0
LINE
  5
251
330
1F
100
AcDbEntity
  8
0
  6
Continuous
 62
    91
370
    18
100
AcDbLine
 10
-191.1279437519065
 20
131.6405835281408
 30
0.0
 11
-191.1279437519065
 21
107.8925103840176
 31
0.0
  0
LINE
  5
252
330
1F
100
AcDbEntity
  8
0
  6
Continuous
 62
    91
370
    18
100
AcDbLine
 10
-192.7279437519064
 20
148.2394091863389
 30
0.0
 11
-192.7279437519064
 21
168.2394091863389
 31
0.0
  0
LINE
  5
253
330
1F
100
AcDbEntity
  8
0
  6
Continuous
 62
    91
370
    18
100
AcDbLine
 10
-192.7279437519064
 20
168.2394091863389
 30
0.0
 11
-191.5279437519064
 21
168.2394091863389
 31
0.0
  0
LINE
  5
254
330
1F
100
AcDbEntity
  8
0
  6
Continuous
 62
    91
370
    18
100
AcDbLine
 10
-191.5279437519064
 20
168.2394091863389
 30
0.0
 11
-191.5279437519064
 21
148.2394091863389
 31
0.0
  0
CIRCLE
  5
255
330
1F
100
AcDbEntity
  8
0
  6
Continuous
 62
    91
370
    18
100
AcDbCircle
 10
-192.1279437519065
 20
134.6405835281406
 30
0.0
 40
1.0
  0
ARC
  5
256
330
1F
100
AcDbEntity
  8
0
  6
Continuous
 62
    91
370
    18
100
AcDbCircle
 10
-192.1279437519065
 20
131.6405835281406
 30
0.0
 40
1.0
100
AcDbArc
 50
0.0
 51
180.0000000000002
  0
LINE
  5
257
330
1F
100
AcDbEntity
  8
0
  6
Continuous
 62
    91
370
    18
100
AcDbLine
 10
-189.1279437519065
 20
107.8925103840176
 30
0.0
 11
-189.1279437519065
 21
131.6405835281408
 31
0.0
  0
LINE
  5
258
330
1F
100
AcDbEntity
  8
0
  6
Continuous
 62
    91
370
    18
100
AcDbLine
 10
-189.1279437519065
 20
134.6405835281408
 30
0.0
 11
-189.1279437519065
 21
148.2394091863389
 31
0.0
  0
LINE
  5
259
330
1F
100
AcDbEntity
  8
0
  6
Continuous
 62
    91
370
    18
100
AcDbLine
 10
-189.1279437519065
 20
148.2394091863389
 30
0.0
 11
-187.1279437519065
 21
148.2394091863389
 31
0.0
  0
LINE
  5
25A
330
1F
100
AcDbEntity
  8
0
  6
Continuous
 62
    91
370
    18
100
AcDbLine
 10
-187.1279437519065
 20
148.2394091863389
 30
0.0
 11
-187.1279437519065
 21
134.6405835281408
 31
0.0
  0
LINE
  5
25B
330
1F
100
AcDbEntity
  8
0
  6
Continuous
 62
    91
370
    18
100
AcDbLine
 10
-187.1279437519065
 20
131.6405835281408
 30
0.0
 11
-187.1279437519065
 21
107.8925103840176
 31
0.0
  0
LINE
  5
25C
330
1F
100
AcDbEntity
  8
0
  6
Continuous
 62
    91
370
    18
100
AcDbLine
 10
-188.7279437519064
 20
148.2394091863389
 30
0.0
 11
-188.7279437519064
 21
168.2394091863389
 31
0.0
  0
LINE
  5
25D
330
1F
100
AcDbEntity
  8
0
  6
Continuous
 62
    91
370
    18
100
AcDbLine
 10
-188.7279437519064
 20
168.2394091863389
 30
0.0
 11
-187.5279437519064
 21
168.2394091863389
 31
0.0
  0
LINE
  5
25E
330
1F
100
AcDbEntity
  8
0
  6
Continuous
 62
    91
370
    18
100
AcDbLine
 10
-187.5279437519064
 20
168.2394091863389
 30
0.0
 11
-187.5279437519064
 21
148.2394091863389
 31
0.0
  0
CIRCLE
  5
25F
330
1F
100
AcDbEntity
  8
0
  6
Continuous
 62
    91
370
    18
100
AcDbCircle
 10
-188.1279437519065
 20
131.6405835281408
 30
0.0
 40
1.0
  0
ARC
  5
260
330
1F
100
AcDbEntity
  8
0
  6
Continuous
 62
    91
370
    18
100
AcDbCircle
 10
-188.1279437519065
 20
134.6405835281408
 30
0.0
 40
1.0
100
AcDbArc
 50
179.9999999999998
 51
0.0
  0
LINE
  5
261
330
1F
100
AcDbEntity
  8
0
  6
Continuous
 62
    91
370
    18
100
AcDbLine
 10
158.6689833194775
 20
109.667135910641
 30
0.0
 11
158.6689833194775
 21
131.6405835281408
 31
0.0
  0
LINE
  5
262
330
1F
100
AcDbEntity
  8
0
  6
Continuous
 62
    91
370
    18
100
AcDbLine
 10
158.6689833194775
 20
134.6405835281408
 30
0.0
 11
158.6689833194775
 21
148.2394091863389
 31
0.0
  0
LINE
  5
263
330
1F
100
AcDbEntity
  8
0
  6
Continuous
 62
    91
370
    18
100
AcDbLine
 10
158.6689833194775
 20
148.2394091863389
 30
0.0
 11
160.6689833194775
 21
148.2394091863389
 31
0.0
  0
LINE
  5
264
330
1F
100
AcDbEntity
  8
0
  6
Continuous
 62
    91
370
    18
100
AcDbLine
 10
160.6689833194775
 20
148.2394091863389
 30
0.0
 11
160.6689833194775
 21
134.6405835281408
 31
0.0
  0
LINE
  5
265
330
1F
100
AcDbEntity
  8
0
  6
Continuous
 62
    91
370
    18
100
AcDbLine
 10
160.6689833194775
 20
131.6405835281408
 30
0.0
 11
160.6689833194775
 21
109.7255612134554
 31
0.0
  0
LINE
  5
266
330
1F
100
AcDbEntity
  8
0
  6
Continuous
 62
    91
370
    18
100
AcDbLine
 10
159.0689833194775
 20
148.2394091863389
 30
0.0
 11
159.0689833194775
 21
168.2394091863389
 31
0.0
  0
LINE
  5
267
330
1F
100
AcDbEntity
  8
0
  6
Continuous
 62
    91
370
    18
100
AcDbLine
 10
159.0689833194775
 20
168.2394091863389
 30
0.0
 11
160.2689833194775
 21
168.2394091863389
 31
0.0
  0
LINE
  5
268
330
1F
100
AcDbEntity
  8
0
  6
Continuous
 62
    91
370
    18
100
AcDbLine
 10
160.2689833194775
 20
168.2394091863389
 30
0.0
 11
160.2689833194775
 21
148.2394091863389
 31
0.0
  0
CIRCLE
  5
269
330
1F
100
AcDbEntity
  8
0
  6
Continuous
 62
    91
370
    18
100
AcDbCircle
 10
159.6689833194775
 20
134.6405835281406
 30
0.0
 40
1.0
  0
ARC
  5
26A
330
1F
100
AcDbEntity
  8
0
  6
Continuous
 62
    91
370
    18
100
AcDbCircle
 10
159.6689833194775
 20
131.6405835281406
 30
0.0
 40
1.0
100
AcDbArc
 50
0.0
 51
180.0000000000002
  0
LINE
  5
26B
330
1F
100
AcDbEntity
  8
0
  6
Continuous
 62
    91
370
    18
100
AcDbLine
 10
162.6689833194775
 20
109.7255612134554
 30
0.0
 11
162.6689833194775
 21
131.6405835281408
 31
0.0
  0
LINE
  5
26C
330
1F
100
AcDbEntity
  8
0
  6
Continuous
 62
    91
370
    18
100
AcDbLine
 10
162.6689833194775
 20
134.6405835281408
 30
0.0
 11
162.6689833194775
 21
148.2394091863389
 31
0.0
  0
LINE
  5
26D
330
1F
100
AcDbEntity
  8
0
  6
Continuous
 62
    91
370
    18
100
AcDbLine
 10
162.6689833194775
 20
148.2394091863389
 30
0.0
 11
164.6689833194775
 21
148.2394091863389
 31
0.0
  0
LINE
  5
26E
330
1F
100
AcDbEntity
  8
0
  6
Continuous
 62
    91
370
    18
100
AcDbLine
 10
164.6689833194775
 20
148.2394091863389
 30
0.0
 11
164.6689833194775
 21
134.6405835281408
 31
0.0
  0
LINE
  5
26F
330
1F
100
AcDbEntity
  8
0
  6
Continuous
 62
    91
370
    18
100
AcDbLine
 10
164.6689833194775
 20
131.6405835281408
 30
0.0
 11
164.6689833194775
 21
109.667135910641
 31
0.0
  0
LINE
  5
270
330
1F
100
AcDbEntity
  8
0
  6
Continuous
 62
    91
370
    18
100
AcDbLine
 10
163.0689833194775
 20
148.2394091863389
 30
0.0
 11
163.0689833194775
 21
168.2394091863389
 31
0.0
  0
LINE
  5
271
330
1F
100
AcDbEntity
  8
0
  6
Continuous
 62
    91
370
    18
100
AcDbLine
 10
163.0689833194775
 20
168.2394091863389
 30
0.0
 11
164.2689833194775
 21
168.2394091863389
 31
0.0
  0
LINE
  5
272
330
1F
100
AcDbEntity
  8
0
  6
Continuous
 62
    91
370
    18
100
AcDbLine
 10
164.2689833194775
 20
168.2394091863389
 30
0.0
 11
164.2689833194775
 21
148.2394091863389
 31
0.0
  0
CIRCLE
  5
273
330
1F
100
AcDbEntity
  8
0
  6
Continuous
 62
    91
370
    18
100
AcDbCircle
 10
163.6689833194775
 20
131.6405835281408
 30
0.0
 40
1.0
  0
ARC
  5
274
330
1F
100
AcDbEntity
  8
0
  6
Continuous
 62
    91
370
    18
100
AcDbCircle
 10
163.6689833194775
 20
134.6405835281408
 30
0.0
 40
1.0
100
AcDbArc
 50
179.9999999999998
 51
0.0
  0
LINE
  5
275
330
1F
100
AcDbEntity
  8
0
  6
Continuous
 62
    91
370
    18
100
AcDbLine
 10
-42.98201400409653
 20
107.7328608724701
 30
0.0
 11
-42.98201400409653
 21
127.9874711130758
 31
0.0
  0
LINE
  5
276
330
1F
100
AcDbEntity
  8
0
  6
Continuous
 62
    91
370
    18
100
AcDbLine
 10
-42.98201400409653
 20
130.9874711130758
 30
0.0
 11
-42.98201400409653
 21
148.2394091863389
 31
0.0
  0
LINE
  5
277
330
1F
100
AcDbEntity
  8
0
  6
Continuous
 62
    91
370
    18
100
AcDbLine
 10
-42.98201400409653
 20
148.2394091863389
 30
0.0
 11
-40.98201400409653
 21
148.2394091863389
 31
0.0
  0
LINE
  5
278
330
1F
100
AcDbEntity
  8
0
  6
Continuous
 62
    91
370
    18
100
AcDbLine
 10
-40.98201400409653
 20
148.2394091863389
 30
0.0
 11
-40.98201400409653
 21
130.9874711130758
 31
0.0
  0
LINE
  5
279
330
1F
100
AcDbEntity
  8
0
  6
Continuous
 62
    91
370
    18
100
AcDbLine
 10
-40.98201400409653
 20
127.9874711130758
 30
0.0
 11
-40.98201400409653
 21
107.7328608724701
 31
0.0
  0
LINE
  5
27A
330
1F
100
AcDbEntity
  8
0
  6
Continuous
 62
    91
370
    18
100
AcDbLine
 10
-42.58201400409649
 20
148.2394091863389
 30
0.0
 11
-42.58201400409649
 21
168.2394091863389
 31
0.0
  0
LINE
  5
27B
330
1F
100
AcDbEntity
  8
0
  6
Continuous
 62
    91
370
    18
100
AcDbLine
 10
-42.58201400409649
 20
168.2394091863389
 30
0.0
 11
-41.3820140040965
 21
168.2394091863389
 31
0.0
  0
LINE
  5
27C
330
1F
100
AcDbEntity
  8
0
  6
Continuous
 62
    91
370
    18
100
AcDbLine
 10
-41.3820140040965
 20
168.2394091863389
 30
0.0
 11
-41.3820140040965
 21
148.2394091863389
 31
0.0
  0
CIRCLE
  5
27D
330
1F
100
AcDbEntity
  8
0
  6
Continuous
 62
    91
370
    18
100
AcDbCircle
 10
-41.98201400409653
 20
130.9874711130757
 30
0.0
 40
1.0
  0
ARC
  5
27E
330
1F
100
AcDbEntity
  8
0
  6
Continuous
 62
    91
370
    18
100
AcDbCircle
 10
-41.98201400409653
 20
127.9874711130757
 30
0.0
 40
1.0
100
AcDbArc
 50
0.0
 51
180.0000000000002
  0
INSERT
  5
27F
330
1F
100
AcDbEntity
  8
0
  6
Continuous
100
AcDbBlockReference
  2
DC_GROUP_HMC-50_3
 10
0.0
 20
0.0
 30
0.0
  0
INSERT
  5
280
330
1F
100
AcDbEntity
  8
0
  6
Continuous
100
AcDbBlockReference
  2
DC_GROUP_HMC-50_4
 10
0.0
 20
0.0
 30
0.0
  0
INSERT
  5
281
330
1F
100
AcDbEntity
  8
0
  6
Continuous
100
AcDbBlockReference
  2
DC_GROUP_HMC-50_5
 10
0.0
 20
0.0
 30
0.0
  0
INSERT
  5
282
330
1F
100
AcDbEntity
  8
0
  6
Continuous
100
AcDbBlockReference
  2
DC_GROUP_HMC-50_6
 10
0.0
 20
0.0
 30
0.0
  0
INSERT
  5
283
330
1F
100
AcDbEntity
  8
0
  6
Continuous
100
AcDbBlockReference
  2
DC_GROUP_HMC-50_7
 10
0.0
 20
0.0
 30
0.0
  0
INSERT
  5
284
330
1F
100
AcDbEntity
  8
0
  6
Continuous
100
AcDbBlockReference
  2
DC_GROUP_HMC-50_8
 10
0.0
 20
0.0
 30
0.0
  0
INSERT
  5
285
330
1F
100
AcDbEntity
  8
0
  6
Continuous
100
AcDbBlockReference
  2
DC_GROUP_HMC-50_9
 10
0.0
 20
0.0
 30
0.0
  0
CIRCLE
  5
286
330
1F
100
AcDbEntity
  8
0
  6
CENTER
 62
     4
370
    13
100
AcDbCircle
 10
161.6689833194775
 20
41.23286087247016
 30
0.0
 40
49.0
  0
LINE
  5
287
330
1F
100
AcDbEntity
  8
0
  6
Continuous
 62
     7
370
    13
100
AcDbLine
 10
-35.78201400409655
 20
21.23286087247016
 30
0.0
 11
-50.78201400409655
 21
7.232860872470141
 31
0.0
  0
LINE
  5
288
330
1F
100
AcDbEntity
  8
0
  6
Continuous
 62
     7
370
    13
100
AcDbLine
 10
-35.78201400409655
 20
7.232860872470141
 30
0.0
 11
-50.78201400409662
 21
21.23286087247014
 31
0.0
  0
LINE
  5
289
330
1F
100
AcDbEntity
  8
0
  6
Continuous
 62
     7
370
    13
100
AcDbLine
 10
-35.78201400409655
 20
61.23286087247013
 30
0.0
 11
-50.78201400409655
 21
75.23286087247014
 31
0.0
  0
LINE
  5
28A
330
1F
100
AcDbEntity
  8
0
  6
Continuous
 62
     7
370
    13
100
AcDbLine
 10
-35.78201400409655
 20
75.23286087247014
 30
0.0
 11
-50.78201400409662
 21
61.23286087247014
 31
0.0
  0
VIEWPORT
  5
B2
102
{ACAD_XDICTIONARY
360
292
102
}
330
1B
100
AcDbEntity
 67
     1
  8
0
100
AcDbViewport
 10
-12.70213381802023
 20
55.4031731691471
 30
0.0
 40
1512.90490817128
 41
687.4746609101721
 68
     1
 69
     1
 12
-12.70213381802023
 22
55.4031731691471
 13
0.0
 23
0.0
 14
0.5
 24
0.5
 15
0.0
 25
0.0
 16
0.0
 26
0.0
 36
1.0
 17
0.0
 27
0.0
 37
0.0
 42
50.0
 43
0.0
 44
0.0
 45
687.4746609101721
 50
0.0
 51
0.0
 72
   100
 90
   557152
  1

281
     0
 71
     1
 74
     0
110
0.0
120
0.0
130
0.0
111
1.0
121
0.0
131
0.0
112
0.0
122
1.0
132
0.0
 79
     0
146
0.0
  0
ENDSEC
  0
SECTION
  2
OBJECTS
  0
DICTIONARY
  5
C
330
0
100
AcDbDictionary
281
     1
  3
ACAD_GROUP
350
D
  3
ACAD_LAYOUT
350
1A
  3
ACAD_MATERIAL
350
43
  3
ACAD_MLEADERSTYLE
350
6B
  3
ACAD_MLINESTYLE
350
17
  3
ACAD_PLOTSETTINGS
350
19
  3
ACAD_PLOTSTYLENAME
350
E
  3
ACAD_SCALELIST
350
47
  3
ACAD_TABLESTYLE
350
69
  3
ACAD_VISUALSTYLE
350
2A
  3
AcDbVariableDictionary
350
28B
  0
DICTIONARY
  5
294
330
8
100
AcDbDictionary
280
     1
281
     1
  3
ACAD_XREC_ROUNDTRIP
360
295
  0
DICTIONARY
  5
292
330
B2
100
AcDbDictionary
280
     1
281
     1
  3
ACAD_XREC_ROUNDTRIP
360
293
  0
DICTIONARY
  5
D
102
{ACAD_REACTORS
330
C
102
}
330
C
100
AcDbDictionary
281
     1
  0
DICTIONARY
  5
1A
102
{ACAD_REACTORS
330
C
102
}
330
C
100
AcDbDictionary
281
     1
  3
Layout1
350
1E
  3
Layout2
350
26
  3
Model
350
22
  0
DICTIONARY
  5
43
102
{ACAD_REACTORS
330
C
102
}
330
C
100
AcDbDictionary
281
     1
  3
ByBlock
350
45
  3
ByLayer
350
44
  3
Global
350
46
  0
DICTIONARY
  5
6B
102
{ACAD_REACTORS
330
C
102
}
330
C
100
AcDbDictionary
281
     1
  3
Standard
350
6C
  0
DICTIONARY
  5
17
102
{ACAD_REACTORS
330
C
102
}
330
C
100
AcDbDictionary
281
     1
  3
Standard
350
18
  0
DICTIONARY
  5
19
102
{ACAD_REACTORS
330
C
102
}
330
C
100
AcDbDictionary
281
     1
  0
ACDBDICTIONARYWDFLT
  5
E
102
{ACAD_REACTORS
330
C
102
}
330
C
100
AcDbDictionary
281
     1
  3
Normal
350
F
100
AcDbDictionaryWithDefault
340
F
  0
DICTIONARY
  5
47
102
{ACAD_REACTORS
330
C
102
}
330
C
100
AcDbDictionary
281
     1
  3
A0
350
48
  3
A1
350
49
  3
A2
350
4A
  3
A3
350
4B
  3
A4
350
4C
  3
A5
350
4D
  3
A6
350
4E
  3
A7
350
4F
  3
A8
350
50
  3
A9
350
51
  3
B0
350
52
  3
B1
350
53
  3
B2
350
54
  3
B3
350
55
  3
B4
350
56
  3
B5
350
57
  3
B6
350
58
  3
B7
350
59
  3
B8
350
5A
  3
B9
350
5B
  3
C0
350
5C
  3
C1
350
5D
  3
C2
350
5E
  3
C3
350
5F
  3
C4
350
60
  3
C5
350
61
  3
C6
350
62
  3
C7
350
63
  3
C8
350
64
  3
C9
350
65
  3
D0
350
66
  3
D1
350
67
  3
D2
350
68
  0
DICTIONARY
  5
69
102
{ACAD_REACTORS
330
C
102
}
330
C
100
AcDbDictionary
281
     1
  3
Standard
350
6A
  0
DICTIONARY
  5
2A
102
{ACAD_REACTORS
330
C
102
}
330
C
100
AcDbDictionary
281
     1
  3
2dWireframe
350
2F
  3
Basic
350
32
  3
Brighten
350
36
  3
ColorChange
350
3A
  3
Conceptual
350
34
  3
Dim
350
35
  3
EdgeColorOff
350
3D
  3
Facepattern
350
39
  3
Flat
350
2B
  3
FlatWithEdges
350
2C
  3
Gouraud
350
2D
  3
GouraudWithEdges
350
2E
  3
Hidden
350
31
  3
JitterOff
350
3B
  3
Linepattern
350
38
  3
OverhangOff
350
3C
  3
Realistic
350
33
  3
Shaded
350
42
  3
Shaded with edges
350
41
  3
Shades of Gray
350
3E
  3
Sketchy
350
3F
  3
Thicken
350
37
  3
Wireframe
350
30
  3
X-Ray
350
40
  0
DICTIONARY
  5
28B
102
{ACAD_REACTORS
330
C
102
}
330
C
100
AcDbDictionary
281
     1
  3
CANNOSCALE
350
296
  3
CMLEADERSTYLE
350
28D
  3
CTABLESTYLE
350
28C
  3
DIMASSOC
350
290
  3
HIDETEXT
350
291
  3
MSLTSCALE
350
297
  0
XRECORD
  5
295
102
{ACAD_REACTORS
330
294
102
}
330
294
100
AcDbXrecord
280
     1
102
VTR_0.000_0.000_1.000_1.000_VISUALSTYLE
340
2F
102
VTR_0.000_0.000_1.000_1.000_GRIDDISPLAY
 70
     3
102
VTR_0.000_0.000_1.000_1.000_GRIDMAJOR
 70
     5
102
VTR_0.000_0.000_1.000_1.000_DEFAULTLIGHTING
280
     1
102
VTR_0.000_0.000_1.000_1.000_DEFAULTLIGHTINGTYPE
 70
     1
102
VTR_0.000_0.000_1.000_1.000_BRIGHTNESS
141
0.0
102
VTR_0.000_0.000_1.000_1.000_CONTRAST
142
0.0
  0
XRECORD
  5
293
102
{ACAD_REACTORS
330
292
102
}
330
292
100
AcDbXrecord
280
     1
102
VISUALSTYLE
340
2F
102
GRIDDISPLAY
 70
     2
102
GRIDMAJOR
 70
     5
102
DEFAULTLIGHTING
280
     1
102
DEFAULTLIGHTINGTYPE
 70
     1
102
BRIGHTNESS
141
0.0
102
CONTRAST
142
0.0
  0
LAYOUT
  5
1E
102
{ACAD_REACTORS
330
1A
102
}
330
1A
100
AcDbPlotSettings
  1

  2
none_device
  4

  6

 40
0.0
 41
0.0
 42
0.0
 43
0.0
 44
0.0
 45
0.0
 46
0.0
 47
0.0
 48
0.0
 49
0.0
140
0.0
141
0.0
142
1.0
143
1.0
 70
   688
 72
     0
 73
     0
 74
     5
  7

 75
    16
147
1.0
148
0.0
149
0.0
100
AcDbLayout
  1
Layout1
 70
     0
 71
     1
 10
0.0
 20
0.0
 11
12.0
 21
9.0
 12
0.0
 22
0.0
 32
0.0
 14
1.000000000000000E+20
 24
1.000000000000000E+20
 34
1.000000000000000E+20
 15
-1.000000000000000E+20
 25
-1.000000000000000E+20
 35
-1.000000000000000E+20
146
0.0
 13
0.0
 23
0.0
 33
0.0
 16
1.0
 26
0.0
 36
0.0
 17
0.0
 27
1.0
 37
0.0
 76
     0
330
1B
331
B2
  0
LAYOUT
  5
26
102
{ACAD_REACTORS
330
1A
102
}
330
1A
100
AcDbPlotSettings
  1

  2
none_device
  4

  6

 40
0.0
 41
0.0
 42
0.0
 43
0.0
 44
0.0
 45
0.0
 46
0.0
 47
0.0
 48
0.0
 49
0.0
140
0.0
141
0.0
142
1.0
143
1.0
 70
   688
 72
     0
 73
     0
 74
     5
  7

 75
    16
147
1.0
148
0.0
149
0.0
100
AcDbLayout
  1
Layout2
 70
     1
 71
     2
 10
0.0
 20
0.0
 11
0.0
 21
0.0
 12
0.0
 22
0.0
 32
0.0
 14
0.0
 24
0.0
 34
0.0
 15
0.0
 25
0.0
 35
0.0
146
0.0
 13
0.0
 23
0.0
 33
0.0
 16
1.0
 26
0.0
 36
0.0
 17
0.0
 27
1.0
 37
0.0
 76
     0
330
23
  0
LAYOUT
  5
22
102
{ACAD_REACTORS
330
1A
102
}
330
1A
100
AcDbPlotSettings
  1

  2
none_device
  4
Letter_(8.50_x_11.00_Inches)
  6

 40
6.35
 41
6.35
 42
6.35000508
 43
6.35000508
 44
215.9
 45
279.4
 46
0.0
 47
0.0
 48
0.0
 49
0.0
140
0.0
141
0.0
142
1.0
143
1.0
 70
  1712
 72
     0
 73
     0
 74
     0
  7

 75
     0
147
1.0
148
0.0
149
0.0
100
AcDbLayout
  1
Model
 70
     1
 71
     0
 10
-315.0
 20
-222.75
 11
315.0
 21
222.75
 12
0.0
 22
0.0
 32
0.0
 14
-769.1545879036601
 24
-288.3341572859389
 34
0.0
 15
743.7503202676196
 25
399.1405036242331
 35
0.0
146
0.0
 13
0.0
 23
0.0
 33
0.0
 16
1.0
 26
0.0
 36
0.0
 17
0.0
 27
1.0
 37
0.0
 76
     0
330
1F
331
29
  0
MATERIAL
  5
45
102
{ACAD_REACTORS
330
43
102
}
102
{ACAD_XDICTIONARY
360
2CA
102
}
330
43
100
AcDbMaterial
  1
ByBlock
  0
MATERIAL
  5
44
102
{ACAD_REACTORS
330
43
102
}
102
{ACAD_XDICTIONARY
360
2C8
102
}
330
43
100
AcDbMaterial
  1
ByLayer
  0
MATERIAL
  5
46
102
{ACAD_REACTORS
330
43
102
}
102
{ACAD_XDICTIONARY
360
2CC
102
}
330
43
100
AcDbMaterial
  1
Global
  0
MLEADERSTYLE
  5
6C
102
{ACAD_REACTORS
330
6B
102
}
102
{ACAD_XDICTIONARY
360
2CF
102
}
330
6B
100
AcDbMLeaderStyle
170
     2
171
     1
172
     0
 90
        2
 40
0.0
 41
0.0
173
     1
 91
-1056964608
340
14
 92
       -2
290
     1
 42
0.09
291
     1
 43
0.36
  3
Standard
341
0
 44
0.18
300

342
11
174
     1
178
     6
175
     1
176
     0
 93
-1056964608
 45
0.18
292
     0
297
     0
 46
0.18
343
0
 94
-1056964608
 47
1.0
 49
1.0
140
1.0
293
     1
141
0.0
294
     1
177
     0
142
1.0
295
     0
296
     0
143
0.125
1001
ACAD_MLEADERVER
1070
     2
  0
MLINESTYLE
  5
18
102
{ACAD_REACTORS
330
17
102
}
330
17
100
AcDbMlineStyle
  2
Standard
 70
     0
  3

 62
   256
 51
90.0
 52
90.0
 71
     2
 49
0.5
 62
   256
  6
BYLAYER
 49
-0.5
 62
   256
  6
BYLAYER
  0
ACDBPLACEHOLDER
  5
F
102
{ACAD_REACTORS
330
E
102
}
330
E
  0
SCALE
  5
48
102
{ACAD_REACTORS
330
47
102
}
330
47
100
AcDbScale
 70
     0
300
1:1
140
1.0
141
1.0
290
     1
  0
SCALE
  5
49
102
{ACAD_REACTORS
330
47
102
}
330
47
100
AcDbScale
 70
     0
300
1:2
140
1.0
141
2.0
290
     0
  0
SCALE
  5
4A
102
{ACAD_REACTORS
330
47
102
}
330
47
100
AcDbScale
 70
     0
300
1:4
140
1.0
141
4.0
290
     0
  0
SCALE
  5
4B
102
{ACAD_REACTORS
330
47
102
}
330
47
100
AcDbScale
 70
     0
300
1:5
140
1.0
141
5.0
290
     0
  0
SCALE
  5
4C
102
{ACAD_REACTORS
330
47
102
}
330
47
100
AcDbScale
 70
     0
300
1:8
140
1.0
141
8.0
290
     0
  0
SCALE
  5
4D
102
{ACAD_REACTORS
330
47
102
}
330
47
100
AcDbScale
 70
     0
300
1:10
140
1.0
141
10.0
290
     0
  0
SCALE
  5
4E
102
{ACAD_REACTORS
330
47
102
}
330
47
100
AcDbScale
 70
     0
300
1:16
140
1.0
141
16.0
290
     0
  0
SCALE
  5
4F
102
{ACAD_REACTORS
330
47
102
}
330
47
100
AcDbScale
 70
     0
300
1:20
140
1.0
141
20.0
290
     0
  0
SCALE
  5
50
102
{ACAD_REACTORS
330
47
102
}
330
47
100
AcDbScale
 70
     0
300
1:30
140
1.0
141
30.0
290
     0
  0
SCALE
  5
51
102
{ACAD_REACTORS
330
47
102
}
330
47
100
AcDbScale
 70
     0
300
1:40
140
1.0
141
40.0
290
     0
  0
SCALE
  5
52
102
{ACAD_REACTORS
330
47
102
}
330
47
100
AcDbScale
 70
     0
300
1:50
140
1.0
141
50.0
290
     0
  0
SCALE
  5
53
102
{ACAD_REACTORS
330
47
102
}
330
47
100
AcDbScale
 70
     0
300
1:100
140
1.0
141
100.0
290
     0
  0
SCALE
  5
54
102
{ACAD_REACTORS
330
47
102
}
330
47
100
AcDbScale
 70
     0
300
2:1
140
2.0
141
1.0
290
     0
  0
SCALE
  5
55
102
{ACAD_REACTORS
330
47
102
}
330
47
100
AcDbScale
 70
     0
300
4:1
140
4.0
141
1.0
290
     0
  0
SCALE
  5
56
102
{ACAD_REACTORS
330
47
102
}
330
47
100
AcDbScale
 70
     0
300
8:1
140
8.0
141
1.0
290
     0
  0
SCALE
  5
57
102
{ACAD_REACTORS
330
47
102
}
330
47
100
AcDbScale
 70
     0
300
10:1
140
10.0
141
1.0
290
     0
  0
SCALE
  5
58
102
{ACAD_REACTORS
330
47
102
}
330
47
100
AcDbScale
 70
     0
300
100:1
140
100.0
141
1.0
290
     0
  0
SCALE
  5
59
102
{ACAD_REACTORS
330
47
102
}
330
47
100
AcDbScale
 70
     0
300
1/128" = 1'-0"
140
0.0078125
141
12.0
290
     0
  0
SCALE
  5
5A
102
{ACAD_REACTORS
330
47
102
}
330
47
100
AcDbScale
 70
     0
300
1/64" = 1'-0"
140
0.015625
141
12.0
290
     0
  0
SCALE
  5
5B
102
{ACAD_REACTORS
330
47
102
}
330
47
100
AcDbScale
 70
     0
300
1/32" = 1'-0"
140
0.03125
141
12.0
290
     0
  0
SCALE
  5
5C
102
{ACAD_REACTORS
330
47
102
}
330
47
100
AcDbScale
 70
     0
300
1/16" = 1'-0"
140
0.0625
141
12.0
290
     0
  0
SCALE
  5
5D
102
{ACAD_REACTORS
330
47
102
}
330
47
100
AcDbScale
 70
     0
300
3/32" = 1'-0"
140
0.09375
141
12.0
290
     0
  0
SCALE
  5
5E
102
{ACAD_REACTORS
330
47
102
}
330
47
100
AcDbScale
 70
     0
300
1/8" = 1'-0"
140
0.125
141
12.0
290
     0
  0
SCALE
  5
5F
102
{ACAD_REACTORS
330
47
102
}
330
47
100
AcDbScale
 70
     0
300
3/16" = 1'-0"
140
0.1875
141
12.0
290
     0
  0
SCALE
  5
60
102
{ACAD_REACTORS
330
47
102
}
330
47
100
AcDbScale
 70
     0
300
1/4" = 1'-0"
140
0.25
141
12.0
290
     0
  0
SCALE
  5
61
102
{ACAD_REACTORS
330
47
102
}
330
47
100
AcDbScale
 70
     0
300
3/8" = 1'-0"
140
0.375
141
12.0
290
     0
  0
SCALE
  5
62
102
{ACAD_REACTORS
330
47
102
}
330
47
100
AcDbScale
 70
     0
300
1/2" = 1'-0"
140
0.5
141
12.0
290
     0
  0
SCALE
  5
63
102
{ACAD_REACTORS
330
47
102
}
330
47
100
AcDbScale
 70
     0
300
3/4" = 1'-0"
140
0.75
141
12.0
290
     0
  0
SCALE
  5
64
102
{ACAD_REACTORS
330
47
102
}
330
47
100
AcDbScale
 70
     0
300
1" = 1'-0"
140
1.0
141
12.0
290
     0
  0
SCALE
  5
65
102
{ACAD_REACTORS
330
47
102
}
330
47
100
AcDbScale
 70
     0
300
1-1/2" = 1'-0"
140
1.5
141
12.0
290
     0
  0
SCALE
  5
66
102
{ACAD_REACTORS
330
47
102
}
330
47
100
AcDbScale
 70
     0
300
3" = 1'-0"
140
3.0
141
12.0
290
     0
  0
SCALE
  5
67
102
{ACAD_REACTORS
330
47
102
}
330
47
100
AcDbScale
 70
     0
300
6" = 1'-0"
140
6.0
141
12.0
290
     0
  0
SCALE
  5
68
102
{ACAD_REACTORS
330
47
102
}
330
47
100
AcDbScale
 70
     0
300
1'-0" = 1'-0"
140
12.0
141
12.0
290
     0
  0
TABLESTYLE
  5
6A
102
{ACAD_REACTORS
330
69
102
}
330
69
100
AcDbTableStyle
  3
Standard
 70
     0
 71
     0
 40
0.06
 41
0.06
280
     0
281
     0
  7
Standard
140
0.18
170
     2
 62
     0
 63
   257
283
     0
274
    -2
284
     1
 64
     0
275
    -2
285
     1
 65
     0
276
    -2
286
     1
 66
     0
277
    -2
287
     1
 67
     0
278
    -2
288
     1
 68
     0
279
    -2
289
     1
 69
     0
  7
Standard
140
0.25
170
     5
 62
     0
 63
   257
283
     0
274
    -2
284
     1
 64
     0
275
    -2
285
     1
 65
     0
276
    -2
286
     1
 66
     0
277
    -2
287
     1
 67
     0
278
    -2
288
     1
 68
     0
279
    -2
289
     1
 69
     0
  7
Standard
140
0.18
170
     5
 62
     0
 63
   257
283
     0
274
    -2
284
     1
 64
     0
275
    -2
285
     1
 65
     0
276
    -2
286
     1
 66
     0
277
    -2
287
     1
 67
     0
278
    -2
288
     1
 68
     0
279
    -2
289
     1
 69
     0
  0
VISUALSTYLE
  5
2F
102
{ACAD_REACTORS
330
2A
102
}
102
{ACAD_XDICTIONARY
360
2A0
102
}
330
2A
100
AcDbVisualStyle
  2
2dWireframe
 70
     4
 71
     0
 72
     2
 73
     0
 90
        0
 40
0.6
 41
30.0
 62
     5
 63
     7
 74
     1
 91
        4
 64
     7
 65
   257
 75
     1
175
     1
 42
1.0
 92
        0
 66
   257
 43
1.0
 76
     1
 77
     6
 78
     2
 67
     7
 79
     5
170
     0
171
     0
290
     0
174
     0
 93
        1
 44
0.0
173
     0
291
     0
 45
0.0
1001
ACAD
1000
AcDbSavedByObjectVersion
1070
     0
  0
VISUALSTYLE
  5
32
102
{ACAD_REACTORS
330
2A
102
}
102
{ACAD_XDICTIONARY
360
2A6
102
}
330
2A
100
AcDbVisualStyle
  2
Basic
 70
     7
 71
     1
 72
     0
 73
     1
 90
        0
 40
0.6
 41
30.0
 62
     5
 63
     7
 74
     0
 91
        4
 64
     7
 65
   257
 75
     1
175
     1
 42
1.0
 92
        8
 66
     7
 43
1.0
 76
     1
 77
     6
 78
     2
 67
     7
 79
     5
170
     0
171
     0
290
     0
174
     0
 93
        1
 44
0.0
173
     0
291
     1
 45
0.0
1001
ACAD
1000
AcDbSavedByObjectVersion
1070
     0
  0
VISUALSTYLE
  5
36
102
{ACAD_REACTORS
330
2A
102
}
102
{ACAD_XDICTIONARY
360
2AE
102
}
330
2A
100
AcDbVisualStyle
  2
Brighten
 70
    12
 71
     2
 72
     2
 73
     0
 90
        0
 40
0.6
 41
30.0
 62
     5
 63
     7
 74
     1
 91
        4
 64
     7
 65
   257
 75
     1
175
     1
 42
1.0
 92
        8
 66
     7
 43
1.0
 76
     1
 77
     6
 78
     2
 67
     7
 79
     5
170
     0
171
     0
290
     0
174
     0
 93
        1
 44
50.0
173
     0
291
     1
 45
0.0
1001
ACAD
1000
AcDbSavedByObjectVersion
1070
     0
  0
VISUALSTYLE
  5
3A
102
{ACAD_REACTORS
330
2A
102
}
102
{ACAD_XDICTIONARY
360
2B6
102
}
330
2A
100
AcDbVisualStyle
  2
ColorChange
 70
    16
 71
     2
 72
     2
 73
     3
 90
        0
 40
0.6
 41
30.0
 62
     5
 63
     8
 74
     1
 91
        4
 64
     7
 65
   257
 75
     1
175
     1
 42
1.0
 92
        8
 66
     8
 43
1.0
 76
     1
 77
     6
 78
     2
 67
     7
 79
     5
170
     0
171
     0
290
     0
174
     0
 93
        1
 44
0.0
173
     0
291
     1
 45
0.0
1001
ACAD
1000
AcDbSavedByObjectVersion
1070
     0
  0
VISUALSTYLE
  5
34
102
{ACAD_REACTORS
330
2A
102
}
102
{ACAD_XDICTIONARY
360
2AA
102
}
330
2A
100
AcDbVisualStyle
  2
Conceptual
 70
     9
 71
     3
 72
     2
 73
     0
 90
        0
 40
0.6
 41
30.0
 62
     5
 63
     7
 74
     2
 91
        2
 64
     7
 65
   257
 75
     1
175
     1
 42
179.0
 92
        8
 66
     7
 43
1.0
 76
     1
 77
     6
 78
     2
 67
     7
 79
     3
170
     0
171
     0
290
     0
174
     0
 93
        1
 44
0.0
173
     0
291
     0
 45
0.0
1001
ACAD
1000
AcDbSavedByObjectVersion
1070
     0
  0
VISUALSTYLE
  5
35
102
{ACAD_REACTORS
330
2A
102
}
102
{ACAD_XDICTIONARY
360
2AC
102
}
330
2A
100
AcDbVisualStyle
  2
Dim
 70
    11
 71
     2
 72
     2
 73
     0
 90
        0
 40
0.6
 41
30.0
 62
     5
 63
     7
 74
     1
 91
        4
 64
     7
 65
   257
 75
     1
175
     1
 42
1.0
 92
        8
 66
     7
 43
1.0
 76
     1
 77
     6
 78
     2
 67
     7
 79
     5
170
     0
171
     0
290
     0
174
     0
 93
        1
 44
-50.0
173
     0
291
     1
 45
0.0
1001
ACAD
1000
AcDbSavedByObjectVersion
1070
     0
  0
VISUALSTYLE
  5
3D
102
{ACAD_REACTORS
330
2A
102
}
102
{ACAD_XDICTIONARY
360
2BC
102
}
330
2A
100
AcDbVisualStyle
  2
EdgeColorOff
 70
    22
 71
     2
 72
     2
 73
     0
 90
        0
 40
0.6
 41
30.0
 62
     5
 63
     7
 74
     1
 91
        4
 64
     7
 65
   257
 75
     1
175
     1
 42
1.0
 92
        8
 66
     7
 43
1.0
 76
     1
 77
     6
 78
     2
 67
     7
 79
     5
170
     0
171
     0
290
     0
174
     0
 93
        1
 44
0.0
173
     0
291
     1
 45
0.0
1001
ACAD
1000
AcDbSavedByObjectVersion
1070
     0
  0
VISUALSTYLE
  5
39
102
{ACAD_REACTORS
330
2A
102
}
102
{ACAD_XDICTIONARY
360
2B4
102
}
330
2A
100
AcDbVisualStyle
  2
Facepattern
 70
    15
 71
     2
 72
     2
 73
     0
 90
        0
 40
0.6
 41
30.0
 62
     5
 63
     7
 74
     1
 91
        4
 64
     7
 65
   257
 75
     1
175
     1
 42
1.0
 92
        8
 66
     7
 43
1.0
 76
     1
 77
     6
 78
     2
 67
     7
 79
     5
170
     0
171
     0
290
     0
174
     0
 93
        1
 44
0.0
173
     0
291
     1
 45
0.0
1001
ACAD
1000
AcDbSavedByObjectVersion
1070
     0
  0
VISUALSTYLE
  5
2B
102
{ACAD_REACTORS
330
2A
102
}
102
{ACAD_XDICTIONARY
360
298
102
}
330
2A
100
AcDbVisualStyle
  2
Flat
 70
     0
 71
     2
 72
     1
 73
     1
 90
        2
 40
0.6
 41
30.0
 62
     5
 63
     7
 74
     0
 91
        0
 64
     7
 65
   257
 75
     1
175
     1
 42
1.0
 92
        8
 66
     7
 43
1.0
 76
     1
 77
     6
 78
     2
 67
     7
 79
     5
170
     0
171
     0
290
     0
174
     0
 93
       13
 44
0.0
173
     0
291
     1
 45
0.0
1001
ACAD
1000
AcDbSavedByObjectVersion
1070
     0
  0
VISUALSTYLE
  5
2C
102
{ACAD_REACTORS
330
2A
102
}
102
{ACAD_XDICTIONARY
360
29A
102
}
330
2A
100
AcDbVisualStyle
  2
FlatWithEdges
 70
     1
 71
     2
 72
     1
 73
     1
 90
        2
 40
0.6
 41
30.0
 62
     5
 63
     7
 74
     1
 91
        0
 64
     7
 65
   257
 75
     1
175
     1
 42
1.0
 92
        0
 66
   257
 43
1.0
 76
     1
 77
     6
 78
     2
 67
     7
 79
     5
170
     0
171
     0
290
     0
174
     0
 93
       13
 44
0.0
173
     0
291
     1
 45
0.0
1001
ACAD
1000
AcDbSavedByObjectVersion
1070
     0
  0
VISUALSTYLE
  5
2D
102
{ACAD_REACTORS
330
2A
102
}
102
{ACAD_XDICTIONARY
360
29C
102
}
330
2A
100
AcDbVisualStyle
  2
Gouraud
 70
     2
 71
     2
 72
     2
 73
     1
 90
        2
 40
0.6
 41
30.0
 62
     5
 63
     7
 74
     0
 91
        0
 64
     7
 65
   257
 75
     1
175
     1
 42
1.0
 92
        0
 66
     7
 43
1.0
 76
     1
 77
     6
 78
     2
 67
     7
 79
     5
170
     0
171
     0
290
     0
174
     0
 93
       13
 44
0.0
173
     0
291
     1
 45
0.0
1001
ACAD
1000
AcDbSavedByObjectVersion
1070
     0
  0
VISUALSTYLE
  5
2E
102
{ACAD_REACTORS
330
2A
102
}
102
{ACAD_XDICTIONARY
360
29E
102
}
330
2A
100
AcDbVisualStyle
  2
GouraudWithEdges
 70
     3
 71
     2
 72
     2
 73
     1
 90
        2
 40
0.6
 41
30.0
 62
     5
 63
     7
 74
     1
 91
        0
 64
     7
 65
   257
 75
     1
175
     1
 42
1.0
 92
        0
 66
   257
 43
1.0
 76
     1
 77
     6
 78
     2
 67
     7
 79
     5
170
     0
171
     0
290
     0
174
     0
 93
       13
 44
0.0
173
     0
291
     1
 45
0.0
1001
ACAD
1000
AcDbSavedByObjectVersion
1070
     0
  0
VISUALSTYLE
  5
31
102
{ACAD_REACTORS
330
2A
102
}
102
{ACAD_XDICTIONARY
360
2A4
102
}
330
2A
100
AcDbVisualStyle
  2
Hidden
 70
     6
 71
     1
 72
     2
 73
     2
 90
        0
 40
0.6
 41
30.0
 62
     5
 63
     7
 74
     2
 91
        2
 64
     7
 65
   257
 75
     2
175
     1
 42
40.0
 92
        0
 66
   257
 43
1.0
 76
     1
 77
     6
 78
     2
 67
     7
 79
     3
170
     0
171
     0
290
     0
174
     0
 93
        1
 44
0.0
173
     0
291
     0
 45
0.0
1001
ACAD
1000
AcDbSavedByObjectVersion
1070
     0
  0
VISUALSTYLE
  5
3B
102
{ACAD_REACTORS
330
2A
102
}
102
{ACAD_XDICTIONARY
360
2B8
102
}
330
2A
100
AcDbVisualStyle
  2
JitterOff
 70
    20
 71
     2
 72
     2
 73
     0
 90
        0
 40
0.6
 41
30.0
 62
     5
 63
     7
 74
     1
 91
        4
 64
     7
 65
   257
 75
     1
175
     1
 42
1.0
 92
       10
 66
     7
 43
1.0
 76
     1
 77
     6
 78
     2
 67
     7
 79
     5
170
     0
171
     0
290
     0
174
     0
 93
        1
 44
0.0
173
     0
291
     1
 45
0.0
1001
ACAD
1000
AcDbSavedByObjectVersion
1070
     0
  0
VISUALSTYLE
  5
38
102
{ACAD_REACTORS
330
2A
102
}
102
{ACAD_XDICTIONARY
360
2B2
102
}
330
2A
100
AcDbVisualStyle
  2
Linepattern
 70
    14
 71
     2
 72
     2
 73
     0
 90
        0
 40
0.6
 41
30.0
 62
     5
 63
     7
 74
     1
 91
        4
 64
     7
 65
   257
 75
     7
175
     7
 42
1.0
 92
        8
 66
     7
 43
1.0
 76
     1
 77
     6
 78
     2
 67
     7
 79
     5
170
     0
171
     0
290
     0
174
     0
 93
        1
 44
0.0
173
     0
291
     1
 45
0.0
1001
ACAD
1000
AcDbSavedByObjectVersion
1070
     0
  0
VISUALSTYLE
  5
3C
102
{ACAD_REACTORS
330
2A
102
}
102
{ACAD_XDICTIONARY
360
2BA
102
}
330
2A
100
AcDbVisualStyle
  2
OverhangOff
 70
    21
 71
     2
 72
     2
 73
     0
 90
        0
 40
0.6
 41
30.0
 62
     5
 63
     7
 74
     1
 91
        4
 64
     7
 65
   257
 75
     1
175
     1
 42
1.0
 92
        9
 66
     7
 43
1.0
 76
     1
 77
     6
 78
     2
 67
     7
 79
     5
170
     0
171
     0
290
     0
174
     0
 93
        1
 44
0.0
173
     0
291
     1
 45
0.0
1001
ACAD
1000
AcDbSavedByObjectVersion
1070
     0
  0
VISUALSTYLE
  5
33
102
{ACAD_REACTORS
330
2A
102
}
102
{ACAD_XDICTIONARY
360
2A8
102
}
330
2A
100
AcDbVisualStyle
  2
Realistic
 70
     8
 71
     2
 72
     3
 73
     0
 90
        2
 40
0.6
 41
30.0
 62
     5
 63
     7
 74
     0
 91
        0
 64
     7
 65
   257
 75
     1
175
     1
 42
1.0
 92
        8
 66
   257
 43
1.0
 76
     1
 77
     6
 78
     2
 67
     7
 79
     3
170
     0
171
     0
290
     0
174
     0
 93
       13
 44
0.0
173
     0
291
     0
 45
0.0
1001
ACAD
1000
AcDbSavedByObjectVersion
1070
     0
  0
VISUALSTYLE
  5
42
102
{ACAD_REACTORS
330
2A
102
}
102
{ACAD_XDICTIONARY
360
2C6
102
}
330
2A
100
AcDbVisualStyle
  2
Shaded
 70
    27
 71
     2
 72
     2
 73
     1
 90
        2
 40
0.6
 41
30.0
 62
     5
 63
     7
 74
     0
 91
        4
 64
     7
 65
   257
 75
     1
175
     1
 42
1.0
 92
        8
 66
   257
 43
1.0
 76
     1
 77
     6
 78
     2
 67
     8
 79
     3
170
     0
171
     0
290
     0
174
     0
 93
        5
 44
0.0
173
     0
291
     0
 45
0.0
1001
ACAD
1000
AcDbSavedByObjectVersion
1070
     0
  0
VISUALSTYLE
  5
41
102
{ACAD_REACTORS
330
2A
102
}
102
{ACAD_XDICTIONARY
360
2C4
102
}
330
2A
100
AcDbVisualStyle
  2
Shaded with edges
 70
    26
 71
     2
 72
     2
 73
     1
 90
        2
 40
0.6
 41
30.0
 62
     5
 63
     7
 74
     1
 91
       10
 64
     7
 65
   257
 75
     2
175
     1
 42
1.0
 92
        8
 66
   257
 43
1.0
 76
     1
 77
     6
 78
     2
 67
     7
 79
     3
170
     0
171
     0
290
     0
174
     0
 93
        5
 44
0.0
173
     0
291
     0
 45
0.0
1001
ACAD
1000
AcDbSavedByObjectVersion
1070
     0
  0
VISUALSTYLE
  5
3E
102
{ACAD_REACTORS
330
2A
102
}
102
{ACAD_XDICTIONARY
360
2BE
102
}
330
2A
100
AcDbVisualStyle
  2
Shades of Gray
 70
    23
 71
     2
 72
     2
 73
     3
 90
        0
 40
0.6
 41
30.0
 62
     5
 63
     7
 74
     2
 91
        2
 64
     7
 65
     7
 75
     1
175
     1
 42
40.0
 92
        8
 66
     7
 43
1.0
 76
     1
 77
     6
 78
     2
 67
     7
 79
     3
170
     0
171
     0
290
     0
174
     0
 93
        1
 44
0.0
173
     0
291
     0
 45
0.0
1001
ACAD
1000
AcDbSavedByObjectVersion
1070
     0
  0
VISUALSTYLE
  5
3F
102
{ACAD_REACTORS
330
2A
102
}
102
{ACAD_XDICTIONARY
360
2C0
102
}
330
2A
100
AcDbVisualStyle
  2
Sketchy
 70
    24
 71
     1
 72
     2
 73
     2
 90
        0
 40
0.6
 41
30.0
 62
     5
 63
     7
 74
     2
 91
        2
 64
     7
 65
     7
 75
     1
175
     1
 42
40.0
 92
       11
 66
     7
 43
1.0
 76
     1
 77
     6
 78
     2
 67
     7
 79
     6
170
     0
171
     0
290
     0
174
     0
 93
        1
 44
0.0
173
     0
291
     0
 45
0.0
1001
ACAD
1000
AcDbSavedByObjectVersion
1070
     0
  0
VISUALSTYLE
  5
37
102
{ACAD_REACTORS
330
2A
102
}
102
{ACAD_XDICTIONARY
360
2B0
102
}
330
2A
100
AcDbVisualStyle
  2
Thicken
 70
    13
 71
     2
 72
     2
 73
     0
 90
        0
 40
0.6
 41
30.0
 62
     5
 63
     7
 74
     1
 91
        4
 64
     7
 65
   257
 75
     1
175
     1
 42
1.0
 92
       12
 66
     7
 43
1.0
 76
     1
 77
     6
 78
     2
 67
     7
 79
     5
170
     0
171
     0
290
     0
174
     0
 93
        1
 44
0.0
173
     0
291
     1
 45
0.0
1001
ACAD
1000
AcDbSavedByObjectVersion
1070
     0
  0
VISUALSTYLE
  5
30
102
{ACAD_REACTORS
330
2A
102
}
102
{ACAD_XDICTIONARY
360
2A2
102
}
330
2A
100
AcDbVisualStyle
  2
Wireframe
 70
     5
 71
     0
 72
     2
 73
     0
 90
        0
 40
0.6
 41
30.0
 62
     5
 63
     7
 74
     1
 91
        4
 64
     7
 65
   257
 75
     1
175
     1
 42
1.0
 92
        0
 66
   257
 43
1.0
 76
     1
 77
     6
 78
     2
 67
     7
 79
     3
170
     0
171
     0
290
     0
174
     0
 93
        1
 44
0.0
173
     0
291
     0
 45
0.0
1001
ACAD
1000
AcDbSavedByObjectVersion
1070
     0
  0
VISUALSTYLE
  5
40
102
{ACAD_REACTORS
330
2A
102
}
102
{ACAD_XDICTIONARY
360
2C2
102
}
330
2A
100
AcDbVisualStyle
  2
X-Ray
 70
    25
 71
     2
 72
     2
 73
     1
 90
        1
 40
0.5
 41
30.0
 62
     5
 63
     7
 74
     1
 91
        0
 64
     7
 65
   257
 75
     1
175
     1
 42
1.0
 92
        8
 66
     7
 43
1.0
 76
     1
 77
     6
 78
     2
 67
     7
 79
     3
170
     0
171
     0
290
     0
174
     0
 93
       13
 44
0.0
173
     0
291
     0
 45
0.0
1001
ACAD
1000
AcDbSavedByObjectVersion
1070
     0
  0
DICTIONARYVAR
  5
296
102
{ACAD_REACTORS
330
28B
102
}
330
28B
100
DictionaryVariables
280
     0
  1
1:1
  0
DICTIONARYVAR
  5
28D
102
{ACAD_REACTORS
330
28B
102
}
330
28B
100
DictionaryVariables
280
     0
  1
Standard
  0
DICTIONARYVAR
  5
28C
102
{ACAD_REACTORS
330
28B
102
}
330
28B
100
DictionaryVariables
280
     0
  1
Standard
  0
DICTIONARYVAR
  5
290
102
{ACAD_REACTORS
330
28B
102
}
330
28B
100
DictionaryVariables
280
     0
  1
2
  0
DICTIONARYVAR
  5
291
102
{ACAD_REACTORS
330
28B
102
}
330
28B
100
DictionaryVariables
280
     0
  1
1
  0
DICTIONARYVAR
  5
297
102
{ACAD_REACTORS
330
28B
102
}
330
28B
100
DictionaryVariables
280
     0
  1
1
  0
DICTIONARY
  5
2CA
330
45
100
AcDbDictionary
280
     1
281
     1
  3
ACAD_XREC_ROUNDTRIP
360
2CB
  0
DICTIONARY
  5
2C8
330
44
100
AcDbDictionary
280
     1
281
     1
  3
ACAD_XREC_ROUNDTRIP
360
2C9
  0
DICTIONARY
  5
2CC
330
46
100
AcDbDictionary
280
     1
281
     1
  3
ACAD_XREC_ROUNDTRIP
360
2CD
  0
DICTIONARY
  5
2CF
330
6C
100
AcDbDictionary
280
     1
281
     1
  3
ACAD_XREC_ROUNDTRIP
360
2D0
  0
DICTIONARY
  5
2A0
330
2F
100
AcDbDictionary
280
     1
281
     1
  3
ACAD_XREC_ROUNDTRIP
360
2A1
  0
DICTIONARY
  5
2A6
330
32
100
AcDbDictionary
280
     1
281
     1
  3
ACAD_XREC_ROUNDTRIP
360
2A7
  0
DICTIONARY
  5
2AE
330
36
100
AcDbDictionary
280
     1
281
     1
  3
ACAD_XREC_ROUNDTRIP
360
2AF
  0
DICTIONARY
  5
2B6
330
3A
100
AcDbDictionary
280
     1
281
     1
  3
ACAD_XREC_ROUNDTRIP
360
2B7
  0
DICTIONARY
  5
2AA
330
34
100
AcDbDictionary
280
     1
281
     1
  3
ACAD_XREC_ROUNDTRIP
360
2AB
  0
DICTIONARY
  5
2AC
330
35
100
AcDbDictionary
280
     1
281
     1
  3
ACAD_XREC_ROUNDTRIP
360
2AD
  0
DICTIONARY
  5
2BC
330
3D
100
AcDbDictionary
280
     1
281
     1
  3
ACAD_XREC_ROUNDTRIP
360
2BD
  0
DICTIONARY
  5
2B4
330
39
100
AcDbDictionary
280
     1
281
     1
  3
ACAD_XREC_ROUNDTRIP
360
2B5
  0
DICTIONARY
  5
298
330
2B
100
AcDbDictionary
280
     1
281
     1
  3
ACAD_XREC_ROUNDTRIP
360
299
  0
DICTIONARY
  5
29A
330
2C
100
AcDbDictionary
280
     1
281
     1
  3
ACAD_XREC_ROUNDTRIP
360
29B
  0
DICTIONARY
  5
29C
330
2D
100
AcDbDictionary
280
     1
281
     1
  3
ACAD_XREC_ROUNDTRIP
360
29D
  0
DICTIONARY
  5
29E
330
2E
100
AcDbDictionary
280
     1
281
     1
  3
ACAD_XREC_ROUNDTRIP
360
29F
  0
DICTIONARY
  5
2A4
330
31
100
AcDbDictionary
280
     1
281
     1
  3
ACAD_XREC_ROUNDTRIP
360
2A5
  0
DICTIONARY
  5
2B8
330
3B
100
AcDbDictionary
280
     1
281
     1
  3
ACAD_XREC_ROUNDTRIP
360
2B9
  0
DICTIONARY
  5
2B2
330
38
100
AcDbDictionary
280
     1
281
     1
  3
ACAD_XREC_ROUNDTRIP
360
2B3
  0
DICTIONARY
  5
2BA
330
3C
100
AcDbDictionary
280
     1
281
     1
  3
ACAD_XREC_ROUNDTRIP
360
2BB
  0
DICTIONARY
  5
2A8
330
33
100
AcDbDictionary
280
     1
281
     1
  3
ACAD_XREC_ROUNDTRIP
360
2A9
  0
DICTIONARY
  5
2C6
330
42
100
AcDbDictionary
280
     1
281
     1
  3
ACAD_XREC_ROUNDTRIP
360
2C7
  0
DICTIONARY
  5
2C4
330
41
100
AcDbDictionary
280
     1
281
     1
  3
ACAD_XREC_ROUNDTRIP
360
2C5
  0
DICTIONARY
  5
2BE
330
3E
100
AcDbDictionary
280
     1
281
     1
  3
ACAD_XREC_ROUNDTRIP
360
2BF
  0
DICTIONARY
  5
2C0
330
3F
100
AcDbDictionary
280
     1
281
     1
  3
ACAD_XREC_ROUNDTRIP
360
2C1
  0
DICTIONARY
  5
2B0
330
37
100
AcDbDictionary
280
     1
281
     1
  3
ACAD_XREC_ROUNDTRIP
360
2B1
  0
DICTIONARY
  5
2A2
330
30
100
AcDbDictionary
280
     1
281
     1
  3
ACAD_XREC_ROUNDTRIP
360
2A3
  0
DICTIONARY
  5
2C2
330
40
100
AcDbDictionary
280
     1
281
     1
  3
ACAD_XREC_ROUNDTRIP
360
2C3
  0
XRECORD
  5
2CB
102
{ACAD_REACTORS
330
2CA
102
}
330
2CA
100
AcDbXrecord
280
     1
102
MATERIAL
148
0.0
149
0.0
149
0.0
 93
        0
 94
      127
282
     0
 72
     1
 77
     1
171
     1
175
     1
179
     1
273
     0
  0
XRECORD
  5
2C9
102
{ACAD_REACTORS
330
2C8
102
}
330
2C8
100
AcDbXrecord
280
     1
102
MATERIAL
148
0.0
149
0.0
149
0.0
 93
        0
 94
      127
282
     0
 72
     1
 77
     1
171
     1
175
     1
179
     1
273
     0
  0
XRECORD
  5
2CD
102
{ACAD_REACTORS
330
2CC
102
}
330
2CC
100
AcDbXrecord
280
     1
102
MATERIAL
148
0.0
149
0.0
149
0.0
 93
        0
 94
      127
282
     0
 72
     1
 77
     1
171
     1
175
     1
179
     1
273
     0
  0
XRECORD
  5
2D0
102
{ACAD_REACTORS
330
2CF
102
}
330
2CF
100
AcDbXrecord
280
     1
102
ACAD_ROUNDTRIP_2010_MLEADER_STYLE
  0
XRECORD
  5
2A1
102
{ACAD_REACTORS
330
2A0
102
}
330
2A0
100
AcDbXrecord
280
     1
102
RTVSPropertyOp0
 70
     1
102
RTVSPropertyOp1
 70
     1
102
RTVSPropertyOp2
 70
     1
102
RTVSPropertyOp3
 70
     1
102
RTVSPropertyOp4
 70
     1
102
RTVSPropertyOp5
 70
     1
102
RTVSPropertyOp6
 70
     1
102
RTVSPropertyOp7
 70
     1
102
RTVSPropertyOp8
 70
     1
102
RTVSPropertyOp9
 70
     1
102
RTVSPropertyOp10
 70
     1
102
RTVSPropertyOp11
 70
     1
102
RTVSPropertyOp12
 70
     1
102
RTVSPropertyOp13
 70
     1
102
RTVSPropertyOp14
 70
     1
102
RTVSPropertyOp15
 70
     1
102
RTVSPropertyOp16
 70
     1
102
RTVSPropertyOp17
 70
     1
102
RTVSPropertyOp18
 70
     1
102
RTVSPropertyOp19
 70
     1
102
RTVSPropertyOp20
 70
     1
102
RTVSPropertyOp21
 70
     1
102
RTVSPropertyOp22
 70
     1
102
RTVSPropertyOp23
 70
     1
102
RTVSPropertyOp24
 70
     1
102
RTVSPropertyOp25
 70
     1
102
RTVSPropertyOp26
 70
     1
102
RTVSPropertyOp27
 70
     1
102
RTVSPropertyOp28
 70
     1
102
RTVSPropertyOp29
 70
     1
102
RTVSPropertyOp30
 70
     1
102
RTVSPropertyOp31
 70
     1
102
RTVSPropertyOp32
 70
     1
102
RTVSPropertyOp33
 70
     1
102
RTVSPropertyOp34
 70
     1
102
RTVSPropertyOp35
 70
     1
102
RTVSPropertyOp36
 70
     1
102
RTVSPropertyOp37
 70
     1
102
RTVSPropertyOp38
 70
     1
102
RTVSPropertyOp39
 70
     1
102
RTVSPropertyOp40
 70
     1
102
RTVSPropertyOp41
 70
     1
102
RTVSPropertyOp42
 70
     1
102
RTVSPropertyOp43
 70
     1
102
RTVSPropertyOp44
 70
     1
102
RTVSPropertyOp45
 70
     1
102
RTVSPropertyOp46
 70
     1
102
RTVSPropertyOp47
 70
     1
102
RTVSPropertyOp48
 70
     1
102
RTVSPropertyOp49
 70
     1
102
RTVSPropertyOp50
 70
     1
102
RTVSPropertyOp51
 70
     0
102
RTVSPropertyOp52
 70
     0
102
RTVSPropertyOp53
 70
     1
102
RTVSPropertyOp54
 70
     1
102
RTVSPropertyOp55
 70
     1
102
RTVSPropertyOp56
 70
     1
102
RTVSPropertyOp57
 70
     1
102
RTVSPost2010Prop28
280
     1
102
RTVSPost2010PropOp28
 70
     1
102
RTVSPost2010Prop29
280
     1
102
RTVSPost2010PropOp29
 70
     1
102
RTVSPost2010Prop30
280
     0
102
RTVSPost2010PropOp30
 70
     1
102
RTVSPost2010Prop31
280
     0
102
RTVSPost2010PropOp31
 70
     1
102
RTVSPost2010Prop32
280
     0
102
RTVSPost2010PropOp32
 70
     1
102
RTVSPost2010Prop33
280
     0
102
RTVSPost2010PropOp33
 70
     1
102
RTVSPost2010Prop34
280
     0
102
RTVSPost2010PropOp34
 70
     1
102
RTVSPost2010Prop35
280
     0
102
RTVSPost2010PropOp35
 70
     1
102
RTVSPost2010Prop36
280
     0
102
RTVSPost2010PropOp36
 70
     1
102
RTVSPost2010Prop37
 90
       50
102
RTVSPost2010PropOp37
 70
     1
102
RTVSPost2010Prop38
140
0.0
102
RTVSPost2010PropOp38
 70
     1
102
RTVSPost2010Prop39
140
1.0
102
RTVSPost2010PropOp39
 70
     1
102
RTVSPost2010Prop40
 90
        0
102
RTVSPost2010PropOp40
 70
     1
102
RTVSPost2010Prop41ColorIndex
 90
       18
102
RTVSPost2010Prop41ColorRGB
 90
        0
102
RTVSPost2010PropOp41
 70
     1
102
RTVSPost2010Prop42
 90
       50
102
RTVSPost2010PropOp42
 70
     1
102
RTVSPost2010Prop43
 90
        3
102
RTVSPost2010PropOp43
 70
     1
102
RTVSPost2010Prop44ColorIndex
 90
        5
102
RTVSPost2010Prop44ColorRGB
 90
      255
102
RTVSPost2010PropOp44
 70
     1
102
RTVSPost2010Prop45
280
     0
102
RTVSPost2010PropOp45
 70
     1
102
RTVSPost2010Prop46
 90
       50
102
RTVSPost2010PropOp46
 70
     1
102
RTVSPost2010Prop47
 90
       50
102
RTVSPost2010PropOp47
 70
     1
102
RTVSPost2010Prop48
 90
       50
102
RTVSPost2010PropOp48
 70
     1
102
RTVSPost2010Prop49
280
     0
102
RTVSPost2010PropOp49
 70
     1
102
RTVSPost2010Prop50
 90
       50
102
RTVSPost2010PropOp50
 70
     1
102
RTVSPost2010Prop51ColorIndex
 90
      256
102
RTVSPost2010Prop51ColorRGB
 90
-16777216
102
RTVSPost2010PropOp51
 70
     0
102
RTVSPost2010Prop52
140
1.0
102
RTVSPost2010PropOp52
 70
     0
102
RTVSPost2010Prop53
 90
        2
102
RTVSPost2010PropOp53
 70
     1
102
RTVSPost2010Prop54
  1
strokes_ogs.tif
102
RTVSPost2010PropOp54
 70
     1
102
RTVSPost2010Prop55
280
     0
102
RTVSPost2010PropOp55
 70
     1
102
RTVSPost2010Prop56
140
1.0
102
RTVSPost2010PropOp56
 70
     1
102
RTVSPost2010Prop57
140
1.0
102
RTVSPost2010PropOp57
 70
     1
  0
XRECORD
  5
2A7
102
{ACAD_REACTORS
330
2A6
102
}
330
2A6
100
AcDbXrecord
280
     1
102
RTVSPropertyOp0
 70
     1
102
RTVSPropertyOp1
 70
     1
102
RTVSPropertyOp2
 70
     1
102
RTVSPropertyOp3
 70
     1
102
RTVSPropertyOp4
 70
     1
102
RTVSPropertyOp5
 70
     1
102
RTVSPropertyOp6
 70
     1
102
RTVSPropertyOp7
 70
     1
102
RTVSPropertyOp8
 70
     1
102
RTVSPropertyOp9
 70
     1
102
RTVSPropertyOp10
 70
     1
102
RTVSPropertyOp11
 70
     1
102
RTVSPropertyOp12
 70
     1
102
RTVSPropertyOp13
 70
     1
102
RTVSPropertyOp14
 70
     1
102
RTVSPropertyOp15
 70
     1
102
RTVSPropertyOp16
 70
     1
102
RTVSPropertyOp17
 70
     1
102
RTVSPropertyOp18
 70
     1
102
RTVSPropertyOp19
 70
     1
102
RTVSPropertyOp20
 70
     1
102
RTVSPropertyOp21
 70
     1
102
RTVSPropertyOp22
 70
     1
102
RTVSPropertyOp23
 70
     1
102
RTVSPropertyOp24
 70
     1
102
RTVSPropertyOp25
 70
     1
102
RTVSPropertyOp26
 70
     1
102
RTVSPropertyOp27
 70
     1
102
RTVSPropertyOp28
 70
     1
102
RTVSPropertyOp29
 70
     1
102
RTVSPropertyOp30
 70
     1
102
RTVSPropertyOp31
 70
     1
102
RTVSPropertyOp32
 70
     1
102
RTVSPropertyOp33
 70
     1
102
RTVSPropertyOp34
 70
     1
102
RTVSPropertyOp35
 70
     1
102
RTVSPropertyOp36
 70
     1
102
RTVSPropertyOp37
 70
     1
102
RTVSPropertyOp38
 70
     1
102
RTVSPropertyOp39
 70
     1
102
RTVSPropertyOp40
 70
     1
102
RTVSPropertyOp41
 70
     1
102
RTVSPropertyOp42
 70
     1
102
RTVSPropertyOp43
 70
     1
102
RTVSPropertyOp44
 70
     1
102
RTVSPropertyOp45
 70
     1
102
RTVSPropertyOp46
 70
     1
102
RTVSPropertyOp47
 70
     1
102
RTVSPropertyOp48
 70
     1
102
RTVSPropertyOp49
 70
     1
102
RTVSPropertyOp50
 70
     1
102
RTVSPropertyOp51
 70
     0
102
RTVSPropertyOp52
 70
     0
102
RTVSPropertyOp53
 70
     1
102
RTVSPropertyOp54
 70
     1
102
RTVSPropertyOp55
 70
     1
102
RTVSPropertyOp56
 70
     1
102
RTVSPropertyOp57
 70
     1
102
RTVSPost2010Prop28
280
     0
102
RTVSPost2010PropOp28
 70
     1
102
RTVSPost2010Prop29
280
     1
102
RTVSPost2010PropOp29
 70
     1
102
RTVSPost2010Prop30
280
     1
102
RTVSPost2010PropOp30
 70
     1
102
RTVSPost2010Prop31
280
     0
102
RTVSPost2010PropOp31
 70
     1
102
RTVSPost2010Prop32
280
     0
102
RTVSPost2010PropOp32
 70
     1
102
RTVSPost2010Prop33
280
     0
102
RTVSPost2010PropOp33
 70
     1
102
RTVSPost2010Prop34
280
     0
102
RTVSPost2010PropOp34
 70
     1
102
RTVSPost2010Prop35
280
     0
102
RTVSPost2010PropOp35
 70
     1
102
RTVSPost2010Prop36
280
     0
102
RTVSPost2010PropOp36
 70
     1
102
RTVSPost2010Prop37
 90
       50
102
RTVSPost2010PropOp37
 70
     1
102
RTVSPost2010Prop38
140
0.0
102
RTVSPost2010PropOp38
 70
     1
102
RTVSPost2010Prop39
140
1.0
102
RTVSPost2010PropOp39
 70
     1
102
RTVSPost2010Prop40
 90
        0
102
RTVSPost2010PropOp40
 70
     1
102
RTVSPost2010Prop41ColorIndex
 90
       18
102
RTVSPost2010Prop41ColorRGB
 90
        0
102
RTVSPost2010PropOp41
 70
     1
102
RTVSPost2010Prop42
 90
       50
102
RTVSPost2010PropOp42
 70
     1
102
RTVSPost2010Prop43
 90
        3
102
RTVSPost2010PropOp43
 70
     1
102
RTVSPost2010Prop44ColorIndex
 90
        5
102
RTVSPost2010Prop44ColorRGB
 90
      255
102
RTVSPost2010PropOp44
 70
     1
102
RTVSPost2010Prop45
280
     0
102
RTVSPost2010PropOp45
 70
     1
102
RTVSPost2010Prop46
 90
       50
102
RTVSPost2010PropOp46
 70
     1
102
RTVSPost2010Prop47
 90
       50
102
RTVSPost2010PropOp47
 70
     1
102
RTVSPost2010Prop48
 90
       50
102
RTVSPost2010PropOp48
 70
     1
102
RTVSPost2010Prop49
280
     0
102
RTVSPost2010PropOp49
 70
     1
102
RTVSPost2010Prop50
 90
       50
102
RTVSPost2010PropOp50
 70
     1
102
RTVSPost2010Prop51ColorIndex
 90
      256
102
RTVSPost2010Prop51ColorRGB
 90
-16777216
102
RTVSPost2010PropOp51
 70
     0
102
RTVSPost2010Prop52
140
1.0
102
RTVSPost2010PropOp52
 70
     0
102
RTVSPost2010Prop53
 90
        2
102
RTVSPost2010PropOp53
 70
     1
102
RTVSPost2010Prop54
  1
strokes_ogs.tif
102
RTVSPost2010PropOp54
 70
     1
102
RTVSPost2010Prop55
280
     0
102
RTVSPost2010PropOp55
 70
     1
102
RTVSPost2010Prop56
140
1.0
102
RTVSPost2010PropOp56
 70
     1
102
RTVSPost2010Prop57
140
1.0
102
RTVSPost2010PropOp57
 70
     1
  0
XRECORD
  5
2AF
102
{ACAD_REACTORS
330
2AE
102
}
330
2AE
100
AcDbXrecord
280
     1
102
RTVSPropertyOp0
 70
     1
102
RTVSPropertyOp1
 70
     1
102
RTVSPropertyOp2
 70
     1
102
RTVSPropertyOp3
 70
     1
102
RTVSPropertyOp4
 70
     1
102
RTVSPropertyOp5
 70
     1
102
RTVSPropertyOp6
 70
     1
102
RTVSPropertyOp7
 70
     1
102
RTVSPropertyOp8
 70
     1
102
RTVSPropertyOp9
 70
     1
102
RTVSPropertyOp10
 70
     1
102
RTVSPropertyOp11
 70
     1
102
RTVSPropertyOp12
 70
     1
102
RTVSPropertyOp13
 70
     1
102
RTVSPropertyOp14
 70
     1
102
RTVSPropertyOp15
 70
     1
102
RTVSPropertyOp16
 70
     1
102
RTVSPropertyOp17
 70
     1
102
RTVSPropertyOp18
 70
     1
102
RTVSPropertyOp19
 70
     1
102
RTVSPropertyOp20
 70
     1
102
RTVSPropertyOp21
 70
     1
102
RTVSPropertyOp22
 70
     1
102
RTVSPropertyOp23
 70
     1
102
RTVSPropertyOp24
 70
     1
102
RTVSPropertyOp25
 70
     1
102
RTVSPropertyOp26
 70
     1
102
RTVSPropertyOp27
 70
     1
102
RTVSPropertyOp28
 70
     1
102
RTVSPropertyOp29
 70
     1
102
RTVSPropertyOp30
 70
     1
102
RTVSPropertyOp31
 70
     1
102
RTVSPropertyOp32
 70
     1
102
RTVSPropertyOp33
 70
     1
102
RTVSPropertyOp34
 70
     1
102
RTVSPropertyOp35
 70
     1
102
RTVSPropertyOp36
 70
     1
102
RTVSPropertyOp37
 70
     1
102
RTVSPropertyOp38
 70
     1
102
RTVSPropertyOp39
 70
     1
102
RTVSPropertyOp40
 70
     1
102
RTVSPropertyOp41
 70
     1
102
RTVSPropertyOp42
 70
     1
102
RTVSPropertyOp43
 70
     1
102
RTVSPropertyOp44
 70
     1
102
RTVSPropertyOp45
 70
     1
102
RTVSPropertyOp46
 70
     1
102
RTVSPropertyOp47
 70
     1
102
RTVSPropertyOp48
 70
     1
102
RTVSPropertyOp49
 70
     1
102
RTVSPropertyOp50
 70
     1
102
RTVSPropertyOp51
 70
     0
102
RTVSPropertyOp52
 70
     0
102
RTVSPropertyOp53
 70
     1
102
RTVSPropertyOp54
 70
     1
102
RTVSPropertyOp55
 70
     1
102
RTVSPropertyOp56
 70
     1
102
RTVSPropertyOp57
 70
     1
102
RTVSPost2010Prop28
280
     0
102
RTVSPost2010PropOp28
 70
     1
102
RTVSPost2010Prop29
280
     1
102
RTVSPost2010PropOp29
 70
     1
102
RTVSPost2010Prop30
280
     1
102
RTVSPost2010PropOp30
 70
     1
102
RTVSPost2010Prop31
280
     0
102
RTVSPost2010PropOp31
 70
     1
102
RTVSPost2010Prop32
280
     0
102
RTVSPost2010PropOp32
 70
     1
102
RTVSPost2010Prop33
280
     0
102
RTVSPost2010PropOp33
 70
     1
102
RTVSPost2010Prop34
280
     0
102
RTVSPost2010PropOp34
 70
     1
102
RTVSPost2010Prop35
280
     0
102
RTVSPost2010PropOp35
 70
     1
102
RTVSPost2010Prop36
280
     0
102
RTVSPost2010PropOp36
 70
     1
102
RTVSPost2010Prop37
 90
       50
102
RTVSPost2010PropOp37
 70
     1
102
RTVSPost2010Prop38
140
0.0
102
RTVSPost2010PropOp38
 70
     1
102
RTVSPost2010Prop39
140
1.0
102
RTVSPost2010PropOp39
 70
     1
102
RTVSPost2010Prop40
 90
        0
102
RTVSPost2010PropOp40
 70
     1
102
RTVSPost2010Prop41ColorIndex
 90
       18
102
RTVSPost2010Prop41ColorRGB
 90
        0
102
RTVSPost2010PropOp41
 70
     1
102
RTVSPost2010Prop42
 90
       50
102
RTVSPost2010PropOp42
 70
     1
102
RTVSPost2010Prop43
 90
        3
102
RTVSPost2010PropOp43
 70
     1
102
RTVSPost2010Prop44ColorIndex
 90
        5
102
RTVSPost2010Prop44ColorRGB
 90
      255
102
RTVSPost2010PropOp44
 70
     1
102
RTVSPost2010Prop45
280
     0
102
RTVSPost2010PropOp45
 70
     1
102
RTVSPost2010Prop46
 90
       50
102
RTVSPost2010PropOp46
 70
     1
102
RTVSPost2010Prop47
 90
       50
102
RTVSPost2010PropOp47
 70
     1
102
RTVSPost2010Prop48
 90
       50
102
RTVSPost2010PropOp48
 70
     1
102
RTVSPost2010Prop49
280
     0
102
RTVSPost2010PropOp49
 70
     1
102
RTVSPost2010Prop50
 90
       50
102
RTVSPost2010PropOp50
 70
     1
102
RTVSPost2010Prop51ColorIndex
 90
      256
102
RTVSPost2010Prop51ColorRGB
 90
-16777216
102
RTVSPost2010PropOp51
 70
     0
102
RTVSPost2010Prop52
140
1.0
102
RTVSPost2010PropOp52
 70
     0
102
RTVSPost2010Prop53
 90
        2
102
RTVSPost2010PropOp53
 70
     1
102
RTVSPost2010Prop54
  1
strokes_ogs.tif
102
RTVSPost2010PropOp54
 70
     1
102
RTVSPost2010Prop55
280
     0
102
RTVSPost2010PropOp55
 70
     1
102
RTVSPost2010Prop56
140
1.0
102
RTVSPost2010PropOp56
 70
     1
102
RTVSPost2010Prop57
140
1.0
102
RTVSPost2010PropOp57
 70
     1
  0
XRECORD
  5
2B7
102
{ACAD_REACTORS
330
2B6
102
}
330
2B6
100
AcDbXrecord
280
     1
102
RTVSPropertyOp0
 70
     1
102
RTVSPropertyOp1
 70
     1
102
RTVSPropertyOp2
 70
     1
102
RTVSPropertyOp3
 70
     1
102
RTVSPropertyOp4
 70
     1
102
RTVSPropertyOp5
 70
     1
102
RTVSPropertyOp6
 70
     1
102
RTVSPropertyOp7
 70
     1
102
RTVSPropertyOp8
 70
     1
102
RTVSPropertyOp9
 70
     1
102
RTVSPropertyOp10
 70
     1
102
RTVSPropertyOp11
 70
     1
102
RTVSPropertyOp12
 70
     1
102
RTVSPropertyOp13
 70
     1
102
RTVSPropertyOp14
 70
     1
102
RTVSPropertyOp15
 70
     1
102
RTVSPropertyOp16
 70
     1
102
RTVSPropertyOp17
 70
     1
102
RTVSPropertyOp18
 70
     1
102
RTVSPropertyOp19
 70
     1
102
RTVSPropertyOp20
 70
     1
102
RTVSPropertyOp21
 70
     1
102
RTVSPropertyOp22
 70
     1
102
RTVSPropertyOp23
 70
     1
102
RTVSPropertyOp24
 70
     1
102
RTVSPropertyOp25
 70
     1
102
RTVSPropertyOp26
 70
     1
102
RTVSPropertyOp27
 70
     1
102
RTVSPropertyOp28
 70
     1
102
RTVSPropertyOp29
 70
     1
102
RTVSPropertyOp30
 70
     1
102
RTVSPropertyOp31
 70
     1
102
RTVSPropertyOp32
 70
     1
102
RTVSPropertyOp33
 70
     1
102
RTVSPropertyOp34
 70
     1
102
RTVSPropertyOp35
 70
     1
102
RTVSPropertyOp36
 70
     1
102
RTVSPropertyOp37
 70
     1
102
RTVSPropertyOp38
 70
     1
102
RTVSPropertyOp39
 70
     1
102
RTVSPropertyOp40
 70
     1
102
RTVSPropertyOp41
 70
     1
102
RTVSPropertyOp42
 70
     1
102
RTVSPropertyOp43
 70
     1
102
RTVSPropertyOp44
 70
     1
102
RTVSPropertyOp45
 70
     1
102
RTVSPropertyOp46
 70
     1
102
RTVSPropertyOp47
 70
     1
102
RTVSPropertyOp48
 70
     1
102
RTVSPropertyOp49
 70
     1
102
RTVSPropertyOp50
 70
     1
102
RTVSPropertyOp51
 70
     0
102
RTVSPropertyOp52
 70
     0
102
RTVSPropertyOp53
 70
     1
102
RTVSPropertyOp54
 70
     1
102
RTVSPropertyOp55
 70
     1
102
RTVSPropertyOp56
 70
     1
102
RTVSPropertyOp57
 70
     1
102
RTVSPost2010Prop28
280
     0
102
RTVSPost2010PropOp28
 70
     1
102
RTVSPost2010Prop29
280
     1
102
RTVSPost2010PropOp29
 70
     1
102
RTVSPost2010Prop30
280
     1
102
RTVSPost2010PropOp30
 70
     1
102
RTVSPost2010Prop31
280
     0
102
RTVSPost2010PropOp31
 70
     1
102
RTVSPost2010Prop32
280
     0
102
RTVSPost2010PropOp32
 70
     1
102
RTVSPost2010Prop33
280
     0
102
RTVSPost2010PropOp33
 70
     1
102
RTVSPost2010Prop34
280
     0
102
RTVSPost2010PropOp34
 70
     1
102
RTVSPost2010Prop35
280
     0
102
RTVSPost2010PropOp35
 70
     1
102
RTVSPost2010Prop36
280
     0
102
RTVSPost2010PropOp36
 70
     1
102
RTVSPost2010Prop37
 90
       50
102
RTVSPost2010PropOp37
 70
     1
102
RTVSPost2010Prop38
140
0.0
102
RTVSPost2010PropOp38
 70
     1
102
RTVSPost2010Prop39
140
1.0
102
RTVSPost2010PropOp39
 70
     1
102
RTVSPost2010Prop40
 90
        0
102
RTVSPost2010PropOp40
 70
     1
102
RTVSPost2010Prop41ColorIndex
 90
       18
102
RTVSPost2010Prop41ColorRGB
 90
        0
102
RTVSPost2010PropOp41
 70
     1
102
RTVSPost2010Prop42
 90
       50
102
RTVSPost2010PropOp42
 70
     1
102
RTVSPost2010Prop43
 90
        3
102
RTVSPost2010PropOp43
 70
     1
102
RTVSPost2010Prop44ColorIndex
 90
        5
102
RTVSPost2010Prop44ColorRGB
 90
      255
102
RTVSPost2010PropOp44
 70
     1
102
RTVSPost2010Prop45
280
     0
102
RTVSPost2010PropOp45
 70
     1
102
RTVSPost2010Prop46
 90
       50
102
RTVSPost2010PropOp46
 70
     1
102
RTVSPost2010Prop47
 90
       50
102
RTVSPost2010PropOp47
 70
     1
102
RTVSPost2010Prop48
 90
       50
102
RTVSPost2010PropOp48
 70
     1
102
RTVSPost2010Prop49
280
     0
102
RTVSPost2010PropOp49
 70
     1
102
RTVSPost2010Prop50
 90
       50
102
RTVSPost2010PropOp50
 70
     1
102
RTVSPost2010Prop51ColorIndex
 90
      256
102
RTVSPost2010Prop51ColorRGB
 90
-16777216
102
RTVSPost2010PropOp51
 70
     0
102
RTVSPost2010Prop52
140
1.0
102
RTVSPost2010PropOp52
 70
     0
102
RTVSPost2010Prop53
 90
        2
102
RTVSPost2010PropOp53
 70
     1
102
RTVSPost2010Prop54
  1
strokes_ogs.tif
102
RTVSPost2010PropOp54
 70
     1
102
RTVSPost2010Prop55
280
     0
102
RTVSPost2010PropOp55
 70
     1
102
RTVSPost2010Prop56
140
1.0
102
RTVSPost2010PropOp56
 70
     1
102
RTVSPost2010Prop57
140
1.0
102
RTVSPost2010PropOp57
 70
     1
  0
XRECORD
  5
2AB
102
{ACAD_REACTORS
330
2AA
102
}
330
2AA
100
AcDbXrecord
280
     1
102
RTVSPropertyOp0
 70
     1
102
RTVSPropertyOp1
 70
     1
102
RTVSPropertyOp2
 70
     1
102
RTVSPropertyOp3
 70
     1
102
RTVSPropertyOp4
 70
     1
102
RTVSPropertyOp5
 70
     1
102
RTVSPropertyOp6
 70
     1
102
RTVSPropertyOp7
 70
     1
102
RTVSPropertyOp8
 70
     1
102
RTVSPropertyOp9
 70
     1
102
RTVSPropertyOp10
 70
     1
102
RTVSPropertyOp11
 70
     1
102
RTVSPropertyOp12
 70
     1
102
RTVSPropertyOp13
 70
     1
102
RTVSPropertyOp14
 70
     1
102
RTVSPropertyOp15
 70
     1
102
RTVSPropertyOp16
 70
     1
102
RTVSPropertyOp17
 70
     1
102
RTVSPropertyOp18
 70
     1
102
RTVSPropertyOp19
 70
     1
102
RTVSPropertyOp20
 70
     1
102
RTVSPropertyOp21
 70
     1
102
RTVSPropertyOp22
 70
     1
102
RTVSPropertyOp23
 70
     1
102
RTVSPropertyOp24
 70
     1
102
RTVSPropertyOp25
 70
     1
102
RTVSPropertyOp26
 70
     1
102
RTVSPropertyOp27
 70
     1
102
RTVSPropertyOp28
 70
     1
102
RTVSPropertyOp29
 70
     1
102
RTVSPropertyOp30
 70
     1
102
RTVSPropertyOp31
 70
     1
102
RTVSPropertyOp32
 70
     1
102
RTVSPropertyOp33
 70
     1
102
RTVSPropertyOp34
 70
     1
102
RTVSPropertyOp35
 70
     1
102
RTVSPropertyOp36
 70
     1
102
RTVSPropertyOp37
 70
     1
102
RTVSPropertyOp38
 70
     1
102
RTVSPropertyOp39
 70
     1
102
RTVSPropertyOp40
 70
     1
102
RTVSPropertyOp41
 70
     1
102
RTVSPropertyOp42
 70
     1
102
RTVSPropertyOp43
 70
     1
102
RTVSPropertyOp44
 70
     1
102
RTVSPropertyOp45
 70
     1
102
RTVSPropertyOp46
 70
     1
102
RTVSPropertyOp47
 70
     1
102
RTVSPropertyOp48
 70
     1
102
RTVSPropertyOp49
 70
     1
102
RTVSPropertyOp50
 70
     1
102
RTVSPropertyOp51
 70
     0
102
RTVSPropertyOp52
 70
     0
102
RTVSPropertyOp53
 70
     1
102
RTVSPropertyOp54
 70
     1
102
RTVSPropertyOp55
 70
     1
102
RTVSPropertyOp56
 70
     1
102
RTVSPropertyOp57
 70
     1
102
RTVSPost2010Prop28
280
     0
102
RTVSPost2010PropOp28
 70
     1
102
RTVSPost2010Prop29
280
     1
102
RTVSPost2010PropOp29
 70
     1
102
RTVSPost2010Prop30
280
     1
102
RTVSPost2010PropOp30
 70
     1
102
RTVSPost2010Prop31
280
     0
102
RTVSPost2010PropOp31
 70
     1
102
RTVSPost2010Prop32
280
     0
102
RTVSPost2010PropOp32
 70
     1
102
RTVSPost2010Prop33
280
     0
102
RTVSPost2010PropOp33
 70
     1
102
RTVSPost2010Prop34
280
     0
102
RTVSPost2010PropOp34
 70
     1
102
RTVSPost2010Prop35
280
     0
102
RTVSPost2010PropOp35
 70
     1
102
RTVSPost2010Prop36
280
     0
102
RTVSPost2010PropOp36
 70
     1
102
RTVSPost2010Prop37
 90
       50
102
RTVSPost2010PropOp37
 70
     1
102
RTVSPost2010Prop38
140
0.0
102
RTVSPost2010PropOp38
 70
     1
102
RTVSPost2010Prop39
140
1.0
102
RTVSPost2010PropOp39
 70
     1
102
RTVSPost2010Prop40
 90
        0
102
RTVSPost2010PropOp40
 70
     1
102
RTVSPost2010Prop41ColorIndex
 90
       18
102
RTVSPost2010Prop41ColorRGB
 90
        0
102
RTVSPost2010PropOp41
 70
     1
102
RTVSPost2010Prop42
 90
       50
102
RTVSPost2010PropOp42
 70
     1
102
RTVSPost2010Prop43
 90
        3
102
RTVSPost2010PropOp43
 70
     1
102
RTVSPost2010Prop44ColorIndex
 90
        5
102
RTVSPost2010Prop44ColorRGB
 90
      255
102
RTVSPost2010PropOp44
 70
     1
102
RTVSPost2010Prop45
280
     0
102
RTVSPost2010PropOp45
 70
     1
102
RTVSPost2010Prop46
 90
       50
102
RTVSPost2010PropOp46
 70
     1
102
RTVSPost2010Prop47
 90
       50
102
RTVSPost2010PropOp47
 70
     1
102
RTVSPost2010Prop48
 90
       50
102
RTVSPost2010PropOp48
 70
     1
102
RTVSPost2010Prop49
280
     0
102
RTVSPost2010PropOp49
 70
     1
102
RTVSPost2010Prop50
 90
       50
102
RTVSPost2010PropOp50
 70
     1
102
RTVSPost2010Prop51ColorIndex
 90
      256
102
RTVSPost2010Prop51ColorRGB
 90
-16777216
102
RTVSPost2010PropOp51
 70
     0
102
RTVSPost2010Prop52
140
1.0
102
RTVSPost2010PropOp52
 70
     0
102
RTVSPost2010Prop53
 90
        2
102
RTVSPost2010PropOp53
 70
     1
102
RTVSPost2010Prop54
  1
strokes_ogs.tif
102
RTVSPost2010PropOp54
 70
     1
102
RTVSPost2010Prop55
280
     0
102
RTVSPost2010PropOp55
 70
     1
102
RTVSPost2010Prop56
140
1.0
102
RTVSPost2010PropOp56
 70
     1
102
RTVSPost2010Prop57
140
1.0
102
RTVSPost2010PropOp57
 70
     1
  0
XRECORD
  5
2AD
102
{ACAD_REACTORS
330
2AC
102
}
330
2AC
100
AcDbXrecord
280
     1
102
RTVSPropertyOp0
 70
     1
102
RTVSPropertyOp1
 70
     1
102
RTVSPropertyOp2
 70
     1
102
RTVSPropertyOp3
 70
     1
102
RTVSPropertyOp4
 70
     1
102
RTVSPropertyOp5
 70
     1
102
RTVSPropertyOp6
 70
     1
102
RTVSPropertyOp7
 70
     1
102
RTVSPropertyOp8
 70
     1
102
RTVSPropertyOp9
 70
     1
102
RTVSPropertyOp10
 70
     1
102
RTVSPropertyOp11
 70
     1
102
RTVSPropertyOp12
 70
     1
102
RTVSPropertyOp13
 70
     1
102
RTVSPropertyOp14
 70
     1
102
RTVSPropertyOp15
 70
     1
102
RTVSPropertyOp16
 70
     1
102
RTVSPropertyOp17
 70
     1
102
RTVSPropertyOp18
 70
     1
102
RTVSPropertyOp19
 70
     1
102
RTVSPropertyOp20
 70
     1
102
RTVSPropertyOp21
 70
     1
102
RTVSPropertyOp22
 70
     1
102
RTVSPropertyOp23
 70
     1
102
RTVSPropertyOp24
 70
     1
102
RTVSPropertyOp25
 70
     1
102
RTVSPropertyOp26
 70
     1
102
RTVSPropertyOp27
 70
     1
102
RTVSPropertyOp28
 70
     1
102
RTVSPropertyOp29
 70
     1
102
RTVSPropertyOp30
 70
     1
102
RTVSPropertyOp31
 70
     1
102
RTVSPropertyOp32
 70
     1
102
RTVSPropertyOp33
 70
     1
102
RTVSPropertyOp34
 70
     1
102
RTVSPropertyOp35
 70
     1
102
RTVSPropertyOp36
 70
     1
102
RTVSPropertyOp37
 70
     1
102
RTVSPropertyOp38
 70
     1
102
RTVSPropertyOp39
 70
     1
102
RTVSPropertyOp40
 70
     1
102
RTVSPropertyOp41
 70
     1
102
RTVSPropertyOp42
 70
     1
102
RTVSPropertyOp43
 70
     1
102
RTVSPropertyOp44
 70
     1
102
RTVSPropertyOp45
 70
     1
102
RTVSPropertyOp46
 70
     1
102
RTVSPropertyOp47
 70
     1
102
RTVSPropertyOp48
 70
     1
102
RTVSPropertyOp49
 70
     1
102
RTVSPropertyOp50
 70
     1
102
RTVSPropertyOp51
 70
     0
102
RTVSPropertyOp52
 70
     0
102
RTVSPropertyOp53
 70
     1
102
RTVSPropertyOp54
 70
     1
102
RTVSPropertyOp55
 70
     1
102
RTVSPropertyOp56
 70
     1
102
RTVSPropertyOp57
 70
     1
102
RTVSPost2010Prop28
280
     0
102
RTVSPost2010PropOp28
 70
     1
102
RTVSPost2010Prop29
280
     1
102
RTVSPost2010PropOp29
 70
     1
102
RTVSPost2010Prop30
280
     1
102
RTVSPost2010PropOp30
 70
     1
102
RTVSPost2010Prop31
280
     0
102
RTVSPost2010PropOp31
 70
     1
102
RTVSPost2010Prop32
280
     0
102
RTVSPost2010PropOp32
 70
     1
102
RTVSPost2010Prop33
280
     0
102
RTVSPost2010PropOp33
 70
     1
102
RTVSPost2010Prop34
280
     0
102
RTVSPost2010PropOp34
 70
     1
102
RTVSPost2010Prop35
280
     0
102
RTVSPost2010PropOp35
 70
     1
102
RTVSPost2010Prop36
280
     0
102
RTVSPost2010PropOp36
 70
     1
102
RTVSPost2010Prop37
 90
       50
102
RTVSPost2010PropOp37
 70
     1
102
RTVSPost2010Prop38
140
0.0
102
RTVSPost2010PropOp38
 70
     1
102
RTVSPost2010Prop39
140
1.0
102
RTVSPost2010PropOp39
 70
     1
102
RTVSPost2010Prop40
 90
        0
102
RTVSPost2010PropOp40
 70
     1
102
RTVSPost2010Prop41ColorIndex
 90
       18
102
RTVSPost2010Prop41ColorRGB
 90
        0
102
RTVSPost2010PropOp41
 70
     1
102
RTVSPost2010Prop42
 90
       50
102
RTVSPost2010PropOp42
 70
     1
102
RTVSPost2010Prop43
 90
        3
102
RTVSPost2010PropOp43
 70
     1
102
RTVSPost2010Prop44ColorIndex
 90
        5
102
RTVSPost2010Prop44ColorRGB
 90
      255
102
RTVSPost2010PropOp44
 70
     1
102
RTVSPost2010Prop45
280
     0
102
RTVSPost2010PropOp45
 70
     1
102
RTVSPost2010Prop46
 90
       50
102
RTVSPost2010PropOp46
 70
     1
102
RTVSPost2010Prop47
 90
       50
102
RTVSPost2010PropOp47
 70
     1
102
RTVSPost2010Prop48
 90
       50
102
RTVSPost2010PropOp48
 70
     1
102
RTVSPost2010Prop49
280
     0
102
RTVSPost2010PropOp49
 70
     1
102
RTVSPost2010Prop50
 90
       50
102
RTVSPost2010PropOp50
 70
     1
102
RTVSPost2010Prop51ColorIndex
 90
      256
102
RTVSPost2010Prop51ColorRGB
 90
-16777216
102
RTVSPost2010PropOp51
 70
     0
102
RTVSPost2010Prop52
140
1.0
102
RTVSPost2010PropOp52
 70
     0
102
RTVSPost2010Prop53
 90
        2
102
RTVSPost2010PropOp53
 70
     1
102
RTVSPost2010Prop54
  1
strokes_ogs.tif
102
RTVSPost2010PropOp54
 70
     1
102
RTVSPost2010Prop55
280
     0
102
RTVSPost2010PropOp55
 70
     1
102
RTVSPost2010Prop56
140
1.0
102
RTVSPost2010PropOp56
 70
     1
102
RTVSPost2010Prop57
140
1.0
102
RTVSPost2010PropOp57
 70
     1
  0
XRECORD
  5
2BD
102
{ACAD_REACTORS
330
2BC
102
}
330
2BC
100
AcDbXrecord
280
     1
102
RTVSPropertyOp0
 70
     0
102
RTVSPropertyOp1
 70
     0
102
RTVSPropertyOp2
 70
     0
102
RTVSPropertyOp3
 70
     0
102
RTVSPropertyOp4
 70
     0
102
RTVSPropertyOp5
 70
     0
102
RTVSPropertyOp6
 70
     0
102
RTVSPropertyOp7
 70
     0
102
RTVSPropertyOp8
 70
     0
102
RTVSPropertyOp9
 70
     0
102
RTVSPropertyOp10
 70
     0
102
RTVSPropertyOp11
 70
     0
102
RTVSPropertyOp12
 70
     0
102
RTVSPropertyOp13
 70
     0
102
RTVSPropertyOp14
 70
     2
102
RTVSPropertyOp15
 70
     0
102
RTVSPropertyOp16
 70
     0
102
RTVSPropertyOp17
 70
     0
102
RTVSPropertyOp18
 70
     0
102
RTVSPropertyOp19
 70
     0
102
RTVSPropertyOp20
 70
     0
102
RTVSPropertyOp21
 70
     0
102
RTVSPropertyOp22
 70
     0
102
RTVSPropertyOp23
 70
     0
102
RTVSPropertyOp24
 70
     0
102
RTVSPropertyOp25
 70
     0
102
RTVSPropertyOp26
 70
     0
102
RTVSPropertyOp27
 70
     0
102
RTVSPropertyOp28
 70
     0
102
RTVSPropertyOp29
 70
     0
102
RTVSPropertyOp30
 70
     0
102
RTVSPropertyOp31
 70
     0
102
RTVSPropertyOp32
 70
     0
102
RTVSPropertyOp33
 70
     0
102
RTVSPropertyOp34
 70
     0
102
RTVSPropertyOp35
 70
     0
102
RTVSPropertyOp36
 70
     0
102
RTVSPropertyOp37
 70
     0
102
RTVSPropertyOp38
 70
     0
102
RTVSPropertyOp39
 70
     0
102
RTVSPropertyOp40
 70
     0
102
RTVSPropertyOp41
 70
     0
102
RTVSPropertyOp42
 70
     0
102
RTVSPropertyOp43
 70
     0
102
RTVSPropertyOp44
 70
     0
102
RTVSPropertyOp45
 70
     0
102
RTVSPropertyOp46
 70
     0
102
RTVSPropertyOp47
 70
     0
102
RTVSPropertyOp48
 70
     0
102
RTVSPropertyOp49
 70
     0
102
RTVSPropertyOp50
 70
     0
102
RTVSPropertyOp51
 70
     0
102
RTVSPropertyOp52
 70
     0
102
RTVSPropertyOp53
 70
     0
102
RTVSPropertyOp54
 70
     0
102
RTVSPropertyOp55
 70
     0
102
RTVSPropertyOp56
 70
     0
102
RTVSPropertyOp57
 70
     0
102
RTVSPost2010Prop28
280
     0
102
RTVSPost2010PropOp28
 70
     0
102
RTVSPost2010Prop29
280
     1
102
RTVSPost2010PropOp29
 70
     0
102
RTVSPost2010Prop30
280
     1
102
RTVSPost2010PropOp30
 70
     0
102
RTVSPost2010Prop31
280
     0
102
RTVSPost2010PropOp31
 70
     0
102
RTVSPost2010Prop32
280
     0
102
RTVSPost2010PropOp32
 70
     0
102
RTVSPost2010Prop33
280
     0
102
RTVSPost2010PropOp33
 70
     0
102
RTVSPost2010Prop34
280
     0
102
RTVSPost2010PropOp34
 70
     0
102
RTVSPost2010Prop35
280
     0
102
RTVSPost2010PropOp35
 70
     0
102
RTVSPost2010Prop36
280
     0
102
RTVSPost2010PropOp36
 70
     0
102
RTVSPost2010Prop37
 90
       50
102
RTVSPost2010PropOp37
 70
     0
102
RTVSPost2010Prop38
140
0.0
102
RTVSPost2010PropOp38
 70
     0
102
RTVSPost2010Prop39
140
1.0
102
RTVSPost2010PropOp39
 70
     0
102
RTVSPost2010Prop40
 90
        0
102
RTVSPost2010PropOp40
 70
     0
102
RTVSPost2010Prop41ColorIndex
 90
       18
102
RTVSPost2010Prop41ColorRGB
 90
        0
102
RTVSPost2010PropOp41
 70
     0
102
RTVSPost2010Prop42
 90
       50
102
RTVSPost2010PropOp42
 70
     0
102
RTVSPost2010Prop43
 90
        3
102
RTVSPost2010PropOp43
 70
     0
102
RTVSPost2010Prop44ColorIndex
 90
        5
102
RTVSPost2010Prop44ColorRGB
 90
      255
102
RTVSPost2010PropOp44
 70
     0
102
RTVSPost2010Prop45
280
     0
102
RTVSPost2010PropOp45
 70
     0
102
RTVSPost2010Prop46
 90
       50
102
RTVSPost2010PropOp46
 70
     0
102
RTVSPost2010Prop47
 90
       50
102
RTVSPost2010PropOp47
 70
     0
102
RTVSPost2010Prop48
 90
       50
102
RTVSPost2010PropOp48
 70
     0
102
RTVSPost2010Prop49
280
     0
102
RTVSPost2010PropOp49
 70
     0
102
RTVSPost2010Prop50
 90
       50
102
RTVSPost2010PropOp50
 70
     0
102
RTVSPost2010Prop51ColorIndex
 90
      256
102
RTVSPost2010Prop51ColorRGB
 90
-16777216
102
RTVSPost2010PropOp51
 70
     0
102
RTVSPost2010Prop52
140
1.0
102
RTVSPost2010PropOp52
 70
     0
102
RTVSPost2010Prop53
 90
        2
102
RTVSPost2010PropOp53
 70
     0
102
RTVSPost2010Prop54
  1
strokes_ogs.tif
102
RTVSPost2010PropOp54
 70
     0
102
RTVSPost2010Prop55
280
     0
102
RTVSPost2010PropOp55
 70
     0
102
RTVSPost2010Prop56
140
1.0
102
RTVSPost2010PropOp56
 70
     0
102
RTVSPost2010Prop57
140
1.0
102
RTVSPost2010PropOp57
 70
     0
  0
XRECORD
  5
2B5
102
{ACAD_REACTORS
330
2B4
102
}
330
2B4
100
AcDbXrecord
280
     1
102
RTVSPropertyOp0
 70
     1
102
RTVSPropertyOp1
 70
     1
102
RTVSPropertyOp2
 70
     1
102
RTVSPropertyOp3
 70
     1
102
RTVSPropertyOp4
 70
     1
102
RTVSPropertyOp5
 70
     1
102
RTVSPropertyOp6
 70
     1
102
RTVSPropertyOp7
 70
     1
102
RTVSPropertyOp8
 70
     1
102
RTVSPropertyOp9
 70
     1
102
RTVSPropertyOp10
 70
     1
102
RTVSPropertyOp11
 70
     1
102
RTVSPropertyOp12
 70
     1
102
RTVSPropertyOp13
 70
     1
102
RTVSPropertyOp14
 70
     1
102
RTVSPropertyOp15
 70
     1
102
RTVSPropertyOp16
 70
     1
102
RTVSPropertyOp17
 70
     1
102
RTVSPropertyOp18
 70
     1
102
RTVSPropertyOp19
 70
     1
102
RTVSPropertyOp20
 70
     1
102
RTVSPropertyOp21
 70
     1
102
RTVSPropertyOp22
 70
     1
102
RTVSPropertyOp23
 70
     1
102
RTVSPropertyOp24
 70
     1
102
RTVSPropertyOp25
 70
     1
102
RTVSPropertyOp26
 70
     1
102
RTVSPropertyOp27
 70
     1
102
RTVSPropertyOp28
 70
     1
102
RTVSPropertyOp29
 70
     1
102
RTVSPropertyOp30
 70
     1
102
RTVSPropertyOp31
 70
     1
102
RTVSPropertyOp32
 70
     1
102
RTVSPropertyOp33
 70
     1
102
RTVSPropertyOp34
 70
     1
102
RTVSPropertyOp35
 70
     1
102
RTVSPropertyOp36
 70
     1
102
RTVSPropertyOp37
 70
     1
102
RTVSPropertyOp38
 70
     1
102
RTVSPropertyOp39
 70
     1
102
RTVSPropertyOp40
 70
     1
102
RTVSPropertyOp41
 70
     1
102
RTVSPropertyOp42
 70
     1
102
RTVSPropertyOp43
 70
     1
102
RTVSPropertyOp44
 70
     1
102
RTVSPropertyOp45
 70
     1
102
RTVSPropertyOp46
 70
     1
102
RTVSPropertyOp47
 70
     1
102
RTVSPropertyOp48
 70
     1
102
RTVSPropertyOp49
 70
     1
102
RTVSPropertyOp50
 70
     1
102
RTVSPropertyOp51
 70
     0
102
RTVSPropertyOp52
 70
     0
102
RTVSPropertyOp53
 70
     1
102
RTVSPropertyOp54
 70
     1
102
RTVSPropertyOp55
 70
     1
102
RTVSPropertyOp56
 70
     1
102
RTVSPropertyOp57
 70
     1
102
RTVSPost2010Prop28
280
     0
102
RTVSPost2010PropOp28
 70
     1
102
RTVSPost2010Prop29
280
     1
102
RTVSPost2010PropOp29
 70
     1
102
RTVSPost2010Prop30
280
     1
102
RTVSPost2010PropOp30
 70
     1
102
RTVSPost2010Prop31
280
     0
102
RTVSPost2010PropOp31
 70
     1
102
RTVSPost2010Prop32
280
     0
102
RTVSPost2010PropOp32
 70
     1
102
RTVSPost2010Prop33
280
     0
102
RTVSPost2010PropOp33
 70
     1
102
RTVSPost2010Prop34
280
     0
102
RTVSPost2010PropOp34
 70
     1
102
RTVSPost2010Prop35
280
     0
102
RTVSPost2010PropOp35
 70
     1
102
RTVSPost2010Prop36
280
     0
102
RTVSPost2010PropOp36
 70
     1
102
RTVSPost2010Prop37
 90
       50
102
RTVSPost2010PropOp37
 70
     1
102
RTVSPost2010Prop38
140
0.0
102
RTVSPost2010PropOp38
 70
     1
102
RTVSPost2010Prop39
140
1.0
102
RTVSPost2010PropOp39
 70
     1
102
RTVSPost2010Prop40
 90
        0
102
RTVSPost2010PropOp40
 70
     1
102
RTVSPost2010Prop41ColorIndex
 90
       18
102
RTVSPost2010Prop41ColorRGB
 90
        0
102
RTVSPost2010PropOp41
 70
     1
102
RTVSPost2010Prop42
 90
       50
102
RTVSPost2010PropOp42
 70
     1
102
RTVSPost2010Prop43
 90
        3
102
RTVSPost2010PropOp43
 70
     1
102
RTVSPost2010Prop44ColorIndex
 90
        5
102
RTVSPost2010Prop44ColorRGB
 90
      255
102
RTVSPost2010PropOp44
 70
     1
102
RTVSPost2010Prop45
280
     0
102
RTVSPost2010PropOp45
 70
     1
102
RTVSPost2010Prop46
 90
       50
102
RTVSPost2010PropOp46
 70
     1
102
RTVSPost2010Prop47
 90
       50
102
RTVSPost2010PropOp47
 70
     1
102
RTVSPost2010Prop48
 90
       50
102
RTVSPost2010PropOp48
 70
     1
102
RTVSPost2010Prop49
280
     0
102
RTVSPost2010PropOp49
 70
     1
102
RTVSPost2010Prop50
 90
       50
102
RTVSPost2010PropOp50
 70
     1
102
RTVSPost2010Prop51ColorIndex
 90
      256
102
RTVSPost2010Prop51ColorRGB
 90
-16777216
102
RTVSPost2010PropOp51
 70
     0
102
RTVSPost2010Prop52
140
1.0
102
RTVSPost2010PropOp52
 70
     0
102
RTVSPost2010Prop53
 90
        2
102
RTVSPost2010PropOp53
 70
     1
102
RTVSPost2010Prop54
  1
strokes_ogs.tif
102
RTVSPost2010PropOp54
 70
     1
102
RTVSPost2010Prop55
280
     0
102
RTVSPost2010PropOp55
 70
     1
102
RTVSPost2010Prop56
140
1.0
102
RTVSPost2010PropOp56
 70
     1
102
RTVSPost2010Prop57
140
1.0
102
RTVSPost2010PropOp57
 70
     1
  0
XRECORD
  5
299
102
{ACAD_REACTORS
330
298
102
}
330
298
100
AcDbXrecord
280
     1
102
RTVSPropertyOp0
 70
     1
102
RTVSPropertyOp1
 70
     1
102
RTVSPropertyOp2
 70
     1
102
RTVSPropertyOp3
 70
     1
102
RTVSPropertyOp4
 70
     1
102
RTVSPropertyOp5
 70
     1
102
RTVSPropertyOp6
 70
     1
102
RTVSPropertyOp7
 70
     1
102
RTVSPropertyOp8
 70
     1
102
RTVSPropertyOp9
 70
     1
102
RTVSPropertyOp10
 70
     1
102
RTVSPropertyOp11
 70
     1
102
RTVSPropertyOp12
 70
     1
102
RTVSPropertyOp13
 70
     1
102
RTVSPropertyOp14
 70
     1
102
RTVSPropertyOp15
 70
     1
102
RTVSPropertyOp16
 70
     1
102
RTVSPropertyOp17
 70
     1
102
RTVSPropertyOp18
 70
     1
102
RTVSPropertyOp19
 70
     1
102
RTVSPropertyOp20
 70
     1
102
RTVSPropertyOp21
 70
     1
102
RTVSPropertyOp22
 70
     1
102
RTVSPropertyOp23
 70
     1
102
RTVSPropertyOp24
 70
     1
102
RTVSPropertyOp25
 70
     1
102
RTVSPropertyOp26
 70
     1
102
RTVSPropertyOp27
 70
     1
102
RTVSPropertyOp28
 70
     1
102
RTVSPropertyOp29
 70
     1
102
RTVSPropertyOp30
 70
     1
102
RTVSPropertyOp31
 70
     1
102
RTVSPropertyOp32
 70
     1
102
RTVSPropertyOp33
 70
     1
102
RTVSPropertyOp34
 70
     1
102
RTVSPropertyOp35
 70
     1
102
RTVSPropertyOp36
 70
     1
102
RTVSPropertyOp37
 70
     1
102
RTVSPropertyOp38
 70
     1
102
RTVSPropertyOp39
 70
     1
102
RTVSPropertyOp40
 70
     1
102
RTVSPropertyOp41
 70
     1
102
RTVSPropertyOp42
 70
     1
102
RTVSPropertyOp43
 70
     1
102
RTVSPropertyOp44
 70
     1
102
RTVSPropertyOp45
 70
     1
102
RTVSPropertyOp46
 70
     1
102
RTVSPropertyOp47
 70
     1
102
RTVSPropertyOp48
 70
     1
102
RTVSPropertyOp49
 70
     1
102
RTVSPropertyOp50
 70
     1
102
RTVSPropertyOp51
 70
     0
102
RTVSPropertyOp52
 70
     0
102
RTVSPropertyOp53
 70
     1
102
RTVSPropertyOp54
 70
     1
102
RTVSPropertyOp55
 70
     1
102
RTVSPropertyOp56
 70
     1
102
RTVSPropertyOp57
 70
     1
102
RTVSPost2010Prop28
280
     0
102
RTVSPost2010PropOp28
 70
     1
102
RTVSPost2010Prop29
280
     1
102
RTVSPost2010PropOp29
 70
     1
102
RTVSPost2010Prop30
280
     1
102
RTVSPost2010PropOp30
 70
     1
102
RTVSPost2010Prop31
280
     0
102
RTVSPost2010PropOp31
 70
     1
102
RTVSPost2010Prop32
280
     0
102
RTVSPost2010PropOp32
 70
     1
102
RTVSPost2010Prop33
280
     0
102
RTVSPost2010PropOp33
 70
     1
102
RTVSPost2010Prop34
280
     0
102
RTVSPost2010PropOp34
 70
     1
102
RTVSPost2010Prop35
280
     0
102
RTVSPost2010PropOp35
 70
     1
102
RTVSPost2010Prop36
280
     0
102
RTVSPost2010PropOp36
 70
     1
102
RTVSPost2010Prop37
 90
       50
102
RTVSPost2010PropOp37
 70
     1
102
RTVSPost2010Prop38
140
0.0
102
RTVSPost2010PropOp38
 70
     1
102
RTVSPost2010Prop39
140
1.0
102
RTVSPost2010PropOp39
 70
     1
102
RTVSPost2010Prop40
 90
        0
102
RTVSPost2010PropOp40
 70
     1
102
RTVSPost2010Prop41ColorIndex
 90
       18
102
RTVSPost2010Prop41ColorRGB
 90
        0
102
RTVSPost2010PropOp41
 70
     1
102
RTVSPost2010Prop42
 90
       50
102
RTVSPost2010PropOp42
 70
     1
102
RTVSPost2010Prop43
 90
        3
102
RTVSPost2010PropOp43
 70
     1
102
RTVSPost2010Prop44ColorIndex
 90
        5
102
RTVSPost2010Prop44ColorRGB
 90
      255
102
RTVSPost2010PropOp44
 70
     1
102
RTVSPost2010Prop45
280
     0
102
RTVSPost2010PropOp45
 70
     1
102
RTVSPost2010Prop46
 90
       50
102
RTVSPost2010PropOp46
 70
     1
102
RTVSPost2010Prop47
 90
       50
102
RTVSPost2010PropOp47
 70
     1
102
RTVSPost2010Prop48
 90
       50
102
RTVSPost2010PropOp48
 70
     1
102
RTVSPost2010Prop49
280
     0
102
RTVSPost2010PropOp49
 70
     1
102
RTVSPost2010Prop50
 90
       50
102
RTVSPost2010PropOp50
 70
     1
102
RTVSPost2010Prop51ColorIndex
 90
      256
102
RTVSPost2010Prop51ColorRGB
 90
-16777216
102
RTVSPost2010PropOp51
 70
     0
102
RTVSPost2010Prop52
140
1.0
102
RTVSPost2010PropOp52
 70
     0
102
RTVSPost2010Prop53
 90
        2
102
RTVSPost2010PropOp53
 70
     1
102
RTVSPost2010Prop54
  1
strokes_ogs.tif
102
RTVSPost2010PropOp54
 70
     1
102
RTVSPost2010Prop55
280
     0
102
RTVSPost2010PropOp55
 70
     1
102
RTVSPost2010Prop56
140
1.0
102
RTVSPost2010PropOp56
 70
     1
102
RTVSPost2010Prop57
140
1.0
102
RTVSPost2010PropOp57
 70
     1
  0
XRECORD
  5
29B
102
{ACAD_REACTORS
330
29A
102
}
330
29A
100
AcDbXrecord
280
     1
102
RTVSPropertyOp0
 70
     1
102
RTVSPropertyOp1
 70
     1
102
RTVSPropertyOp2
 70
     1
102
RTVSPropertyOp3
 70
     1
102
RTVSPropertyOp4
 70
     1
102
RTVSPropertyOp5
 70
     1
102
RTVSPropertyOp6
 70
     1
102
RTVSPropertyOp7
 70
     1
102
RTVSPropertyOp8
 70
     1
102
RTVSPropertyOp9
 70
     1
102
RTVSPropertyOp10
 70
     1
102
RTVSPropertyOp11
 70
     1
102
RTVSPropertyOp12
 70
     1
102
RTVSPropertyOp13
 70
     1
102
RTVSPropertyOp14
 70
     1
102
RTVSPropertyOp15
 70
     1
102
RTVSPropertyOp16
 70
     1
102
RTVSPropertyOp17
 70
     1
102
RTVSPropertyOp18
 70
     1
102
RTVSPropertyOp19
 70
     1
102
RTVSPropertyOp20
 70
     1
102
RTVSPropertyOp21
 70
     1
102
RTVSPropertyOp22
 70
     1
102
RTVSPropertyOp23
 70
     1
102
RTVSPropertyOp24
 70
     1
102
RTVSPropertyOp25
 70
     1
102
RTVSPropertyOp26
 70
     1
102
RTVSPropertyOp27
 70
     1
102
RTVSPropertyOp28
 70
     1
102
RTVSPropertyOp29
 70
     1
102
RTVSPropertyOp30
 70
     1
102
RTVSPropertyOp31
 70
     1
102
RTVSPropertyOp32
 70
     1
102
RTVSPropertyOp33
 70
     1
102
RTVSPropertyOp34
 70
     1
102
RTVSPropertyOp35
 70
     1
102
RTVSPropertyOp36
 70
     1
102
RTVSPropertyOp37
 70
     1
102
RTVSPropertyOp38
 70
     1
102
RTVSPropertyOp39
 70
     1
102
RTVSPropertyOp40
 70
     1
102
RTVSPropertyOp41
 70
     1
102
RTVSPropertyOp42
 70
     1
102
RTVSPropertyOp43
 70
     1
102
RTVSPropertyOp44
 70
     1
102
RTVSPropertyOp45
 70
     1
102
RTVSPropertyOp46
 70
     1
102
RTVSPropertyOp47
 70
     1
102
RTVSPropertyOp48
 70
     1
102
RTVSPropertyOp49
 70
     1
102
RTVSPropertyOp50
 70
     1
102
RTVSPropertyOp51
 70
     0
102
RTVSPropertyOp52
 70
     0
102
RTVSPropertyOp53
 70
     1
102
RTVSPropertyOp54
 70
     1
102
RTVSPropertyOp55
 70
     1
102
RTVSPropertyOp56
 70
     1
102
RTVSPropertyOp57
 70
     1
102
RTVSPost2010Prop28
280
     0
102
RTVSPost2010PropOp28
 70
     1
102
RTVSPost2010Prop29
280
     1
102
RTVSPost2010PropOp29
 70
     1
102
RTVSPost2010Prop30
280
     1
102
RTVSPost2010PropOp30
 70
     1
102
RTVSPost2010Prop31
280
     0
102
RTVSPost2010PropOp31
 70
     1
102
RTVSPost2010Prop32
280
     0
102
RTVSPost2010PropOp32
 70
     1
102
RTVSPost2010Prop33
280
     0
102
RTVSPost2010PropOp33
 70
     1
102
RTVSPost2010Prop34
280
     0
102
RTVSPost2010PropOp34
 70
     1
102
RTVSPost2010Prop35
280
     0
102
RTVSPost2010PropOp35
 70
     1
102
RTVSPost2010Prop36
280
     0
102
RTVSPost2010PropOp36
 70
     1
102
RTVSPost2010Prop37
 90
       50
102
RTVSPost2010PropOp37
 70
     1
102
RTVSPost2010Prop38
140
0.0
102
RTVSPost2010PropOp38
 70
     1
102
RTVSPost2010Prop39
140
1.0
102
RTVSPost2010PropOp39
 70
     1
102
RTVSPost2010Prop40
 90
        0
102
RTVSPost2010PropOp40
 70
     1
102
RTVSPost2010Prop41ColorIndex
 90
       18
102
RTVSPost2010Prop41ColorRGB
 90
        0
102
RTVSPost2010PropOp41
 70
     1
102
RTVSPost2010Prop42
 90
       50
102
RTVSPost2010PropOp42
 70
     1
102
RTVSPost2010Prop43
 90
        3
102
RTVSPost2010PropOp43
 70
     1
102
RTVSPost2010Prop44ColorIndex
 90
        5
102
RTVSPost2010Prop44ColorRGB
 90
      255
102
RTVSPost2010PropOp44
 70
     1
102
RTVSPost2010Prop45
280
     0
102
RTVSPost2010PropOp45
 70
     1
102
RTVSPost2010Prop46
 90
       50
102
RTVSPost2010PropOp46
 70
     1
102
RTVSPost2010Prop47
 90
       50
102
RTVSPost2010PropOp47
 70
     1
102
RTVSPost2010Prop48
 90
       50
102
RTVSPost2010PropOp48
 70
     1
102
RTVSPost2010Prop49
280
     0
102
RTVSPost2010PropOp49
 70
     1
102
RTVSPost2010Prop50
 90
       50
102
RTVSPost2010PropOp50
 70
     1
102
RTVSPost2010Prop51ColorIndex
 90
      256
102
RTVSPost2010Prop51ColorRGB
 90
-16777216
102
RTVSPost2010PropOp51
 70
     0
102
RTVSPost2010Prop52
140
1.0
102
RTVSPost2010PropOp52
 70
     0
102
RTVSPost2010Prop53
 90
        2
102
RTVSPost2010PropOp53
 70
     1
102
RTVSPost2010Prop54
  1
strokes_ogs.tif
102
RTVSPost2010PropOp54
 70
     1
102
RTVSPost2010Prop55
280
     0
102
RTVSPost2010PropOp55
 70
     1
102
RTVSPost2010Prop56
140
1.0
102
RTVSPost2010PropOp56
 70
     1
102
RTVSPost2010Prop57
140
1.0
102
RTVSPost2010PropOp57
 70
     1
  0
XRECORD
  5
29D
102
{ACAD_REACTORS
330
29C
102
}
330
29C
100
AcDbXrecord
280
     1
102
RTVSPropertyOp0
 70
     1
102
RTVSPropertyOp1
 70
     1
102
RTVSPropertyOp2
 70
     1
102
RTVSPropertyOp3
 70
     1
102
RTVSPropertyOp4
 70
     1
102
RTVSPropertyOp5
 70
     1
102
RTVSPropertyOp6
 70
     1
102
RTVSPropertyOp7
 70
     1
102
RTVSPropertyOp8
 70
     1
102
RTVSPropertyOp9
 70
     1
102
RTVSPropertyOp10
 70
     1
102
RTVSPropertyOp11
 70
     1
102
RTVSPropertyOp12
 70
     1
102
RTVSPropertyOp13
 70
     1
102
RTVSPropertyOp14
 70
     1
102
RTVSPropertyOp15
 70
     1
102
RTVSPropertyOp16
 70
     1
102
RTVSPropertyOp17
 70
     1
102
RTVSPropertyOp18
 70
     1
102
RTVSPropertyOp19
 70
     1
102
RTVSPropertyOp20
 70
     1
102
RTVSPropertyOp21
 70
     1
102
RTVSPropertyOp22
 70
     1
102
RTVSPropertyOp23
 70
     1
102
RTVSPropertyOp24
 70
     1
102
RTVSPropertyOp25
 70
     1
102
RTVSPropertyOp26
 70
     1
102
RTVSPropertyOp27
 70
     1
102
RTVSPropertyOp28
 70
     1
102
RTVSPropertyOp29
 70
     1
102
RTVSPropertyOp30
 70
     1
102
RTVSPropertyOp31
 70
     1
102
RTVSPropertyOp32
 70
     1
102
RTVSPropertyOp33
 70
     1
102
RTVSPropertyOp34
 70
     1
102
RTVSPropertyOp35
 70
     1
102
RTVSPropertyOp36
 70
     1
102
RTVSPropertyOp37
 70
     1
102
RTVSPropertyOp38
 70
     1
102
RTVSPropertyOp39
 70
     1
102
RTVSPropertyOp40
 70
     1
102
RTVSPropertyOp41
 70
     1
102
RTVSPropertyOp42
 70
     1
102
RTVSPropertyOp43
 70
     1
102
RTVSPropertyOp44
 70
     1
102
RTVSPropertyOp45
 70
     1
102
RTVSPropertyOp46
 70
     1
102
RTVSPropertyOp47
 70
     1
102
RTVSPropertyOp48
 70
     1
102
RTVSPropertyOp49
 70
     1
102
RTVSPropertyOp50
 70
     1
102
RTVSPropertyOp51
 70
     0
102
RTVSPropertyOp52
 70
     0
102
RTVSPropertyOp53
 70
     1
102
RTVSPropertyOp54
 70
     1
102
RTVSPropertyOp55
 70
     1
102
RTVSPropertyOp56
 70
     1
102
RTVSPropertyOp57
 70
     1
102
RTVSPost2010Prop28
280
     0
102
RTVSPost2010PropOp28
 70
     1
102
RTVSPost2010Prop29
280
     1
102
RTVSPost2010PropOp29
 70
     1
102
RTVSPost2010Prop30
280
     1
102
RTVSPost2010PropOp30
 70
     1
102
RTVSPost2010Prop31
280
     0
102
RTVSPost2010PropOp31
 70
     1
102
RTVSPost2010Prop32
280
     0
102
RTVSPost2010PropOp32
 70
     1
102
RTVSPost2010Prop33
280
     0
102
RTVSPost2010PropOp33
 70
     1
102
RTVSPost2010Prop34
280
     0
102
RTVSPost2010PropOp34
 70
     1
102
RTVSPost2010Prop35
280
     0
102
RTVSPost2010PropOp35
 70
     1
102
RTVSPost2010Prop36
280
     0
102
RTVSPost2010PropOp36
 70
     1
102
RTVSPost2010Prop37
 90
       50
102
RTVSPost2010PropOp37
 70
     1
102
RTVSPost2010Prop38
140
0.0
102
RTVSPost2010PropOp38
 70
     1
102
RTVSPost2010Prop39
140
1.0
102
RTVSPost2010PropOp39
 70
     1
102
RTVSPost2010Prop40
 90
        0
102
RTVSPost2010PropOp40
 70
     1
102
RTVSPost2010Prop41ColorIndex
 90
       18
102
RTVSPost2010Prop41ColorRGB
 90
        0
102
RTVSPost2010PropOp41
 70
     1
102
RTVSPost2010Prop42
 90
       50
102
RTVSPost2010PropOp42
 70
     1
102
RTVSPost2010Prop43
 90
        3
102
RTVSPost2010PropOp43
 70
     1
102
RTVSPost2010Prop44ColorIndex
 90
        5
102
RTVSPost2010Prop44ColorRGB
 90
      255
102
RTVSPost2010PropOp44
 70
     1
102
RTVSPost2010Prop45
280
     0
102
RTVSPost2010PropOp45
 70
     1
102
RTVSPost2010Prop46
 90
       50
102
RTVSPost2010PropOp46
 70
     1
102
RTVSPost2010Prop47
 90
       50
102
RTVSPost2010PropOp47
 70
     1
102
RTVSPost2010Prop48
 90
       50
102
RTVSPost2010PropOp48
 70
     1
102
RTVSPost2010Prop49
280
     0
102
RTVSPost2010PropOp49
 70
     1
102
RTVSPost2010Prop50
 90
       50
102
RTVSPost2010PropOp50
 70
     1
102
RTVSPost2010Prop51ColorIndex
 90
      256
102
RTVSPost2010Prop51ColorRGB
 90
-16777216
102
RTVSPost2010PropOp51
 70
     0
102
RTVSPost2010Prop52
140
1.0
102
RTVSPost2010PropOp52
 70
     0
102
RTVSPost2010Prop53
 90
        2
102
RTVSPost2010PropOp53
 70
     1
102
RTVSPost2010Prop54
  1
strokes_ogs.tif
102
RTVSPost2010PropOp54
 70
     1
102
RTVSPost2010Prop55
280
     0
102
RTVSPost2010PropOp55
 70
     1
102
RTVSPost2010Prop56
140
1.0
102
RTVSPost2010PropOp56
 70
     1
102
RTVSPost2010Prop57
140
1.0
102
RTVSPost2010PropOp57
 70
     1
  0
XRECORD
  5
29F
102
{ACAD_REACTORS
330
29E
102
}
330
29E
100
AcDbXrecord
280
     1
102
RTVSPropertyOp0
 70
     1
102
RTVSPropertyOp1
 70
     1
102
RTVSPropertyOp2
 70
     1
102
RTVSPropertyOp3
 70
     1
102
RTVSPropertyOp4
 70
     1
102
RTVSPropertyOp5
 70
     1
102
RTVSPropertyOp6
 70
     1
102
RTVSPropertyOp7
 70
     1
102
RTVSPropertyOp8
 70
     1
102
RTVSPropertyOp9
 70
     1
102
RTVSPropertyOp10
 70
     1
102
RTVSPropertyOp11
 70
     1
102
RTVSPropertyOp12
 70
     1
102
RTVSPropertyOp13
 70
     1
102
RTVSPropertyOp14
 70
     1
102
RTVSPropertyOp15
 70
     1
102
RTVSPropertyOp16
 70
     1
102
RTVSPropertyOp17
 70
     1
102
RTVSPropertyOp18
 70
     1
102
RTVSPropertyOp19
 70
     1
102
RTVSPropertyOp20
 70
     1
102
RTVSPropertyOp21
 70
     1
102
RTVSPropertyOp22
 70
     1
102
RTVSPropertyOp23
 70
     1
102
RTVSPropertyOp24
 70
     1
102
RTVSPropertyOp25
 70
     1
102
RTVSPropertyOp26
 70
     1
102
RTVSPropertyOp27
 70
     1
102
RTVSPropertyOp28
 70
     1
102
RTVSPropertyOp29
 70
     1
102
RTVSPropertyOp30
 70
     1
102
RTVSPropertyOp31
 70
     1
102
RTVSPropertyOp32
 70
     1
102
RTVSPropertyOp33
 70
     1
102
RTVSPropertyOp34
 70
     1
102
RTVSPropertyOp35
 70
     1
102
RTVSPropertyOp36
 70
     1
102
RTVSPropertyOp37
 70
     1
102
RTVSPropertyOp38
 70
     1
102
RTVSPropertyOp39
 70
     1
102
RTVSPropertyOp40
 70
     1
102
RTVSPropertyOp41
 70
     1
102
RTVSPropertyOp42
 70
     1
102
RTVSPropertyOp43
 70
     1
102
RTVSPropertyOp44
 70
     1
102
RTVSPropertyOp45
 70
     1
102
RTVSPropertyOp46
 70
     1
102
RTVSPropertyOp47
 70
     1
102
RTVSPropertyOp48
 70
     1
102
RTVSPropertyOp49
 70
     1
102
RTVSPropertyOp50
 70
     1
102
RTVSPropertyOp51
 70
     0
102
RTVSPropertyOp52
 70
     0
102
RTVSPropertyOp53
 70
     1
102
RTVSPropertyOp54
 70
     1
102
RTVSPropertyOp55
 70
     1
102
RTVSPropertyOp56
 70
     1
102
RTVSPropertyOp57
 70
     1
102
RTVSPost2010Prop28
280
     0
102
RTVSPost2010PropOp28
 70
     1
102
RTVSPost2010Prop29
280
     1
102
RTVSPost2010PropOp29
 70
     1
102
RTVSPost2010Prop30
280
     1
102
RTVSPost2010PropOp30
 70
     1
102
RTVSPost2010Prop31
280
     0
102
RTVSPost2010PropOp31
 70
     1
102
RTVSPost2010Prop32
280
     0
102
RTVSPost2010PropOp32
 70
     1
102
RTVSPost2010Prop33
280
     0
102
RTVSPost2010PropOp33
 70
     1
102
RTVSPost2010Prop34
280
     0
102
RTVSPost2010PropOp34
 70
     1
102
RTVSPost2010Prop35
280
     0
102
RTVSPost2010PropOp35
 70
     1
102
RTVSPost2010Prop36
280
     0
102
RTVSPost2010PropOp36
 70
     1
102
RTVSPost2010Prop37
 90
       50
102
RTVSPost2010PropOp37
 70
     1
102
RTVSPost2010Prop38
140
0.0
102
RTVSPost2010PropOp38
 70
     1
102
RTVSPost2010Prop39
140
1.0
102
RTVSPost2010PropOp39
 70
     1
102
RTVSPost2010Prop40
 90
        0
102
RTVSPost2010PropOp40
 70
     1
102
RTVSPost2010Prop41ColorIndex
 90
       18
102
RTVSPost2010Prop41ColorRGB
 90
        0
102
RTVSPost2010PropOp41
 70
     1
102
RTVSPost2010Prop42
 90
       50
102
RTVSPost2010PropOp42
 70
     1
102
RTVSPost2010Prop43
 90
        3
102
RTVSPost2010PropOp43
 70
     1
102
RTVSPost2010Prop44ColorIndex
 90
        5
102
RTVSPost2010Prop44ColorRGB
 90
      255
102
RTVSPost2010PropOp44
 70
     1
102
RTVSPost2010Prop45
280
     0
102
RTVSPost2010PropOp45
 70
     1
102
RTVSPost2010Prop46
 90
       50
102
RTVSPost2010PropOp46
 70
     1
102
RTVSPost2010Prop47
 90
       50
102
RTVSPost2010PropOp47
 70
     1
102
RTVSPost2010Prop48
 90
       50
102
RTVSPost2010PropOp48
 70
     1
102
RTVSPost2010Prop49
280
     0
102
RTVSPost2010PropOp49
 70
     1
102
RTVSPost2010Prop50
 90
       50
102
RTVSPost2010PropOp50
 70
     1
102
RTVSPost2010Prop51ColorIndex
 90
      256
102
RTVSPost2010Prop51ColorRGB
 90
-16777216
102
RTVSPost2010PropOp51
 70
     0
102
RTVSPost2010Prop52
140
1.0
102
RTVSPost2010PropOp52
 70
     0
102
RTVSPost2010Prop53
 90
        2
102
RTVSPost2010PropOp53
 70
     1
102
RTVSPost2010Prop54
  1
strokes_ogs.tif
102
RTVSPost2010PropOp54
 70
     1
102
RTVSPost2010Prop55
280
     0
102
RTVSPost2010PropOp55
 70
     1
102
RTVSPost2010Prop56
140
1.0
102
RTVSPost2010PropOp56
 70
     1
102
RTVSPost2010Prop57
140
1.0
102
RTVSPost2010PropOp57
 70
     1
  0
XRECORD
  5
2A5
102
{ACAD_REACTORS
330
2A4
102
}
330
2A4
100
AcDbXrecord
280
     1
102
RTVSPropertyOp0
 70
     1
102
RTVSPropertyOp1
 70
     1
102
RTVSPropertyOp2
 70
     1
102
RTVSPropertyOp3
 70
     1
102
RTVSPropertyOp4
 70
     1
102
RTVSPropertyOp5
 70
     1
102
RTVSPropertyOp6
 70
     1
102
RTVSPropertyOp7
 70
     1
102
RTVSPropertyOp8
 70
     1
102
RTVSPropertyOp9
 70
     1
102
RTVSPropertyOp10
 70
     1
102
RTVSPropertyOp11
 70
     1
102
RTVSPropertyOp12
 70
     1
102
RTVSPropertyOp13
 70
     1
102
RTVSPropertyOp14
 70
     1
102
RTVSPropertyOp15
 70
     1
102
RTVSPropertyOp16
 70
     1
102
RTVSPropertyOp17
 70
     1
102
RTVSPropertyOp18
 70
     1
102
RTVSPropertyOp19
 70
     1
102
RTVSPropertyOp20
 70
     1
102
RTVSPropertyOp21
 70
     1
102
RTVSPropertyOp22
 70
     1
102
RTVSPropertyOp23
 70
     1
102
RTVSPropertyOp24
 70
     1
102
RTVSPropertyOp25
 70
     1
102
RTVSPropertyOp26
 70
     1
102
RTVSPropertyOp27
 70
     1
102
RTVSPropertyOp28
 70
     1
102
RTVSPropertyOp29
 70
     1
102
RTVSPropertyOp30
 70
     1
102
RTVSPropertyOp31
 70
     1
102
RTVSPropertyOp32
 70
     1
102
RTVSPropertyOp33
 70
     1
102
RTVSPropertyOp34
 70
     1
102
RTVSPropertyOp35
 70
     1
102
RTVSPropertyOp36
 70
     1
102
RTVSPropertyOp37
 70
     1
102
RTVSPropertyOp38
 70
     1
102
RTVSPropertyOp39
 70
     1
102
RTVSPropertyOp40
 70
     1
102
RTVSPropertyOp41
 70
     1
102
RTVSPropertyOp42
 70
     1
102
RTVSPropertyOp43
 70
     1
102
RTVSPropertyOp44
 70
     1
102
RTVSPropertyOp45
 70
     1
102
RTVSPropertyOp46
 70
     1
102
RTVSPropertyOp47
 70
     1
102
RTVSPropertyOp48
 70
     1
102
RTVSPropertyOp49
 70
     1
102
RTVSPropertyOp50
 70
     1
102
RTVSPropertyOp51
 70
     0
102
RTVSPropertyOp52
 70
     0
102
RTVSPropertyOp53
 70
     1
102
RTVSPropertyOp54
 70
     1
102
RTVSPropertyOp55
 70
     1
102
RTVSPropertyOp56
 70
     1
102
RTVSPropertyOp57
 70
     1
102
RTVSPost2010Prop28
280
     0
102
RTVSPost2010PropOp28
 70
     1
102
RTVSPost2010Prop29
280
     1
102
RTVSPost2010PropOp29
 70
     1
102
RTVSPost2010Prop30
280
     1
102
RTVSPost2010PropOp30
 70
     1
102
RTVSPost2010Prop31
280
     0
102
RTVSPost2010PropOp31
 70
     1
102
RTVSPost2010Prop32
280
     0
102
RTVSPost2010PropOp32
 70
     1
102
RTVSPost2010Prop33
280
     0
102
RTVSPost2010PropOp33
 70
     1
102
RTVSPost2010Prop34
280
     0
102
RTVSPost2010PropOp34
 70
     1
102
RTVSPost2010Prop35
280
     0
102
RTVSPost2010PropOp35
 70
     1
102
RTVSPost2010Prop36
280
     0
102
RTVSPost2010PropOp36
 70
     1
102
RTVSPost2010Prop37
 90
       50
102
RTVSPost2010PropOp37
 70
     1
102
RTVSPost2010Prop38
140
0.0
102
RTVSPost2010PropOp38
 70
     1
102
RTVSPost2010Prop39
140
1.0
102
RTVSPost2010PropOp39
 70
     1
102
RTVSPost2010Prop40
 90
        0
102
RTVSPost2010PropOp40
 70
     1
102
RTVSPost2010Prop41ColorIndex
 90
       18
102
RTVSPost2010Prop41ColorRGB
 90
        0
102
RTVSPost2010PropOp41
 70
     1
102
RTVSPost2010Prop42
 90
       50
102
RTVSPost2010PropOp42
 70
     1
102
RTVSPost2010Prop43
 90
        3
102
RTVSPost2010PropOp43
 70
     1
102
RTVSPost2010Prop44ColorIndex
 90
        5
102
RTVSPost2010Prop44ColorRGB
 90
      255
102
RTVSPost2010PropOp44
 70
     1
102
RTVSPost2010Prop45
280
     0
102
RTVSPost2010PropOp45
 70
     1
102
RTVSPost2010Prop46
 90
       50
102
RTVSPost2010PropOp46
 70
     1
102
RTVSPost2010Prop47
 90
       50
102
RTVSPost2010PropOp47
 70
     1
102
RTVSPost2010Prop48
 90
       50
102
RTVSPost2010PropOp48
 70
     1
102
RTVSPost2010Prop49
280
     0
102
RTVSPost2010PropOp49
 70
     1
102
RTVSPost2010Prop50
 90
       50
102
RTVSPost2010PropOp50
 70
     1
102
RTVSPost2010Prop51ColorIndex
 90
      256
102
RTVSPost2010Prop51ColorRGB
 90
-16777216
102
RTVSPost2010PropOp51
 70
     0
102
RTVSPost2010Prop52
140
1.0
102
RTVSPost2010PropOp52
 70
     0
102
RTVSPost2010Prop53
 90
        2
102
RTVSPost2010PropOp53
 70
     1
102
RTVSPost2010Prop54
  1
strokes_ogs.tif
102
RTVSPost2010PropOp54
 70
     1
102
RTVSPost2010Prop55
280
     0
102
RTVSPost2010PropOp55
 70
     1
102
RTVSPost2010Prop56
140
1.0
102
RTVSPost2010PropOp56
 70
     1
102
RTVSPost2010Prop57
140
1.0
102
RTVSPost2010PropOp57
 70
     1
  0
XRECORD
  5
2B9
102
{ACAD_REACTORS
330
2B8
102
}
330
2B8
100
AcDbXrecord
280
     1
102
RTVSPropertyOp0
 70
     0
102
RTVSPropertyOp1
 70
     0
102
RTVSPropertyOp2
 70
     0
102
RTVSPropertyOp3
 70
     0
102
RTVSPropertyOp4
 70
     0
102
RTVSPropertyOp5
 70
     0
102
RTVSPropertyOp6
 70
     0
102
RTVSPropertyOp7
 70
     0
102
RTVSPropertyOp8
 70
     0
102
RTVSPropertyOp9
 70
     0
102
RTVSPropertyOp10
 70
     0
102
RTVSPropertyOp11
 70
     0
102
RTVSPropertyOp12
 70
     0
102
RTVSPropertyOp13
 70
     0
102
RTVSPropertyOp14
 70
     2
102
RTVSPropertyOp15
 70
     0
102
RTVSPropertyOp16
 70
     0
102
RTVSPropertyOp17
 70
     0
102
RTVSPropertyOp18
 70
     0
102
RTVSPropertyOp19
 70
     0
102
RTVSPropertyOp20
 70
     0
102
RTVSPropertyOp21
 70
     0
102
RTVSPropertyOp22
 70
     0
102
RTVSPropertyOp23
 70
     0
102
RTVSPropertyOp24
 70
     0
102
RTVSPropertyOp25
 70
     0
102
RTVSPropertyOp26
 70
     0
102
RTVSPropertyOp27
 70
     0
102
RTVSPropertyOp28
 70
     0
102
RTVSPropertyOp29
 70
     0
102
RTVSPropertyOp30
 70
     0
102
RTVSPropertyOp31
 70
     0
102
RTVSPropertyOp32
 70
     0
102
RTVSPropertyOp33
 70
     0
102
RTVSPropertyOp34
 70
     0
102
RTVSPropertyOp35
 70
     0
102
RTVSPropertyOp36
 70
     0
102
RTVSPropertyOp37
 70
     0
102
RTVSPropertyOp38
 70
     0
102
RTVSPropertyOp39
 70
     0
102
RTVSPropertyOp40
 70
     0
102
RTVSPropertyOp41
 70
     0
102
RTVSPropertyOp42
 70
     0
102
RTVSPropertyOp43
 70
     0
102
RTVSPropertyOp44
 70
     0
102
RTVSPropertyOp45
 70
     0
102
RTVSPropertyOp46
 70
     0
102
RTVSPropertyOp47
 70
     0
102
RTVSPropertyOp48
 70
     0
102
RTVSPropertyOp49
 70
     0
102
RTVSPropertyOp50
 70
     0
102
RTVSPropertyOp51
 70
     0
102
RTVSPropertyOp52
 70
     0
102
RTVSPropertyOp53
 70
     0
102
RTVSPropertyOp54
 70
     0
102
RTVSPropertyOp55
 70
     0
102
RTVSPropertyOp56
 70
     0
102
RTVSPropertyOp57
 70
     0
102
RTVSPost2010Prop28
280
     0
102
RTVSPost2010PropOp28
 70
     0
102
RTVSPost2010Prop29
280
     1
102
RTVSPost2010PropOp29
 70
     0
102
RTVSPost2010Prop30
280
     1
102
RTVSPost2010PropOp30
 70
     0
102
RTVSPost2010Prop31
280
     0
102
RTVSPost2010PropOp31
 70
     0
102
RTVSPost2010Prop32
280
     0
102
RTVSPost2010PropOp32
 70
     0
102
RTVSPost2010Prop33
280
     0
102
RTVSPost2010PropOp33
 70
     0
102
RTVSPost2010Prop34
280
     0
102
RTVSPost2010PropOp34
 70
     0
102
RTVSPost2010Prop35
280
     0
102
RTVSPost2010PropOp35
 70
     0
102
RTVSPost2010Prop36
280
     0
102
RTVSPost2010PropOp36
 70
     0
102
RTVSPost2010Prop37
 90
       50
102
RTVSPost2010PropOp37
 70
     0
102
RTVSPost2010Prop38
140
0.0
102
RTVSPost2010PropOp38
 70
     0
102
RTVSPost2010Prop39
140
1.0
102
RTVSPost2010PropOp39
 70
     0
102
RTVSPost2010Prop40
 90
        0
102
RTVSPost2010PropOp40
 70
     0
102
RTVSPost2010Prop41ColorIndex
 90
       18
102
RTVSPost2010Prop41ColorRGB
 90
        0
102
RTVSPost2010PropOp41
 70
     0
102
RTVSPost2010Prop42
 90
       50
102
RTVSPost2010PropOp42
 70
     0
102
RTVSPost2010Prop43
 90
        3
102
RTVSPost2010PropOp43
 70
     0
102
RTVSPost2010Prop44ColorIndex
 90
        5
102
RTVSPost2010Prop44ColorRGB
 90
      255
102
RTVSPost2010PropOp44
 70
     0
102
RTVSPost2010Prop45
280
     0
102
RTVSPost2010PropOp45
 70
     0
102
RTVSPost2010Prop46
 90
       50
102
RTVSPost2010PropOp46
 70
     0
102
RTVSPost2010Prop47
 90
       50
102
RTVSPost2010PropOp47
 70
     0
102
RTVSPost2010Prop48
 90
       50
102
RTVSPost2010PropOp48
 70
     0
102
RTVSPost2010Prop49
280
     0
102
RTVSPost2010PropOp49
 70
     0
102
RTVSPost2010Prop50
 90
       50
102
RTVSPost2010PropOp50
 70
     0
102
RTVSPost2010Prop51ColorIndex
 90
      256
102
RTVSPost2010Prop51ColorRGB
 90
-16777216
102
RTVSPost2010PropOp51
 70
     0
102
RTVSPost2010Prop52
140
1.0
102
RTVSPost2010PropOp52
 70
     0
102
RTVSPost2010Prop53
 90
        2
102
RTVSPost2010PropOp53
 70
     0
102
RTVSPost2010Prop54
  1
strokes_ogs.tif
102
RTVSPost2010PropOp54
 70
     0
102
RTVSPost2010Prop55
280
     0
102
RTVSPost2010PropOp55
 70
     0
102
RTVSPost2010Prop56
140
1.0
102
RTVSPost2010PropOp56
 70
     0
102
RTVSPost2010Prop57
140
1.0
102
RTVSPost2010PropOp57
 70
     0
  0
XRECORD
  5
2B3
102
{ACAD_REACTORS
330
2B2
102
}
330
2B2
100
AcDbXrecord
280
     1
102
RTVSPropertyOp0
 70
     1
102
RTVSPropertyOp1
 70
     1
102
RTVSPropertyOp2
 70
     1
102
RTVSPropertyOp3
 70
     1
102
RTVSPropertyOp4
 70
     1
102
RTVSPropertyOp5
 70
     1
102
RTVSPropertyOp6
 70
     1
102
RTVSPropertyOp7
 70
     1
102
RTVSPropertyOp8
 70
     1
102
RTVSPropertyOp9
 70
     1
102
RTVSPropertyOp10
 70
     1
102
RTVSPropertyOp11
 70
     1
102
RTVSPropertyOp12
 70
     1
102
RTVSPropertyOp13
 70
     1
102
RTVSPropertyOp14
 70
     1
102
RTVSPropertyOp15
 70
     1
102
RTVSPropertyOp16
 70
     1
102
RTVSPropertyOp17
 70
     1
102
RTVSPropertyOp18
 70
     1
102
RTVSPropertyOp19
 70
     1
102
RTVSPropertyOp20
 70
     1
102
RTVSPropertyOp21
 70
     1
102
RTVSPropertyOp22
 70
     1
102
RTVSPropertyOp23
 70
     1
102
RTVSPropertyOp24
 70
     1
102
RTVSPropertyOp25
 70
     1
102
RTVSPropertyOp26
 70
     1
102
RTVSPropertyOp27
 70
     1
102
RTVSPropertyOp28
 70
     1
102
RTVSPropertyOp29
 70
     1
102
RTVSPropertyOp30
 70
     1
102
RTVSPropertyOp31
 70
     1
102
RTVSPropertyOp32
 70
     1
102
RTVSPropertyOp33
 70
     1
102
RTVSPropertyOp34
 70
     1
102
RTVSPropertyOp35
 70
     1
102
RTVSPropertyOp36
 70
     1
102
RTVSPropertyOp37
 70
     1
102
RTVSPropertyOp38
 70
     1
102
RTVSPropertyOp39
 70
     1
102
RTVSPropertyOp40
 70
     1
102
RTVSPropertyOp41
 70
     1
102
RTVSPropertyOp42
 70
     1
102
RTVSPropertyOp43
 70
     1
102
RTVSPropertyOp44
 70
     1
102
RTVSPropertyOp45
 70
     1
102
RTVSPropertyOp46
 70
     1
102
RTVSPropertyOp47
 70
     1
102
RTVSPropertyOp48
 70
     1
102
RTVSPropertyOp49
 70
     1
102
RTVSPropertyOp50
 70
     1
102
RTVSPropertyOp51
 70
     0
102
RTVSPropertyOp52
 70
     0
102
RTVSPropertyOp53
 70
     1
102
RTVSPropertyOp54
 70
     1
102
RTVSPropertyOp55
 70
     1
102
RTVSPropertyOp56
 70
     1
102
RTVSPropertyOp57
 70
     1
102
RTVSPost2010Prop28
280
     0
102
RTVSPost2010PropOp28
 70
     1
102
RTVSPost2010Prop29
280
     1
102
RTVSPost2010PropOp29
 70
     1
102
RTVSPost2010Prop30
280
     1
102
RTVSPost2010PropOp30
 70
     1
102
RTVSPost2010Prop31
280
     0
102
RTVSPost2010PropOp31
 70
     1
102
RTVSPost2010Prop32
280
     0
102
RTVSPost2010PropOp32
 70
     1
102
RTVSPost2010Prop33
280
     0
102
RTVSPost2010PropOp33
 70
     1
102
RTVSPost2010Prop34
280
     0
102
RTVSPost2010PropOp34
 70
     1
102
RTVSPost2010Prop35
280
     0
102
RTVSPost2010PropOp35
 70
     1
102
RTVSPost2010Prop36
280
     0
102
RTVSPost2010PropOp36
 70
     1
102
RTVSPost2010Prop37
 90
       50
102
RTVSPost2010PropOp37
 70
     1
102
RTVSPost2010Prop38
140
0.0
102
RTVSPost2010PropOp38
 70
     1
102
RTVSPost2010Prop39
140
1.0
102
RTVSPost2010PropOp39
 70
     1
102
RTVSPost2010Prop40
 90
        0
102
RTVSPost2010PropOp40
 70
     1
102
RTVSPost2010Prop41ColorIndex
 90
       18
102
RTVSPost2010Prop41ColorRGB
 90
        0
102
RTVSPost2010PropOp41
 70
     1
102
RTVSPost2010Prop42
 90
       50
102
RTVSPost2010PropOp42
 70
     1
102
RTVSPost2010Prop43
 90
        3
102
RTVSPost2010PropOp43
 70
     1
102
RTVSPost2010Prop44ColorIndex
 90
        5
102
RTVSPost2010Prop44ColorRGB
 90
      255
102
RTVSPost2010PropOp44
 70
     1
102
RTVSPost2010Prop45
280
     0
102
RTVSPost2010PropOp45
 70
     1
102
RTVSPost2010Prop46
 90
       50
102
RTVSPost2010PropOp46
 70
     1
102
RTVSPost2010Prop47
 90
       50
102
RTVSPost2010PropOp47
 70
     1
102
RTVSPost2010Prop48
 90
       50
102
RTVSPost2010PropOp48
 70
     1
102
RTVSPost2010Prop49
280
     0
102
RTVSPost2010PropOp49
 70
     1
102
RTVSPost2010Prop50
 90
       50
102
RTVSPost2010PropOp50
 70
     1
102
RTVSPost2010Prop51ColorIndex
 90
      256
102
RTVSPost2010Prop51ColorRGB
 90
-16777216
102
RTVSPost2010PropOp51
 70
     0
102
RTVSPost2010Prop52
140
1.0
102
RTVSPost2010PropOp52
 70
     0
102
RTVSPost2010Prop53
 90
        2
102
RTVSPost2010PropOp53
 70
     1
102
RTVSPost2010Prop54
  1
strokes_ogs.tif
102
RTVSPost2010PropOp54
 70
     1
102
RTVSPost2010Prop55
280
     0
102
RTVSPost2010PropOp55
 70
     1
102
RTVSPost2010Prop56
140
1.0
102
RTVSPost2010PropOp56
 70
     1
102
RTVSPost2010Prop57
140
1.0
102
RTVSPost2010PropOp57
 70
     1
  0
XRECORD
  5
2BB
102
{ACAD_REACTORS
330
2BA
102
}
330
2BA
100
AcDbXrecord
280
     1
102
RTVSPropertyOp0
 70
     0
102
RTVSPropertyOp1
 70
     0
102
RTVSPropertyOp2
 70
     0
102
RTVSPropertyOp3
 70
     0
102
RTVSPropertyOp4
 70
     0
102
RTVSPropertyOp5
 70
     0
102
RTVSPropertyOp6
 70
     0
102
RTVSPropertyOp7
 70
     0
102
RTVSPropertyOp8
 70
     0
102
RTVSPropertyOp9
 70
     0
102
RTVSPropertyOp10
 70
     0
102
RTVSPropertyOp11
 70
     0
102
RTVSPropertyOp12
 70
     0
102
RTVSPropertyOp13
 70
     0
102
RTVSPropertyOp14
 70
     2
102
RTVSPropertyOp15
 70
     0
102
RTVSPropertyOp16
 70
     0
102
RTVSPropertyOp17
 70
     0
102
RTVSPropertyOp18
 70
     0
102
RTVSPropertyOp19
 70
     0
102
RTVSPropertyOp20
 70
     0
102
RTVSPropertyOp21
 70
     0
102
RTVSPropertyOp22
 70
     0
102
RTVSPropertyOp23
 70
     0
102
RTVSPropertyOp24
 70
     0
102
RTVSPropertyOp25
 70
     0
102
RTVSPropertyOp26
 70
     0
102
RTVSPropertyOp27
 70
     0
102
RTVSPropertyOp28
 70
     0
102
RTVSPropertyOp29
 70
     0
102
RTVSPropertyOp30
 70
     0
102
RTVSPropertyOp31
 70
     0
102
RTVSPropertyOp32
 70
     0
102
RTVSPropertyOp33
 70
     0
102
RTVSPropertyOp34
 70
     0
102
RTVSPropertyOp35
 70
     0
102
RTVSPropertyOp36
 70
     0
102
RTVSPropertyOp37
 70
     0
102
RTVSPropertyOp38
 70
     0
102
RTVSPropertyOp39
 70
     0
102
RTVSPropertyOp40
 70
     0
102
RTVSPropertyOp41
 70
     0
102
RTVSPropertyOp42
 70
     0
102
RTVSPropertyOp43
 70
     0
102
RTVSPropertyOp44
 70
     0
102
RTVSPropertyOp45
 70
     0
102
RTVSPropertyOp46
 70
     0
102
RTVSPropertyOp47
 70
     0
102
RTVSPropertyOp48
 70
     0
102
RTVSPropertyOp49
 70
     0
102
RTVSPropertyOp50
 70
     0
102
RTVSPropertyOp51
 70
     0
102
RTVSPropertyOp52
 70
     0
102
RTVSPropertyOp53
 70
     0
102
RTVSPropertyOp54
 70
     0
102
RTVSPropertyOp55
 70
     0
102
RTVSPropertyOp56
 70
     0
102
RTVSPropertyOp57
 70
     0
102
RTVSPost2010Prop28
280
     0
102
RTVSPost2010PropOp28
 70
     0
102
RTVSPost2010Prop29
280
     1
102
RTVSPost2010PropOp29
 70
     0
102
RTVSPost2010Prop30
280
     1
102
RTVSPost2010PropOp30
 70
     0
102
RTVSPost2010Prop31
280
     0
102
RTVSPost2010PropOp31
 70
     0
102
RTVSPost2010Prop32
280
     0
102
RTVSPost2010PropOp32
 70
     0
102
RTVSPost2010Prop33
280
     0
102
RTVSPost2010PropOp33
 70
     0
102
RTVSPost2010Prop34
280
     0
102
RTVSPost2010PropOp34
 70
     0
102
RTVSPost2010Prop35
280
     0
102
RTVSPost2010PropOp35
 70
     0
102
RTVSPost2010Prop36
280
     0
102
RTVSPost2010PropOp36
 70
     0
102
RTVSPost2010Prop37
 90
       50
102
RTVSPost2010PropOp37
 70
     0
102
RTVSPost2010Prop38
140
0.0
102
RTVSPost2010PropOp38
 70
     0
102
RTVSPost2010Prop39
140
1.0
102
RTVSPost2010PropOp39
 70
     0
102
RTVSPost2010Prop40
 90
        0
102
RTVSPost2010PropOp40
 70
     0
102
RTVSPost2010Prop41ColorIndex
 90
       18
102
RTVSPost2010Prop41ColorRGB
 90
        0
102
RTVSPost2010PropOp41
 70
     0
102
RTVSPost2010Prop42
 90
       50
102
RTVSPost2010PropOp42
 70
     0
102
RTVSPost2010Prop43
 90
        3
102
RTVSPost2010PropOp43
 70
     0
102
RTVSPost2010Prop44ColorIndex
 90
        5
102
RTVSPost2010Prop44ColorRGB
 90
      255
102
RTVSPost2010PropOp44
 70
     0
102
RTVSPost2010Prop45
280
     0
102
RTVSPost2010PropOp45
 70
     0
102
RTVSPost2010Prop46
 90
       50
102
RTVSPost2010PropOp46
 70
     0
102
RTVSPost2010Prop47
 90
       50
102
RTVSPost2010PropOp47
 70
     0
102
RTVSPost2010Prop48
 90
       50
102
RTVSPost2010PropOp48
 70
     0
102
RTVSPost2010Prop49
280
     0
102
RTVSPost2010PropOp49
 70
     0
102
RTVSPost2010Prop50
 90
       50
102
RTVSPost2010PropOp50
 70
     0
102
RTVSPost2010Prop51ColorIndex
 90
      256
102
RTVSPost2010Prop51ColorRGB
 90
-16777216
102
RTVSPost2010PropOp51
 70
     0
102
RTVSPost2010Prop52
140
1.0
102
RTVSPost2010PropOp52
 70
     0
102
RTVSPost2010Prop53
 90
        2
102
RTVSPost2010PropOp53
 70
     0
102
RTVSPost2010Prop54
  1
strokes_ogs.tif
102
RTVSPost2010PropOp54
 70
     0
102
RTVSPost2010Prop55
280
     0
102
RTVSPost2010PropOp55
 70
     0
102
RTVSPost2010Prop56
140
1.0
102
RTVSPost2010PropOp56
 70
     0
102
RTVSPost2010Prop57
140
1.0
102
RTVSPost2010PropOp57
 70
     0
  0
XRECORD
  5
2A9
102
{ACAD_REACTORS
330
2A8
102
}
330
2A8
100
AcDbXrecord
280
     1
102
RTVSPropertyOp0
 70
     1
102
RTVSPropertyOp1
 70
     1
102
RTVSPropertyOp2
 70
     1
102
RTVSPropertyOp3
 70
     1
102
RTVSPropertyOp4
 70
     1
102
RTVSPropertyOp5
 70
     1
102
RTVSPropertyOp6
 70
     1
102
RTVSPropertyOp7
 70
     1
102
RTVSPropertyOp8
 70
     1
102
RTVSPropertyOp9
 70
     1
102
RTVSPropertyOp10
 70
     1
102
RTVSPropertyOp11
 70
     1
102
RTVSPropertyOp12
 70
     1
102
RTVSPropertyOp13
 70
     1
102
RTVSPropertyOp14
 70
     1
102
RTVSPropertyOp15
 70
     1
102
RTVSPropertyOp16
 70
     1
102
RTVSPropertyOp17
 70
     1
102
RTVSPropertyOp18
 70
     1
102
RTVSPropertyOp19
 70
     1
102
RTVSPropertyOp20
 70
     1
102
RTVSPropertyOp21
 70
     1
102
RTVSPropertyOp22
 70
     1
102
RTVSPropertyOp23
 70
     1
102
RTVSPropertyOp24
 70
     1
102
RTVSPropertyOp25
 70
     1
102
RTVSPropertyOp26
 70
     1
102
RTVSPropertyOp27
 70
     1
102
RTVSPropertyOp28
 70
     1
102
RTVSPropertyOp29
 70
     1
102
RTVSPropertyOp30
 70
     1
102
RTVSPropertyOp31
 70
     1
102
RTVSPropertyOp32
 70
     1
102
RTVSPropertyOp33
 70
     1
102
RTVSPropertyOp34
 70
     1
102
RTVSPropertyOp35
 70
     1
102
RTVSPropertyOp36
 70
     1
102
RTVSPropertyOp37
 70
     1
102
RTVSPropertyOp38
 70
     1
102
RTVSPropertyOp39
 70
     1
102
RTVSPropertyOp40
 70
     1
102
RTVSPropertyOp41
 70
     1
102
RTVSPropertyOp42
 70
     1
102
RTVSPropertyOp43
 70
     1
102
RTVSPropertyOp44
 70
     1
102
RTVSPropertyOp45
 70
     1
102
RTVSPropertyOp46
 70
     1
102
RTVSPropertyOp47
 70
     1
102
RTVSPropertyOp48
 70
     1
102
RTVSPropertyOp49
 70
     1
102
RTVSPropertyOp50
 70
     1
102
RTVSPropertyOp51
 70
     0
102
RTVSPropertyOp52
 70
     0
102
RTVSPropertyOp53
 70
     1
102
RTVSPropertyOp54
 70
     1
102
RTVSPropertyOp55
 70
     1
102
RTVSPropertyOp56
 70
     1
102
RTVSPropertyOp57
 70
     1
102
RTVSPost2010Prop28
280
     0
102
RTVSPost2010PropOp28
 70
     1
102
RTVSPost2010Prop29
280
     1
102
RTVSPost2010PropOp29
 70
     1
102
RTVSPost2010Prop30
280
     1
102
RTVSPost2010PropOp30
 70
     1
102
RTVSPost2010Prop31
280
     0
102
RTVSPost2010PropOp31
 70
     1
102
RTVSPost2010Prop32
280
     0
102
RTVSPost2010PropOp32
 70
     1
102
RTVSPost2010Prop33
280
     0
102
RTVSPost2010PropOp33
 70
     1
102
RTVSPost2010Prop34
280
     0
102
RTVSPost2010PropOp34
 70
     1
102
RTVSPost2010Prop35
280
     0
102
RTVSPost2010PropOp35
 70
     1
102
RTVSPost2010Prop36
280
     0
102
RTVSPost2010PropOp36
 70
     1
102
RTVSPost2010Prop37
 90
       50
102
RTVSPost2010PropOp37
 70
     1
102
RTVSPost2010Prop38
140
0.0
102
RTVSPost2010PropOp38
 70
     1
102
RTVSPost2010Prop39
140
1.0
102
RTVSPost2010PropOp39
 70
     1
102
RTVSPost2010Prop40
 90
        0
102
RTVSPost2010PropOp40
 70
     1
102
RTVSPost2010Prop41ColorIndex
 90
       18
102
RTVSPost2010Prop41ColorRGB
 90
        0
102
RTVSPost2010PropOp41
 70
     1
102
RTVSPost2010Prop42
 90
       50
102
RTVSPost2010PropOp42
 70
     1
102
RTVSPost2010Prop43
 90
        3
102
RTVSPost2010PropOp43
 70
     1
102
RTVSPost2010Prop44ColorIndex
 90
        5
102
RTVSPost2010Prop44ColorRGB
 90
      255
102
RTVSPost2010PropOp44
 70
     1
102
RTVSPost2010Prop45
280
     0
102
RTVSPost2010PropOp45
 70
     1
102
RTVSPost2010Prop46
 90
       50
102
RTVSPost2010PropOp46
 70
     1
102
RTVSPost2010Prop47
 90
       50
102
RTVSPost2010PropOp47
 70
     1
102
RTVSPost2010Prop48
 90
       50
102
RTVSPost2010PropOp48
 70
     1
102
RTVSPost2010Prop49
280
     0
102
RTVSPost2010PropOp49
 70
     1
102
RTVSPost2010Prop50
 90
       50
102
RTVSPost2010PropOp50
 70
     1
102
RTVSPost2010Prop51ColorIndex
 90
      256
102
RTVSPost2010Prop51ColorRGB
 90
-16777216
102
RTVSPost2010PropOp51
 70
     0
102
RTVSPost2010Prop52
140
1.0
102
RTVSPost2010PropOp52
 70
     0
102
RTVSPost2010Prop53
 90
        2
102
RTVSPost2010PropOp53
 70
     1
102
RTVSPost2010Prop54
  1
strokes_ogs.tif
102
RTVSPost2010PropOp54
 70
     1
102
RTVSPost2010Prop55
280
     0
102
RTVSPost2010PropOp55
 70
     1
102
RTVSPost2010Prop56
140
1.0
102
RTVSPost2010PropOp56
 70
     1
102
RTVSPost2010Prop57
140
1.0
102
RTVSPost2010PropOp57
 70
     1
  0
XRECORD
  5
2C7
102
{ACAD_REACTORS
330
2C6
102
}
330
2C6
100
AcDbXrecord
280
     1
102
RTVSPropertyOp0
 70
     1
102
RTVSPropertyOp1
 70
     1
102
RTVSPropertyOp2
 70
     1
102
RTVSPropertyOp3
 70
     1
102
RTVSPropertyOp4
 70
     1
102
RTVSPropertyOp5
 70
     1
102
RTVSPropertyOp6
 70
     1
102
RTVSPropertyOp7
 70
     1
102
RTVSPropertyOp8
 70
     1
102
RTVSPropertyOp9
 70
     1
102
RTVSPropertyOp10
 70
     1
102
RTVSPropertyOp11
 70
     1
102
RTVSPropertyOp12
 70
     1
102
RTVSPropertyOp13
 70
     1
102
RTVSPropertyOp14
 70
     1
102
RTVSPropertyOp15
 70
     1
102
RTVSPropertyOp16
 70
     1
102
RTVSPropertyOp17
 70
     1
102
RTVSPropertyOp18
 70
     1
102
RTVSPropertyOp19
 70
     1
102
RTVSPropertyOp20
 70
     1
102
RTVSPropertyOp21
 70
     1
102
RTVSPropertyOp22
 70
     1
102
RTVSPropertyOp23
 70
     1
102
RTVSPropertyOp24
 70
     1
102
RTVSPropertyOp25
 70
     1
102
RTVSPropertyOp26
 70
     1
102
RTVSPropertyOp27
 70
     1
102
RTVSPropertyOp28
 70
     1
102
RTVSPropertyOp29
 70
     1
102
RTVSPropertyOp30
 70
     1
102
RTVSPropertyOp31
 70
     1
102
RTVSPropertyOp32
 70
     1
102
RTVSPropertyOp33
 70
     1
102
RTVSPropertyOp34
 70
     1
102
RTVSPropertyOp35
 70
     1
102
RTVSPropertyOp36
 70
     1
102
RTVSPropertyOp37
 70
     1
102
RTVSPropertyOp38
 70
     1
102
RTVSPropertyOp39
 70
     1
102
RTVSPropertyOp40
 70
     1
102
RTVSPropertyOp41
 70
     1
102
RTVSPropertyOp42
 70
     1
102
RTVSPropertyOp43
 70
     1
102
RTVSPropertyOp44
 70
     1
102
RTVSPropertyOp45
 70
     1
102
RTVSPropertyOp46
 70
     1
102
RTVSPropertyOp47
 70
     1
102
RTVSPropertyOp48
 70
     1
102
RTVSPropertyOp49
 70
     1
102
RTVSPropertyOp50
 70
     1
102
RTVSPropertyOp51
 70
     0
102
RTVSPropertyOp52
 70
     0
102
RTVSPropertyOp53
 70
     1
102
RTVSPropertyOp54
 70
     1
102
RTVSPropertyOp55
 70
     1
102
RTVSPropertyOp56
 70
     1
102
RTVSPropertyOp57
 70
     1
102
RTVSPost2010Prop28
280
     0
102
RTVSPost2010PropOp28
 70
     1
102
RTVSPost2010Prop29
280
     1
102
RTVSPost2010PropOp29
 70
     1
102
RTVSPost2010Prop30
280
     1
102
RTVSPost2010PropOp30
 70
     1
102
RTVSPost2010Prop31
280
     0
102
RTVSPost2010PropOp31
 70
     1
102
RTVSPost2010Prop32
280
     0
102
RTVSPost2010PropOp32
 70
     1
102
RTVSPost2010Prop33
280
     0
102
RTVSPost2010PropOp33
 70
     1
102
RTVSPost2010Prop34
280
     0
102
RTVSPost2010PropOp34
 70
     1
102
RTVSPost2010Prop35
280
     0
102
RTVSPost2010PropOp35
 70
     1
102
RTVSPost2010Prop36
280
     0
102
RTVSPost2010PropOp36
 70
     1
102
RTVSPost2010Prop37
 90
       50
102
RTVSPost2010PropOp37
 70
     1
102
RTVSPost2010Prop38
140
0.0
102
RTVSPost2010PropOp38
 70
     1
102
RTVSPost2010Prop39
140
1.0
102
RTVSPost2010PropOp39
 70
     1
102
RTVSPost2010Prop40
 90
        0
102
RTVSPost2010PropOp40
 70
     1
102
RTVSPost2010Prop41ColorIndex
 90
       18
102
RTVSPost2010Prop41ColorRGB
 90
        0
102
RTVSPost2010PropOp41
 70
     1
102
RTVSPost2010Prop42
 90
       50
102
RTVSPost2010PropOp42
 70
     1
102
RTVSPost2010Prop43
 90
        3
102
RTVSPost2010PropOp43
 70
     1
102
RTVSPost2010Prop44ColorIndex
 90
        5
102
RTVSPost2010Prop44ColorRGB
 90
      255
102
RTVSPost2010PropOp44
 70
     1
102
RTVSPost2010Prop45
280
     0
102
RTVSPost2010PropOp45
 70
     1
102
RTVSPost2010Prop46
 90
       50
102
RTVSPost2010PropOp46
 70
     1
102
RTVSPost2010Prop47
 90
       50
102
RTVSPost2010PropOp47
 70
     1
102
RTVSPost2010Prop48
 90
       50
102
RTVSPost2010PropOp48
 70
     1
102
RTVSPost2010Prop49
280
     0
102
RTVSPost2010PropOp49
 70
     1
102
RTVSPost2010Prop50
 90
       50
102
RTVSPost2010PropOp50
 70
     1
102
RTVSPost2010Prop51ColorIndex
 90
      256
102
RTVSPost2010Prop51ColorRGB
 90
-16777216
102
RTVSPost2010PropOp51
 70
     0
102
RTVSPost2010Prop52
140
1.0
102
RTVSPost2010PropOp52
 70
     0
102
RTVSPost2010Prop53
 90
        2
102
RTVSPost2010PropOp53
 70
     1
102
RTVSPost2010Prop54
  1
strokes_ogs.tif
102
RTVSPost2010PropOp54
 70
     1
102
RTVSPost2010Prop55
280
     0
102
RTVSPost2010PropOp55
 70
     1
102
RTVSPost2010Prop56
140
1.0
102
RTVSPost2010PropOp56
 70
     1
102
RTVSPost2010Prop57
140
1.0
102
RTVSPost2010PropOp57
 70
     1
  0
XRECORD
  5
2C5
102
{ACAD_REACTORS
330
2C4
102
}
330
2C4
100
AcDbXrecord
280
     1
102
RTVSPropertyOp0
 70
     1
102
RTVSPropertyOp1
 70
     1
102
RTVSPropertyOp2
 70
     1
102
RTVSPropertyOp3
 70
     1
102
RTVSPropertyOp4
 70
     1
102
RTVSPropertyOp5
 70
     1
102
RTVSPropertyOp6
 70
     1
102
RTVSPropertyOp7
 70
     1
102
RTVSPropertyOp8
 70
     1
102
RTVSPropertyOp9
 70
     1
102
RTVSPropertyOp10
 70
     1
102
RTVSPropertyOp11
 70
     1
102
RTVSPropertyOp12
 70
     1
102
RTVSPropertyOp13
 70
     1
102
RTVSPropertyOp14
 70
     1
102
RTVSPropertyOp15
 70
     1
102
RTVSPropertyOp16
 70
     1
102
RTVSPropertyOp17
 70
     1
102
RTVSPropertyOp18
 70
     1
102
RTVSPropertyOp19
 70
     1
102
RTVSPropertyOp20
 70
     1
102
RTVSPropertyOp21
 70
     1
102
RTVSPropertyOp22
 70
     1
102
RTVSPropertyOp23
 70
     1
102
RTVSPropertyOp24
 70
     1
102
RTVSPropertyOp25
 70
     1
102
RTVSPropertyOp26
 70
     1
102
RTVSPropertyOp27
 70
     1
102
RTVSPropertyOp28
 70
     1
102
RTVSPropertyOp29
 70
     1
102
RTVSPropertyOp30
 70
     1
102
RTVSPropertyOp31
 70
     1
102
RTVSPropertyOp32
 70
     1
102
RTVSPropertyOp33
 70
     1
102
RTVSPropertyOp34
 70
     1
102
RTVSPropertyOp35
 70
     1
102
RTVSPropertyOp36
 70
     1
102
RTVSPropertyOp37
 70
     1
102
RTVSPropertyOp38
 70
     1
102
RTVSPropertyOp39
 70
     1
102
RTVSPropertyOp40
 70
     1
102
RTVSPropertyOp41
 70
     1
102
RTVSPropertyOp42
 70
     1
102
RTVSPropertyOp43
 70
     1
102
RTVSPropertyOp44
 70
     1
102
RTVSPropertyOp45
 70
     1
102
RTVSPropertyOp46
 70
     1
102
RTVSPropertyOp47
 70
     1
102
RTVSPropertyOp48
 70
     1
102
RTVSPropertyOp49
 70
     1
102
RTVSPropertyOp50
 70
     1
102
RTVSPropertyOp51
 70
     0
102
RTVSPropertyOp52
 70
     0
102
RTVSPropertyOp53
 70
     1
102
RTVSPropertyOp54
 70
     1
102
RTVSPropertyOp55
 70
     1
102
RTVSPropertyOp56
 70
     1
102
RTVSPropertyOp57
 70
     1
102
RTVSPost2010Prop28
280
     0
102
RTVSPost2010PropOp28
 70
     1
102
RTVSPost2010Prop29
280
     1
102
RTVSPost2010PropOp29
 70
     1
102
RTVSPost2010Prop30
280
     1
102
RTVSPost2010PropOp30
 70
     1
102
RTVSPost2010Prop31
280
     0
102
RTVSPost2010PropOp31
 70
     1
102
RTVSPost2010Prop32
280
     0
102
RTVSPost2010PropOp32
 70
     1
102
RTVSPost2010Prop33
280
     0
102
RTVSPost2010PropOp33
 70
     1
102
RTVSPost2010Prop34
280
     0
102
RTVSPost2010PropOp34
 70
     1
102
RTVSPost2010Prop35
280
     0
102
RTVSPost2010PropOp35
 70
     1
102
RTVSPost2010Prop36
280
     0
102
RTVSPost2010PropOp36
 70
     1
102
RTVSPost2010Prop37
 90
       50
102
RTVSPost2010PropOp37
 70
     1
102
RTVSPost2010Prop38
140
0.0
102
RTVSPost2010PropOp38
 70
     1
102
RTVSPost2010Prop39
140
1.0
102
RTVSPost2010PropOp39
 70
     1
102
RTVSPost2010Prop40
 90
        0
102
RTVSPost2010PropOp40
 70
     1
102
RTVSPost2010Prop41ColorIndex
 90
       18
102
RTVSPost2010Prop41ColorRGB
 90
        0
102
RTVSPost2010PropOp41
 70
     1
102
RTVSPost2010Prop42
 90
       50
102
RTVSPost2010PropOp42
 70
     1
102
RTVSPost2010Prop43
 90
        3
102
RTVSPost2010PropOp43
 70
     1
102
RTVSPost2010Prop44ColorIndex
 90
        5
102
RTVSPost2010Prop44ColorRGB
 90
      255
102
RTVSPost2010PropOp44
 70
     1
102
RTVSPost2010Prop45
280
     0
102
RTVSPost2010PropOp45
 70
     1
102
RTVSPost2010Prop46
 90
       50
102
RTVSPost2010PropOp46
 70
     1
102
RTVSPost2010Prop47
 90
       50
102
RTVSPost2010PropOp47
 70
     1
102
RTVSPost2010Prop48
 90
       50
102
RTVSPost2010PropOp48
 70
     1
102
RTVSPost2010Prop49
280
     0
102
RTVSPost2010PropOp49
 70
     1
102
RTVSPost2010Prop50
 90
       50
102
RTVSPost2010PropOp50
 70
     1
102
RTVSPost2010Prop51ColorIndex
 90
      256
102
RTVSPost2010Prop51ColorRGB
 90
-16777216
102
RTVSPost2010PropOp51
 70
     0
102
RTVSPost2010Prop52
140
1.0
102
RTVSPost2010PropOp52
 70
     0
102
RTVSPost2010Prop53
 90
        2
102
RTVSPost2010PropOp53
 70
     1
102
RTVSPost2010Prop54
  1
strokes_ogs.tif
102
RTVSPost2010PropOp54
 70
     1
102
RTVSPost2010Prop55
280
     0
102
RTVSPost2010PropOp55
 70
     1
102
RTVSPost2010Prop56
140
1.0
102
RTVSPost2010PropOp56
 70
     1
102
RTVSPost2010Prop57
140
1.0
102
RTVSPost2010PropOp57
 70
     1
  0
XRECORD
  5
2BF
102
{ACAD_REACTORS
330
2BE
102
}
330
2BE
100
AcDbXrecord
280
     1
102
RTVSPropertyOp0
 70
     1
102
RTVSPropertyOp1
 70
     1
102
RTVSPropertyOp2
 70
     1
102
RTVSPropertyOp3
 70
     1
102
RTVSPropertyOp4
 70
     1
102
RTVSPropertyOp5
 70
     1
102
RTVSPropertyOp6
 70
     1
102
RTVSPropertyOp7
 70
     1
102
RTVSPropertyOp8
 70
     1
102
RTVSPropertyOp9
 70
     1
102
RTVSPropertyOp10
 70
     1
102
RTVSPropertyOp11
 70
     1
102
RTVSPropertyOp12
 70
     1
102
RTVSPropertyOp13
 70
     1
102
RTVSPropertyOp14
 70
     1
102
RTVSPropertyOp15
 70
     1
102
RTVSPropertyOp16
 70
     1
102
RTVSPropertyOp17
 70
     1
102
RTVSPropertyOp18
 70
     1
102
RTVSPropertyOp19
 70
     1
102
RTVSPropertyOp20
 70
     1
102
RTVSPropertyOp21
 70
     1
102
RTVSPropertyOp22
 70
     1
102
RTVSPropertyOp23
 70
     1
102
RTVSPropertyOp24
 70
     1
102
RTVSPropertyOp25
 70
     1
102
RTVSPropertyOp26
 70
     1
102
RTVSPropertyOp27
 70
     1
102
RTVSPropertyOp28
 70
     1
102
RTVSPropertyOp29
 70
     1
102
RTVSPropertyOp30
 70
     1
102
RTVSPropertyOp31
 70
     1
102
RTVSPropertyOp32
 70
     1
102
RTVSPropertyOp33
 70
     1
102
RTVSPropertyOp34
 70
     1
102
RTVSPropertyOp35
 70
     1
102
RTVSPropertyOp36
 70
     1
102
RTVSPropertyOp37
 70
     1
102
RTVSPropertyOp38
 70
     1
102
RTVSPropertyOp39
 70
     1
102
RTVSPropertyOp40
 70
     1
102
RTVSPropertyOp41
 70
     1
102
RTVSPropertyOp42
 70
     1
102
RTVSPropertyOp43
 70
     1
102
RTVSPropertyOp44
 70
     1
102
RTVSPropertyOp45
 70
     1
102
RTVSPropertyOp46
 70
     1
102
RTVSPropertyOp47
 70
     1
102
RTVSPropertyOp48
 70
     1
102
RTVSPropertyOp49
 70
     1
102
RTVSPropertyOp50
 70
     1
102
RTVSPropertyOp51
 70
     0
102
RTVSPropertyOp52
 70
     0
102
RTVSPropertyOp53
 70
     1
102
RTVSPropertyOp54
 70
     1
102
RTVSPropertyOp55
 70
     1
102
RTVSPropertyOp56
 70
     1
102
RTVSPropertyOp57
 70
     1
102
RTVSPost2010Prop28
280
     0
102
RTVSPost2010PropOp28
 70
     1
102
RTVSPost2010Prop29
280
     1
102
RTVSPost2010PropOp29
 70
     1
102
RTVSPost2010Prop30
280
     1
102
RTVSPost2010PropOp30
 70
     1
102
RTVSPost2010Prop31
280
     0
102
RTVSPost2010PropOp31
 70
     1
102
RTVSPost2010Prop32
280
     0
102
RTVSPost2010PropOp32
 70
     1
102
RTVSPost2010Prop33
280
     0
102
RTVSPost2010PropOp33
 70
     1
102
RTVSPost2010Prop34
280
     0
102
RTVSPost2010PropOp34
 70
     1
102
RTVSPost2010Prop35
280
     0
102
RTVSPost2010PropOp35
 70
     1
102
RTVSPost2010Prop36
280
     0
102
RTVSPost2010PropOp36
 70
     1
102
RTVSPost2010Prop37
 90
       50
102
RTVSPost2010PropOp37
 70
     1
102
RTVSPost2010Prop38
140
0.0
102
RTVSPost2010PropOp38
 70
     1
102
RTVSPost2010Prop39
140
1.0
102
RTVSPost2010PropOp39
 70
     1
102
RTVSPost2010Prop40
 90
        0
102
RTVSPost2010PropOp40
 70
     1
102
RTVSPost2010Prop41ColorIndex
 90
       18
102
RTVSPost2010Prop41ColorRGB
 90
        0
102
RTVSPost2010PropOp41
 70
     1
102
RTVSPost2010Prop42
 90
       50
102
RTVSPost2010PropOp42
 70
     1
102
RTVSPost2010Prop43
 90
        3
102
RTVSPost2010PropOp43
 70
     1
102
RTVSPost2010Prop44ColorIndex
 90
        5
102
RTVSPost2010Prop44ColorRGB
 90
      255
102
RTVSPost2010PropOp44
 70
     1
102
RTVSPost2010Prop45
280
     0
102
RTVSPost2010PropOp45
 70
     1
102
RTVSPost2010Prop46
 90
       50
102
RTVSPost2010PropOp46
 70
     1
102
RTVSPost2010Prop47
 90
       50
102
RTVSPost2010PropOp47
 70
     1
102
RTVSPost2010Prop48
 90
       50
102
RTVSPost2010PropOp48
 70
     1
102
RTVSPost2010Prop49
280
     0
102
RTVSPost2010PropOp49
 70
     1
102
RTVSPost2010Prop50
 90
       50
102
RTVSPost2010PropOp50
 70
     1
102
RTVSPost2010Prop51ColorIndex
 90
      256
102
RTVSPost2010Prop51ColorRGB
 90
-16777216
102
RTVSPost2010PropOp51
 70
     0
102
RTVSPost2010Prop52
140
1.0
102
RTVSPost2010PropOp52
 70
     0
102
RTVSPost2010Prop53
 90
        2
102
RTVSPost2010PropOp53
 70
     1
102
RTVSPost2010Prop54
  1
strokes_ogs.tif
102
RTVSPost2010PropOp54
 70
     1
102
RTVSPost2010Prop55
280
     0
102
RTVSPost2010PropOp55
 70
     1
102
RTVSPost2010Prop56
140
1.0
102
RTVSPost2010PropOp56
 70
     1
102
RTVSPost2010Prop57
140
1.0
102
RTVSPost2010PropOp57
 70
     1
  0
XRECORD
  5
2C1
102
{ACAD_REACTORS
330
2C0
102
}
330
2C0
100
AcDbXrecord
280
     1
102
RTVSPropertyOp0
 70
     1
102
RTVSPropertyOp1
 70
     1
102
RTVSPropertyOp2
 70
     1
102
RTVSPropertyOp3
 70
     1
102
RTVSPropertyOp4
 70
     1
102
RTVSPropertyOp5
 70
     1
102
RTVSPropertyOp6
 70
     1
102
RTVSPropertyOp7
 70
     1
102
RTVSPropertyOp8
 70
     1
102
RTVSPropertyOp9
 70
     1
102
RTVSPropertyOp10
 70
     1
102
RTVSPropertyOp11
 70
     1
102
RTVSPropertyOp12
 70
     1
102
RTVSPropertyOp13
 70
     1
102
RTVSPropertyOp14
 70
     1
102
RTVSPropertyOp15
 70
     1
102
RTVSPropertyOp16
 70
     1
102
RTVSPropertyOp17
 70
     1
102
RTVSPropertyOp18
 70
     1
102
RTVSPropertyOp19
 70
     1
102
RTVSPropertyOp20
 70
     1
102
RTVSPropertyOp21
 70
     1
102
RTVSPropertyOp22
 70
     1
102
RTVSPropertyOp23
 70
     1
102
RTVSPropertyOp24
 70
     1
102
RTVSPropertyOp25
 70
     1
102
RTVSPropertyOp26
 70
     1
102
RTVSPropertyOp27
 70
     1
102
RTVSPropertyOp28
 70
     1
102
RTVSPropertyOp29
 70
     1
102
RTVSPropertyOp30
 70
     1
102
RTVSPropertyOp31
 70
     1
102
RTVSPropertyOp32
 70
     1
102
RTVSPropertyOp33
 70
     1
102
RTVSPropertyOp34
 70
     1
102
RTVSPropertyOp35
 70
     1
102
RTVSPropertyOp36
 70
     1
102
RTVSPropertyOp37
 70
     1
102
RTVSPropertyOp38
 70
     1
102
RTVSPropertyOp39
 70
     1
102
RTVSPropertyOp40
 70
     1
102
RTVSPropertyOp41
 70
     1
102
RTVSPropertyOp42
 70
     1
102
RTVSPropertyOp43
 70
     1
102
RTVSPropertyOp44
 70
     1
102
RTVSPropertyOp45
 70
     1
102
RTVSPropertyOp46
 70
     1
102
RTVSPropertyOp47
 70
     1
102
RTVSPropertyOp48
 70
     1
102
RTVSPropertyOp49
 70
     1
102
RTVSPropertyOp50
 70
     1
102
RTVSPropertyOp51
 70
     0
102
RTVSPropertyOp52
 70
     0
102
RTVSPropertyOp53
 70
     1
102
RTVSPropertyOp54
 70
     1
102
RTVSPropertyOp55
 70
     1
102
RTVSPropertyOp56
 70
     1
102
RTVSPropertyOp57
 70
     1
102
RTVSPost2010Prop28
280
     0
102
RTVSPost2010PropOp28
 70
     1
102
RTVSPost2010Prop29
280
     1
102
RTVSPost2010PropOp29
 70
     1
102
RTVSPost2010Prop30
280
     1
102
RTVSPost2010PropOp30
 70
     1
102
RTVSPost2010Prop31
280
     0
102
RTVSPost2010PropOp31
 70
     1
102
RTVSPost2010Prop32
280
     0
102
RTVSPost2010PropOp32
 70
     1
102
RTVSPost2010Prop33
280
     0
102
RTVSPost2010PropOp33
 70
     1
102
RTVSPost2010Prop34
280
     0
102
RTVSPost2010PropOp34
 70
     1
102
RTVSPost2010Prop35
280
     0
102
RTVSPost2010PropOp35
 70
     1
102
RTVSPost2010Prop36
280
     0
102
RTVSPost2010PropOp36
 70
     1
102
RTVSPost2010Prop37
 90
       50
102
RTVSPost2010PropOp37
 70
     1
102
RTVSPost2010Prop38
140
0.0
102
RTVSPost2010PropOp38
 70
     1
102
RTVSPost2010Prop39
140
1.0
102
RTVSPost2010PropOp39
 70
     1
102
RTVSPost2010Prop40
 90
        0
102
RTVSPost2010PropOp40
 70
     1
102
RTVSPost2010Prop41ColorIndex
 90
       18
102
RTVSPost2010Prop41ColorRGB
 90
        0
102
RTVSPost2010PropOp41
 70
     1
102
RTVSPost2010Prop42
 90
       50
102
RTVSPost2010PropOp42
 70
     1
102
RTVSPost2010Prop43
 90
        3
102
RTVSPost2010PropOp43
 70
     1
102
RTVSPost2010Prop44ColorIndex
 90
        5
102
RTVSPost2010Prop44ColorRGB
 90
      255
102
RTVSPost2010PropOp44
 70
     1
102
RTVSPost2010Prop45
280
     0
102
RTVSPost2010PropOp45
 70
     1
102
RTVSPost2010Prop46
 90
       50
102
RTVSPost2010PropOp46
 70
     1
102
RTVSPost2010Prop47
 90
       50
102
RTVSPost2010PropOp47
 70
     1
102
RTVSPost2010Prop48
 90
       50
102
RTVSPost2010PropOp48
 70
     1
102
RTVSPost2010Prop49
280
     0
102
RTVSPost2010PropOp49
 70
     1
102
RTVSPost2010Prop50
 90
       50
102
RTVSPost2010PropOp50
 70
     1
102
RTVSPost2010Prop51ColorIndex
 90
      256
102
RTVSPost2010Prop51ColorRGB
 90
-16777216
102
RTVSPost2010PropOp51
 70
     0
102
RTVSPost2010Prop52
140
1.0
102
RTVSPost2010PropOp52
 70
     0
102
RTVSPost2010Prop53
 90
        2
102
RTVSPost2010PropOp53
 70
     1
102
RTVSPost2010Prop54
  1
strokes_ogs.tif
102
RTVSPost2010PropOp54
 70
     1
102
RTVSPost2010Prop55
280
     0
102
RTVSPost2010PropOp55
 70
     1
102
RTVSPost2010Prop56
140
1.0
102
RTVSPost2010PropOp56
 70
     1
102
RTVSPost2010Prop57
140
1.0
102
RTVSPost2010PropOp57
 70
     1
  0
XRECORD
  5
2B1
102
{ACAD_REACTORS
330
2B0
102
}
330
2B0
100
AcDbXrecord
280
     1
102
RTVSPropertyOp0
 70
     1
102
RTVSPropertyOp1
 70
     1
102
RTVSPropertyOp2
 70
     1
102
RTVSPropertyOp3
 70
     1
102
RTVSPropertyOp4
 70
     1
102
RTVSPropertyOp5
 70
     1
102
RTVSPropertyOp6
 70
     1
102
RTVSPropertyOp7
 70
     1
102
RTVSPropertyOp8
 70
     1
102
RTVSPropertyOp9
 70
     1
102
RTVSPropertyOp10
 70
     1
102
RTVSPropertyOp11
 70
     1
102
RTVSPropertyOp12
 70
     1
102
RTVSPropertyOp13
 70
     1
102
RTVSPropertyOp14
 70
     1
102
RTVSPropertyOp15
 70
     1
102
RTVSPropertyOp16
 70
     1
102
RTVSPropertyOp17
 70
     1
102
RTVSPropertyOp18
 70
     1
102
RTVSPropertyOp19
 70
     1
102
RTVSPropertyOp20
 70
     1
102
RTVSPropertyOp21
 70
     1
102
RTVSPropertyOp22
 70
     1
102
RTVSPropertyOp23
 70
     1
102
RTVSPropertyOp24
 70
     1
102
RTVSPropertyOp25
 70
     1
102
RTVSPropertyOp26
 70
     1
102
RTVSPropertyOp27
 70
     1
102
RTVSPropertyOp28
 70
     1
102
RTVSPropertyOp29
 70
     1
102
RTVSPropertyOp30
 70
     1
102
RTVSPropertyOp31
 70
     1
102
RTVSPropertyOp32
 70
     1
102
RTVSPropertyOp33
 70
     1
102
RTVSPropertyOp34
 70
     1
102
RTVSPropertyOp35
 70
     1
102
RTVSPropertyOp36
 70
     1
102
RTVSPropertyOp37
 70
     1
102
RTVSPropertyOp38
 70
     1
102
RTVSPropertyOp39
 70
     1
102
RTVSPropertyOp40
 70
     1
102
RTVSPropertyOp41
 70
     1
102
RTVSPropertyOp42
 70
     1
102
RTVSPropertyOp43
 70
     1
102
RTVSPropertyOp44
 70
     1
102
RTVSPropertyOp45
 70
     1
102
RTVSPropertyOp46
 70
     1
102
RTVSPropertyOp47
 70
     1
102
RTVSPropertyOp48
 70
     1
102
RTVSPropertyOp49
 70
     1
102
RTVSPropertyOp50
 70
     1
102
RTVSPropertyOp51
 70
     0
102
RTVSPropertyOp52
 70
     0
102
RTVSPropertyOp53
 70
     1
102
RTVSPropertyOp54
 70
     1
102
RTVSPropertyOp55
 70
     1
102
RTVSPropertyOp56
 70
     1
102
RTVSPropertyOp57
 70
     1
102
RTVSPost2010Prop28
280
     0
102
RTVSPost2010PropOp28
 70
     1
102
RTVSPost2010Prop29
280
     1
102
RTVSPost2010PropOp29
 70
     1
102
RTVSPost2010Prop30
280
     1
102
RTVSPost2010PropOp30
 70
     1
102
RTVSPost2010Prop31
280
     0
102
RTVSPost2010PropOp31
 70
     1
102
RTVSPost2010Prop32
280
     0
102
RTVSPost2010PropOp32
 70
     1
102
RTVSPost2010Prop33
280
     0
102
RTVSPost2010PropOp33
 70
     1
102
RTVSPost2010Prop34
280
     0
102
RTVSPost2010PropOp34
 70
     1
102
RTVSPost2010Prop35
280
     0
102
RTVSPost2010PropOp35
 70
     1
102
RTVSPost2010Prop36
280
     0
102
RTVSPost2010PropOp36
 70
     1
102
RTVSPost2010Prop37
 90
       50
102
RTVSPost2010PropOp37
 70
     1
102
RTVSPost2010Prop38
140
0.0
102
RTVSPost2010PropOp38
 70
     1
102
RTVSPost2010Prop39
140
1.0
102
RTVSPost2010PropOp39
 70
     1
102
RTVSPost2010Prop40
 90
        0
102
RTVSPost2010PropOp40
 70
     1
102
RTVSPost2010Prop41ColorIndex
 90
       18
102
RTVSPost2010Prop41ColorRGB
 90
        0
102
RTVSPost2010PropOp41
 70
     1
102
RTVSPost2010Prop42
 90
       50
102
RTVSPost2010PropOp42
 70
     1
102
RTVSPost2010Prop43
 90
        3
102
RTVSPost2010PropOp43
 70
     1
102
RTVSPost2010Prop44ColorIndex
 90
        5
102
RTVSPost2010Prop44ColorRGB
 90
      255
102
RTVSPost2010PropOp44
 70
     1
102
RTVSPost2010Prop45
280
     0
102
RTVSPost2010PropOp45
 70
     1
102
RTVSPost2010Prop46
 90
       50
102
RTVSPost2010PropOp46
 70
     1
102
RTVSPost2010Prop47
 90
       50
102
RTVSPost2010PropOp47
 70
     1
102
RTVSPost2010Prop48
 90
       50
102
RTVSPost2010PropOp48
 70
     1
102
RTVSPost2010Prop49
280
     0
102
RTVSPost2010PropOp49
 70
     1
102
RTVSPost2010Prop50
 90
       50
102
RTVSPost2010PropOp50
 70
     1
102
RTVSPost2010Prop51ColorIndex
 90
      256
102
RTVSPost2010Prop51ColorRGB
 90
-16777216
102
RTVSPost2010PropOp51
 70
     0
102
RTVSPost2010Prop52
140
1.0
102
RTVSPost2010PropOp52
 70
     0
102
RTVSPost2010Prop53
 90
        2
102
RTVSPost2010PropOp53
 70
     1
102
RTVSPost2010Prop54
  1
strokes_ogs.tif
102
RTVSPost2010PropOp54
 70
     1
102
RTVSPost2010Prop55
280
     0
102
RTVSPost2010PropOp55
 70
     1
102
RTVSPost2010Prop56
140
1.0
102
RTVSPost2010PropOp56
 70
     1
102
RTVSPost2010Prop57
140
1.0
102
RTVSPost2010PropOp57
 70
     1
  0
XRECORD
  5
2A3
102
{ACAD_REACTORS
330
2A2
102
}
330
2A2
100
AcDbXrecord
280
     1
102
RTVSPropertyOp0
 70
     1
102
RTVSPropertyOp1
 70
     1
102
RTVSPropertyOp2
 70
     1
102
RTVSPropertyOp3
 70
     1
102
RTVSPropertyOp4
 70
     1
102
RTVSPropertyOp5
 70
     1
102
RTVSPropertyOp6
 70
     1
102
RTVSPropertyOp7
 70
     1
102
RTVSPropertyOp8
 70
     1
102
RTVSPropertyOp9
 70
     1
102
RTVSPropertyOp10
 70
     1
102
RTVSPropertyOp11
 70
     1
102
RTVSPropertyOp12
 70
     1
102
RTVSPropertyOp13
 70
     1
102
RTVSPropertyOp14
 70
     1
102
RTVSPropertyOp15
 70
     1
102
RTVSPropertyOp16
 70
     1
102
RTVSPropertyOp17
 70
     1
102
RTVSPropertyOp18
 70
     1
102
RTVSPropertyOp19
 70
     1
102
RTVSPropertyOp20
 70
     1
102
RTVSPropertyOp21
 70
     1
102
RTVSPropertyOp22
 70
     1
102
RTVSPropertyOp23
 70
     1
102
RTVSPropertyOp24
 70
     1
102
RTVSPropertyOp25
 70
     1
102
RTVSPropertyOp26
 70
     1
102
RTVSPropertyOp27
 70
     1
102
RTVSPropertyOp28
 70
     1
102
RTVSPropertyOp29
 70
     1
102
RTVSPropertyOp30
 70
     1
102
RTVSPropertyOp31
 70
     1
102
RTVSPropertyOp32
 70
     1
102
RTVSPropertyOp33
 70
     1
102
RTVSPropertyOp34
 70
     1
102
RTVSPropertyOp35
 70
     1
102
RTVSPropertyOp36
 70
     1
102
RTVSPropertyOp37
 70
     1
102
RTVSPropertyOp38
 70
     1
102
RTVSPropertyOp39
 70
     1
102
RTVSPropertyOp40
 70
     1
102
RTVSPropertyOp41
 70
     1
102
RTVSPropertyOp42
 70
     1
102
RTVSPropertyOp43
 70
     1
102
RTVSPropertyOp44
 70
     1
102
RTVSPropertyOp45
 70
     1
102
RTVSPropertyOp46
 70
     1
102
RTVSPropertyOp47
 70
     1
102
RTVSPropertyOp48
 70
     1
102
RTVSPropertyOp49
 70
     1
102
RTVSPropertyOp50
 70
     1
102
RTVSPropertyOp51
 70
     0
102
RTVSPropertyOp52
 70
     0
102
RTVSPropertyOp53
 70
     1
102
RTVSPropertyOp54
 70
     1
102
RTVSPropertyOp55
 70
     1
102
RTVSPropertyOp56
 70
     1
102
RTVSPropertyOp57
 70
     1
102
RTVSPost2010Prop28
280
     0
102
RTVSPost2010PropOp28
 70
     1
102
RTVSPost2010Prop29
280
     1
102
RTVSPost2010PropOp29
 70
     1
102
RTVSPost2010Prop30
280
     1
102
RTVSPost2010PropOp30
 70
     1
102
RTVSPost2010Prop31
280
     0
102
RTVSPost2010PropOp31
 70
     1
102
RTVSPost2010Prop32
280
     0
102
RTVSPost2010PropOp32
 70
     1
102
RTVSPost2010Prop33
280
     0
102
RTVSPost2010PropOp33
 70
     1
102
RTVSPost2010Prop34
280
     0
102
RTVSPost2010PropOp34
 70
     1
102
RTVSPost2010Prop35
280
     0
102
RTVSPost2010PropOp35
 70
     1
102
RTVSPost2010Prop36
280
     0
102
RTVSPost2010PropOp36
 70
     1
102
RTVSPost2010Prop37
 90
       50
102
RTVSPost2010PropOp37
 70
     1
102
RTVSPost2010Prop38
140
0.0
102
RTVSPost2010PropOp38
 70
     1
102
RTVSPost2010Prop39
140
1.0
102
RTVSPost2010PropOp39
 70
     1
102
RTVSPost2010Prop40
 90
        0
102
RTVSPost2010PropOp40
 70
     1
102
RTVSPost2010Prop41ColorIndex
 90
       18
102
RTVSPost2010Prop41ColorRGB
 90
        0
102
RTVSPost2010PropOp41
 70
     1
102
RTVSPost2010Prop42
 90
       50
102
RTVSPost2010PropOp42
 70
     1
102
RTVSPost2010Prop43
 90
        3
102
RTVSPost2010PropOp43
 70
     1
102
RTVSPost2010Prop44ColorIndex
 90
        5
102
RTVSPost2010Prop44ColorRGB
 90
      255
102
RTVSPost2010PropOp44
 70
     1
102
RTVSPost2010Prop45
280
     0
102
RTVSPost2010PropOp45
 70
     1
102
RTVSPost2010Prop46
 90
       50
102
RTVSPost2010PropOp46
 70
     1
102
RTVSPost2010Prop47
 90
       50
102
RTVSPost2010PropOp47
 70
     1
102
RTVSPost2010Prop48
 90
       50
102
RTVSPost2010PropOp48
 70
     1
102
RTVSPost2010Prop49
280
     0
102
RTVSPost2010PropOp49
 70
     1
102
RTVSPost2010Prop50
 90
       50
102
RTVSPost2010PropOp50
 70
     1
102
RTVSPost2010Prop51ColorIndex
 90
      256
102
RTVSPost2010Prop51ColorRGB
 90
-16777216
102
RTVSPost2010PropOp51
 70
     0
102
RTVSPost2010Prop52
140
1.0
102
RTVSPost2010PropOp52
 70
     0
102
RTVSPost2010Prop53
 90
        2
102
RTVSPost2010PropOp53
 70
     1
102
RTVSPost2010Prop54
  1
strokes_ogs.tif
102
RTVSPost2010PropOp54
 70
     1
102
RTVSPost2010Prop55
280
     0
102
RTVSPost2010PropOp55
 70
     1
102
RTVSPost2010Prop56
140
1.0
102
RTVSPost2010PropOp56
 70
     1
102
RTVSPost2010Prop57
140
1.0
102
RTVSPost2010PropOp57
 70
     1
  0
XRECORD
  5
2C3
102
{ACAD_REACTORS
330
2C2
102
}
330
2C2
100
AcDbXrecord
280
     1
102
RTVSPropertyOp0
 70
     1
102
RTVSPropertyOp1
 70
     1
102
RTVSPropertyOp2
 70
     1
102
RTVSPropertyOp3
 70
     1
102
RTVSPropertyOp4
 70
     1
102
RTVSPropertyOp5
 70
     1
102
RTVSPropertyOp6
 70
     1
102
RTVSPropertyOp7
 70
     1
102
RTVSPropertyOp8
 70
     1
102
RTVSPropertyOp9
 70
     1
102
RTVSPropertyOp10
 70
     1
102
RTVSPropertyOp11
 70
     1
102
RTVSPropertyOp12
 70
     1
102
RTVSPropertyOp13
 70
     1
102
RTVSPropertyOp14
 70
     1
102
RTVSPropertyOp15
 70
     1
102
RTVSPropertyOp16
 70
     1
102
RTVSPropertyOp17
 70
     1
102
RTVSPropertyOp18
 70
     1
102
RTVSPropertyOp19
 70
     1
102
RTVSPropertyOp20
 70
     1
102
RTVSPropertyOp21
 70
     1
102
RTVSPropertyOp22
 70
     1
102
RTVSPropertyOp23
 70
     1
102
RTVSPropertyOp24
 70
     1
102
RTVSPropertyOp25
 70
     1
102
RTVSPropertyOp26
 70
     1
102
RTVSPropertyOp27
 70
     1
102
RTVSPropertyOp28
 70
     1
102
RTVSPropertyOp29
 70
     1
102
RTVSPropertyOp30
 70
     1
102
RTVSPropertyOp31
 70
     1
102
RTVSPropertyOp32
 70
     1
102
RTVSPropertyOp33
 70
     1
102
RTVSPropertyOp34
 70
     1
102
RTVSPropertyOp35
 70
     1
102
RTVSPropertyOp36
 70
     1
102
RTVSPropertyOp37
 70
     1
102
RTVSPropertyOp38
 70
     1
102
RTVSPropertyOp39
 70
     1
102
RTVSPropertyOp40
 70
     1
102
RTVSPropertyOp41
 70
     1
102
RTVSPropertyOp42
 70
     1
102
RTVSPropertyOp43
 70
     1
102
RTVSPropertyOp44
 70
     1
102
RTVSPropertyOp45
 70
     1
102
RTVSPropertyOp46
 70
     1
102
RTVSPropertyOp47
 70
     1
102
RTVSPropertyOp48
 70
     1
102
RTVSPropertyOp49
 70
     1
102
RTVSPropertyOp50
 70
     1
102
RTVSPropertyOp51
 70
     0
102
RTVSPropertyOp52
 70
     0
102
RTVSPropertyOp53
 70
     1
102
RTVSPropertyOp54
 70
     1
102
RTVSPropertyOp55
 70
     1
102
RTVSPropertyOp56
 70
     1
102
RTVSPropertyOp57
 70
     1
102
RTVSPost2010Prop28
280
     0
102
RTVSPost2010PropOp28
 70
     1
102
RTVSPost2010Prop29
280
     1
102
RTVSPost2010PropOp29
 70
     1
102
RTVSPost2010Prop30
280
     1
102
RTVSPost2010PropOp30
 70
     1
102
RTVSPost2010Prop31
280
     0
102
RTVSPost2010PropOp31
 70
     1
102
RTVSPost2010Prop32
280
     0
102
RTVSPost2010PropOp32
 70
     1
102
RTVSPost2010Prop33
280
     0
102
RTVSPost2010PropOp33
 70
     1
102
RTVSPost2010Prop34
280
     0
102
RTVSPost2010PropOp34
 70
     1
102
RTVSPost2010Prop35
280
     0
102
RTVSPost2010PropOp35
 70
     1
102
RTVSPost2010Prop36
280
     0
102
RTVSPost2010PropOp36
 70
     1
102
RTVSPost2010Prop37
 90
       50
102
RTVSPost2010PropOp37
 70
     1
102
RTVSPost2010Prop38
140
0.0
102
RTVSPost2010PropOp38
 70
     1
102
RTVSPost2010Prop39
140
1.0
102
RTVSPost2010PropOp39
 70
     1
102
RTVSPost2010Prop40
 90
        0
102
RTVSPost2010PropOp40
 70
     1
102
RTVSPost2010Prop41ColorIndex
 90
       18
102
RTVSPost2010Prop41ColorRGB
 90
        0
102
RTVSPost2010PropOp41
 70
     1
102
RTVSPost2010Prop42
 90
       50
102
RTVSPost2010PropOp42
 70
     1
102
RTVSPost2010Prop43
 90
        3
102
RTVSPost2010PropOp43
 70
     1
102
RTVSPost2010Prop44ColorIndex
 90
        5
102
RTVSPost2010Prop44ColorRGB
 90
      255
102
RTVSPost2010PropOp44
 70
     1
102
RTVSPost2010Prop45
280
     0
102
RTVSPost2010PropOp45
 70
     1
102
RTVSPost2010Prop46
 90
       50
102
RTVSPost2010PropOp46
 70
     1
102
RTVSPost2010Prop47
 90
       50
102
RTVSPost2010PropOp47
 70
     1
102
RTVSPost2010Prop48
 90
       50
102
RTVSPost2010PropOp48
 70
     1
102
RTVSPost2010Prop49
280
     0
102
RTVSPost2010PropOp49
 70
     1
102
RTVSPost2010Prop50
 90
       50
102
RTVSPost2010PropOp50
 70
     1
102
RTVSPost2010Prop51ColorIndex
 90
      256
102
RTVSPost2010Prop51ColorRGB
 90
-16777216
102
RTVSPost2010PropOp51
 70
     0
102
RTVSPost2010Prop52
140
1.0
102
RTVSPost2010PropOp52
 70
     0
102
RTVSPost2010Prop53
 90
        2
102
RTVSPost2010PropOp53
 70
     1
102
RTVSPost2010Prop54
  1
strokes_ogs.tif
102
RTVSPost2010PropOp54
 70
     1
102
RTVSPost2010Prop55
280
     0
102
RTVSPost2010PropOp55
 70
     1
102
RTVSPost2010Prop56
140
1.0
102
RTVSPost2010PropOp56
 70
     1
102
RTVSPost2010Prop57
140
1.0
102
RTVSPost2010PropOp57
 70
     1
  0
ENDSEC
  0
EOF
