  0
SECTION
  2
HEADER
  9
$ACADVER
  1
AC1024
  9
$ACADMAINTVER
 70
     6
  9
$DWGCODEPAGE
  3
ANSI_932
  9
$INSBASE
 10
0.0
 20
0.0
 30
0.0
  9
$EXTMIN
 10
-826.0670238764485
 20
-314.6672143757204
 30
0.0
  9
$EXTMAX
 10
826.0670238764485
 20
314.6672143757204
 30
0.0
  9
$LIMMIN
 10
-297.25
 20
-210.25
  9
$LIMMAX
 10
297.25
 20
210.25
  9
$ORTHOMODE
 70
     0
  9
$REGENMODE
 70
     1
  9
$FILLMODE
 70
     1
  9
$QTEXTMODE
 70
     0
  9
$MIRRTEXT
 70
     1
  9
$LTSCALE
 40
0.125
  9
$ATTMODE
 70
     1
  9
$TEXTSIZE
 40
0.2
  9
$TRACEWID
 40
0.05
  9
$TEXTSTYLE
  7
Standard
  9
$CLAYER
  8
0
  9
$CELTYPE
  6
ByLayer
  9
$CECOLOR
 62
   256
  9
$CELTSCALE
 40
1.0
  9
$DISPSILH
 70
     0
  9
$DIMSCALE
 40
1.0
  9
$DIMASZ
 40
0.2499929070472717
  9
$DIMEXO
 40
1.0
  9
$DIMDLI
 40
10.0
  9
$DIMRND
 40
0.0
  9
$DIMDLE
 40
0.0
  9
$DIMEXE
 40
1.0
  9
$DIMTP
 40
0.0
  9
$DIMTM
 40
0.0
  9
$DIMTXT
 40
2.0
  9
$DIMCEN
 40
0.0
  9
$DIMTSZ
 40
0.0
  9
$DIMTOL
 70
     0
  9
$DIMLIM
 70
     0
  9
$DIMTIH
 70
     0
  9
$DIMTOH
 70
     0
  9
$DIMSE1
 70
     0
  9
$DIMSE2
 70
     0
  9
$DIMTAD
 70
     1
  9
$DIMZIN
 70
     8
  9
$DIMBLK
  1

  9
$DIMASO
 70
     1
  9
$DIMSHO
 70
     1
  9
$DIMPOST
  1

  9
$DIMAPOST
  1

  9
$DIMALT
 70
     0
  9
$DIMALTD
 70
     2
  9
$DIMALTF
 40
0.0393700787401575
  9
$DIMLFAC
 40
1.0
  9
$DIMTOFL
 70
     0
  9
$DIMTVP
 40
0.0
  9
$DIMTIX
 70
     0
  9
$DIMSOXD
 70
     0
  9
$DIMSAH
 70
     0
  9
$DIMBLK1
  1

  9
$DIMBLK2
  1

  9
$DIMSTYLE
  2
Standard
  9
$DIMCLRD
 70
     0
  9
$DIMCLRE
 70
     0
  9
$DIMCLRT
 70
     0
  9
$DIMTFAC
 40
0.65
  9
$DIMGAP
 40
0.09
  9
$DIMJUST
 70
     0
  9
$DIMSD1
 70
     0
  9
$DIMSD2
 70
     0
  9
$DIMTOLJ
 70
     0
  9
$DIMTZIN
 70
     0
  9
$DIMALTZ
 70
     0
  9
$DIMALTTZ
 70
     0
  9
$DIMUPT
 70
     0
  9
$DIMDEC
 70
     3
  9
$DIMTDEC
 70
     3
  9
$DIMALTU
 70
     2
  9
$DIMALTTD
 70
     3
  9
$DIMTXSTY
  7
Standard
  9
$DIMAUNIT
 70
     0
  9
$DIMADEC
 70
     3
  9
$DIMALTRND
 40
0.0
  9
$DIMAZIN
 70
     2
  9
$DIMDSEP
 70
    46
  9
$DIMATFIT
 70
     3
  9
$DIMFRAC
 70
     0
  9
$DIMLDRBLK
  1

  9
$DIMLUNIT
 70
     2
  9
$DIMLWD
 70
    -2
  9
$DIMLWE
 70
    -2
  9
$DIMTMOVE
 70
     0
  9
$DIMFXL
 40
1.0
  9
$DIMFXLON
 70
     0
  9
$DIMJOGANG
 40
0.7853981633974483
  9
$DIMTFILL
 70
     0
  9
$DIMTFILLCLR
 70
     0
  9
$DIMARCSYM
 70
     1
  9
$DIMLTYPE
  6

  9
$DIMLTEX1
  6

  9
$DIMLTEX2
  6

  9
$DIMTXTDIRECTION
 70
     0
  9
$LUNITS
 70
     2
  9
$LUPREC
 70
     4
  9
$SKETCHINC
 40
0.1
  9
$FILLETRAD
 40
0.5
  9
$AUNITS
 70
     0
  9
$AUPREC
 70
     0
  9
$MENU
  1
.
  9
$ELEVATION
 40
0.0
  9
$PELEVATION
 40
0.0
  9
$THICKNESS
 40
0.0
  9
$LIMCHECK
 70
     0
  9
$CHAMFERA
 40
0.0
  9
$CHAMFERB
 40
0.0
  9
$CHAMFERC
 40
0.0
  9
$CHAMFERD
 40
0.0
  9
$SKPOLY
 70
     0
  9
$TDCREATE
 40
2459964.531041262
  9
$TDUCREATE
 40
2459964.156041262
  9
$TDUPDATE
 40
2459964.531041447
  9
$TDUUPDATE
 40
2459964.156041447
  9
$TDINDWG
 40
0.0000000116
  9
$TDUSRTIMER
 40
0.0000000116
  9
$USRTIMER
 70
     1
  9
$ANGBASE
 50
0.0
  9
$ANGDIR
 70
     0
  9
$PDMODE
 70
     0
  9
$PDSIZE
 40
1.0
  9
$PLINEWID
 40
0.0
  9
$SPLFRAME
 70
     0
  9
$SPLINETYPE
 70
     6
  9
$SPLINESEGS
 70
     8
  9
$HANDSEED
  5
43B
  9
$SURFTAB1
 70
     6
  9
$SURFTAB2
 70
     6
  9
$SURFTYPE
 70
     6
  9
$SURFU
 70
     6
  9
$SURFV
 70
     6
  9
$UCSBASE
  2

  9
$UCSNAME
  2

  9
$UCSORG
 10
0.0
 20
0.0
 30
0.0
  9
$UCSXDIR
 10
1.0
 20
0.0
 30
0.0
  9
$UCSYDIR
 10
0.0
 20
1.0
 30
0.0
  9
$UCSORTHOREF
  2

  9
$UCSORTHOVIEW
 70
     0
  9
$UCSORGTOP
 10
0.0
 20
0.0
 30
0.0
  9
$UCSORGBOTTOM
 10
0.0
 20
0.0
 30
0.0
  9
$UCSORGLEFT
 10
0.0
 20
0.0
 30
0.0
  9
$UCSORGRIGHT
 10
0.0
 20
0.0
 30
0.0
  9
$UCSORGFRONT
 10
0.0
 20
0.0
 30
0.0
  9
$UCSORGBACK
 10
0.0
 20
0.0
 30
0.0
  9
$PUCSBASE
  2

  9
$PUCSNAME
  2

  9
$PUCSORG
 10
0.0
 20
0.0
 30
0.0
  9
$PUCSXDIR
 10
1.0
 20
0.0
 30
0.0
  9
$PUCSYDIR
 10
0.0
 20
1.0
 30
0.0
  9
$PUCSORTHOREF
  2

  9
$PUCSORTHOVIEW
 70
     0
  9
$PUCSORGTOP
 10
0.0
 20
0.0
 30
0.0
  9
$PUCSORGBOTTOM
 10
0.0
 20
0.0
 30
0.0
  9
$PUCSORGLEFT
 10
0.0
 20
0.0
 30
0.0
  9
$PUCSORGRIGHT
 10
0.0
 20
0.0
 30
0.0
  9
$PUCSORGFRONT
 10
0.0
 20
0.0
 30
0.0
  9
$PUCSORGBACK
 10
0.0
 20
0.0
 30
0.0
  9
$USERI1
 70
     0
  9
$USERI2
 70
     0
  9
$USERI3
 70
     0
  9
$USERI4
 70
     0
  9
$USERI5
 70
     0
  9
$USERR1
 40
0.0
  9
$USERR2
 40
0.0
  9
$USERR3
 40
0.0
  9
$USERR4
 40
0.0
  9
$USERR5
 40
0.0
  9
$WORLDVIEW
 70
     1
  9
$SHADEDGE
 70
     3
  9
$SHADEDIF
 70
    70
  9
$TILEMODE
 70
     1
  9
$MAXACTVP
 70
    64
  9
$PINSBASE
 10
0.0
 20
0.0
 30
0.0
  9
$PLIMCHECK
 70
     0
  9
$PEXTMIN
 10
1.000000000000000E+20
 20
1.000000000000000E+20
 30
1.000000000000000E+20
  9
$PEXTMAX
 10
-1.000000000000000E+20
 20
-1.000000000000000E+20
 30
-1.000000000000000E+20
  9
$PLIMMIN
 10
0.0
 20
0.0
  9
$PLIMMAX
 10
12.0
 20
9.0
  9
$UNITMODE
 70
     0
  9
$VISRETAIN
 70
     0
  9
$PLINEGEN
 70
     1
  9
$PSLTSCALE
 70
     0
  9
$TREEDEPTH
 70
  3020
  9
$CMLSTYLE
  2
Standard
  9
$CMLJUST
 70
     0
  9
$CMLSCALE
 40
1.0
  9
$PROXYGRAPHICS
 70
     0
  9
$MEASUREMENT
 70
     1
  9
$CELWEIGHT
370
    -1
  9
$ENDCAPS
280
     0
  9
$JOINSTYLE
280
     0
  9
$LWDISPLAY
290
     1
  9
$INSUNITS
 70
     4
  9
$HYPERLINKBASE
  1

  9
$STYLESHEET
  1

  9
$XEDIT
290
     1
  9
$CEPSNTYPE
380
     0
  9
$PSTYLEMODE
290
     1
  9
$FINGERPRINTGUID
  2
{8662e54e-8cc8-4a40-9e91-822e95dcaf3b}
  9
$VERSIONGUID
  2
{FAEB1C32-E019-11D5-929B-00C0DF256EC4}
  9
$EXTNAMES
290
     1
  9
$PSVPSCALE
 40
0.0
  9
$OLESTARTUP
290
     0
  9
$SORTENTS
280
   127
  9
$INDEXCTL
280
     0
  9
$HIDETEXT
280
     1
  9
$XCLIPFRAME
280
     2
  9
$HALOGAP
280
     0
  9
$OBSCOLOR
 70
   257
  9
$OBSLTYPE
280
     0
  9
$INTERSECTIONDISPLAY
280
     0
  9
$INTERSECTIONCOLOR
 70
   257
  9
$DIMASSOC
280
     2
  9
$PROJECTNAME
  1

  9
$CAMERADISPLAY
290
     0
  9
$LENSLENGTH
 40
50.0
  9
$CAMERAHEIGHT
 40
0.0
  9
$STEPSPERSEC
 40
2.0
  9
$STEPSIZE
 40
6.0
  9
$3DDWFPREC
 40
2.0
  9
$PSOLWIDTH
 40
0.25
  9
$PSOLHEIGHT
 40
4.0
  9
$LOFTANG1
 40
1.570796326794897
  9
$LOFTANG2
 40
1.570796326794897
  9
$LOFTMAG1
 40
0.0
  9
$LOFTMAG2
 40
0.0
  9
$LOFTPARAM
 70
     7
  9
$LOFTNORMALS
280
     1
  9
$LATITUDE
 40
37.795
  9
$LONGITUDE
 40
-122.394
  9
$NORTHDIRECTION
 40
0.0
  9
$TIMEZONE
 70
 -8000
  9
$LIGHTGLYPHDISPLAY
280
     1
  9
$TILEMODELIGHTSYNCH
280
     1
  9
$CMATERIAL
347
44
  9
$SOLIDHIST
280
     0
  9
$SHOWHIST
280
     1
  9
$DWFFRAME
280
     2
  9
$DGNFRAME
280
     2
  9
$REALWORLDSCALE
290
     1
  9
$INTERFERECOLOR
 62
   256
  9
$CSHADOW
280
     0
  9
$SHADOWPLANELOCATION
 40
0.0
  0
ENDSEC
  0
SECTION
  2
CLASSES
  0
CLASS
  1
ACDBDICTIONARYWDFLT
  2
AcDbDictionaryWithDefault
  3
ObjectDBX Classes
 90
        0
 91
        3
280
     0
281
     0
  0
CLASS
  1
VISUALSTYLE
  2
AcDbVisualStyle
  3
ObjectDBX Classes
 90
     4095
 91
        3
280
     0
281
     0
  0
CLASS
  1
MATERIAL
  2
AcDbMaterial
  3
ObjectDBX Classes
 90
     1153
 91
        3
280
     0
281
     0
  0
CLASS
  1
SCALE
  2
AcDbScale
  3
ObjectDBX Classes
 90
     1153
 91
        3
280
     0
281
     0
  0
CLASS
  1
TABLESTYLE
  2
AcDbTableStyle
  3
ObjectDBX Classes
 90
     4095
 91
        3
280
     0
281
     0
  0
CLASS
  1
MLEADERSTYLE
  2
AcDbMLeaderStyle
  3
ACDB_MLEADERSTYLE_CLASS
 90
     4095
 91
        3
280
     0
281
     0
  0
CLASS
  1
SUN
  2
AcDbSun
  3
SCENEOE
 90
     1153
 91
        3
280
     0
281
     0
  0
CLASS
  1
DICTIONARYVAR
  2
AcDbDictionaryVar
  3
ObjectDBX Classes
 90
        0
 91
        3
280
     0
281
     0
  0
CLASS
  1
CELLSTYLEMAP
  2
AcDbCellStyleMap
  3
ObjectDBX Classes
 90
     1152
 91
        3
280
     0
281
     0
  0
ENDSEC
  0
SECTION
  2
TABLES
  0
TABLE
  2
VPORT
  5
8
330
0
100
AcDbSymbolTable
 70
     1
  0
VPORT
  5
29
330
8
100
AcDbSymbolTableRecord
100
AcDbViewportTableRecord
  2
*Active
 70
     0
 10
0.0
 20
0.0
 11
1.0
 21
1.0
 12
0.0
 22
0.0
 13
0.0
 23
0.0
 14
0.5
 24
0.5
 15
0.5
 25
0.5
 16
0.0
 26
0.0
 36
1.0
 17
-0.0000000000000036
 27
-0.0000000000000142
 37
0.0
 40
213.9737057754899
 41
2.625208430167447
 42
50.0
 43
0.0
 44
0.0
 50
0.0
 51
0.0
 71
     0
 72
  1000
 73
     1
 74
     1
 75
     0
 76
     0
 77
     0
 78
     0
281
     0
 65
     1
110
0.0
120
0.0
130
0.0
111
1.0
121
0.0
131
0.0
112
0.0
122
1.0
132
0.0
 79
     0
146
0.0
348
2F
 60
     3
 61
     5
292
     1
282
     1
141
0.0
142
0.0
 63
   250
361
6D
  0
ENDTAB
  0
TABLE
  2
LTYPE
  5
5
330
0
100
AcDbSymbolTable
 70
    67
  0
LTYPE
  5
14
330
5
100
AcDbSymbolTableRecord
100
AcDbLinetypeTableRecord
  2
ByBlock
 70
     0
  3

 72
    65
 73
     0
 40
0.0
  0
LTYPE
  5
15
330
5
100
AcDbSymbolTableRecord
100
AcDbLinetypeTableRecord
  2
ByLayer
 70
     0
  3

 72
    65
 73
     0
 40
0.0
  0
LTYPE
  5
16
330
5
100
AcDbSymbolTableRecord
100
AcDbLinetypeTableRecord
  2
Continuous
 70
     0
  3
Solid line
 72
    65
 73
     0
 40
0.0
  0
LTYPE
  5
6F
330
5
100
AcDbSymbolTableRecord
100
AcDbLinetypeTableRecord
  2
HIDDENX2
 70
     0
  3
Hidden (2x) ____ ____ ____ ____ ____ ____ ____ 
 72
    65
 73
     2
 40
19.05
 49
12.7
 74
     0
 49
-6.35
 74
     0
  0
LTYPE
  5
70
330
5
100
AcDbSymbolTableRecord
100
AcDbLinetypeTableRecord
  2
HIDDEN
 70
     0
  3
Hidden __ __ __ __ __ __ __ __ __ __ __ __ __ __
 72
    65
 73
     2
 40
9.524999999999999
 49
6.35
 74
     0
 49
-3.175
 74
     0
  0
LTYPE
  5
71
330
5
100
AcDbSymbolTableRecord
100
AcDbLinetypeTableRecord
  2
HIDDEN2
 70
     0
  3
Hidden (.5x) _ _ _ _ _ _ _ _ _ _ _ _ _ _ _ _ _ 
 72
    65
 73
     2
 40
4.762499999999999
 49
3.175
 74
     0
 49
-1.5875
 74
     0
  0
LTYPE
  5
72
330
5
100
AcDbSymbolTableRecord
100
AcDbLinetypeTableRecord
  2
DASHED
 70
     0
  3
Dashed __ __ __ __ __ __ __ __ __ __ __ __ __ _
 72
    65
 73
     2
 40
19.05
 49
12.7
 74
     0
 49
-6.35
 74
     0
  0
LTYPE
  5
73
330
5
100
AcDbSymbolTableRecord
100
AcDbLinetypeTableRecord
  2
DASHED2
 70
     0
  3
Dashed (.5x) _ _ _ _ _ _ _ _ _ _ _ _ _ _ _ _ _ 
 72
    65
 73
     2
 40
9.524999999999999
 49
6.35
 74
     0
 49
-3.175
 74
     0
  0
LTYPE
  5
74
330
5
100
AcDbSymbolTableRecord
100
AcDbLinetypeTableRecord
  2
DASHEDX2
 70
     0
  3
Dashed (2x) ____  ____  ____  ____  ____  ___
 72
    65
 73
     2
 40
38.09999999999999
 49
25.4
 74
     0
 49
-12.7
 74
     0
  0
LTYPE
  5
75
330
5
100
AcDbSymbolTableRecord
100
AcDbLinetypeTableRecord
  2
DOTX2
 70
     0
  3
Dot (2x) .  .  .  .  .  .  .  .  .  .  .  .  .  .
 72
    65
 73
     2
 40
12.7
 49
0.0
 74
     0
 49
-12.7
 74
     0
  0
LTYPE
  5
76
330
5
100
AcDbSymbolTableRecord
100
AcDbLinetypeTableRecord
  2
DOT
 70
     0
  3
Dot . . . . . . . . . . . . . . . . . . . . . . . .
 72
    65
 73
     2
 40
6.35
 49
0.0
 74
     0
 49
-6.35
 74
     0
  0
LTYPE
  5
77
330
5
100
AcDbSymbolTableRecord
100
AcDbLinetypeTableRecord
  2
DOT2
 70
     0
  3
Dot (.5x) ........................................
 72
    65
 73
     2
 40
3.175
 49
0.0
 74
     0
 49
-3.175
 74
     0
  0
LTYPE
  5
78
330
5
100
AcDbSymbolTableRecord
100
AcDbLinetypeTableRecord
  2
CENTERX2
 70
     0
  3
Center (2x) ________  __  ________  __  _____
 72
    65
 73
     4
 40
101.6
 49
63.5
 74
     0
 49
-12.7
 74
     0
 49
12.7
 74
     0
 49
-12.7
 74
     0
  0
LTYPE
  5
79
330
5
100
AcDbSymbolTableRecord
100
AcDbLinetypeTableRecord
  2
CENTER
 70
     0
  3
Center ____ _ ____ _ ____ _ ____ _ ____ _ ____
 72
    65
 73
     4
 40
50.8
 49
31.75
 74
     0
 49
-6.35
 74
     0
 49
6.35
 74
     0
 49
-6.35
 74
     0
  0
LTYPE
  5
7A
330
5
100
AcDbSymbolTableRecord
100
AcDbLinetypeTableRecord
  2
CENTER2
 70
     0
  3
Center (.5x) ___ _ ___ _ ___ _ ___ _ ___ _ ___
 72
    65
 73
     4
 40
28.575
 49
19.05
 74
     0
 49
-3.175
 74
     0
 49
3.175
 74
     0
 49
-3.175
 74
     0
  0
LTYPE
  5
7B
330
5
100
AcDbSymbolTableRecord
100
AcDbLinetypeTableRecord
  2
DASHDOTX2
 70
     0
  3
Dash dot (2x) ____  .  ____  .  ____  .  ___
 72
    65
 73
     4
 40
50.8
 49
25.4
 74
     0
 49
-12.7
 74
     0
 49
0.0
 74
     0
 49
-12.7
 74
     0
  0
LTYPE
  5
7C
330
5
100
AcDbSymbolTableRecord
100
AcDbLinetypeTableRecord
  2
DASHDOT
 70
     0
  3
Dash dot __ . __ . __ . __ . __ . __ . __ . __
 72
    65
 73
     4
 40
25.4
 49
12.7
 74
     0
 49
-6.35
 74
     0
 49
0.0
 74
     0
 49
-6.35
 74
     0
  0
LTYPE
  5
7D
330
5
100
AcDbSymbolTableRecord
100
AcDbLinetypeTableRecord
  2
DASHDOT2
 70
     0
  3
Dash dot (.5x) _._._._._._._._._._._._._._._.
 72
    65
 73
     4
 40
12.7
 49
6.35
 74
     0
 49
-3.175
 74
     0
 49
0.0
 74
     0
 49
-3.175
 74
     0
  0
LTYPE
  5
7E
330
5
100
AcDbSymbolTableRecord
100
AcDbLinetypeTableRecord
  2
DIVIDEX2
 70
     0
  3
Divide (2x) ________  .  .  ________  .  .  _
 72
    65
 73
     6
 40
63.5
 49
25.4
 74
     0
 49
-12.7
 74
     0
 49
0.0
 74
     0
 49
-12.7
 74
     0
 49
0.0
 74
     0
 49
-12.7
 74
     0
  0
LTYPE
  5
7F
330
5
100
AcDbSymbolTableRecord
100
AcDbLinetypeTableRecord
  2
DIVIDE
 70
     0
  3
Divide ____ . . ____ . . ____ . . ____ . . ____
 72
    65
 73
     6
 40
31.75
 49
12.7
 74
     0
 49
-6.35
 74
     0
 49
0.0
 74
     0
 49
-6.35
 74
     0
 49
0.0
 74
     0
 49
-6.35
 74
     0
  0
LTYPE
  5
80
330
5
100
AcDbSymbolTableRecord
100
AcDbLinetypeTableRecord
  2
DIVIDE2
 70
     0
  3
Divide (.5x) __..__..__..__..__..__..__..__.._
 72
    65
 73
     6
 40
15.875
 49
6.35
 74
     0
 49
-3.175
 74
     0
 49
0.0
 74
     0
 49
-3.175
 74
     0
 49
0.0
 74
     0
 49
-3.175
 74
     0
  0
LTYPE
  5
81
330
5
100
AcDbSymbolTableRecord
100
AcDbLinetypeTableRecord
  2
BORDERX2
 70
     0
  3
Border (2x) ____  ____  .  ____  ____  .  ___
 72
    65
 73
     6
 40
88.89999999999999
 49
25.4
 74
     0
 49
-12.7
 74
     0
 49
25.4
 74
     0
 49
-12.7
 74
     0
 49
0.0
 74
     0
 49
-12.7
 74
     0
  0
LTYPE
  5
82
330
5
100
AcDbSymbolTableRecord
100
AcDbLinetypeTableRecord
  2
BORDER
 70
     0
  3
Border __ __ . __ __ . __ __ . __ __ . __ __ .
 72
    65
 73
     6
 40
44.45
 49
12.7
 74
     0
 49
-6.35
 74
     0
 49
12.7
 74
     0
 49
-6.35
 74
     0
 49
0.0
 74
     0
 49
-6.35
 74
     0
  0
LTYPE
  5
83
330
5
100
AcDbSymbolTableRecord
100
AcDbLinetypeTableRecord
  2
BORDER2
 70
     0
  3
Border (.5x) __.__.__.__.__.__.__.__.__.__.__.
 72
    65
 73
     6
 40
22.225
 49
6.35
 74
     0
 49
-3.175
 74
     0
 49
6.35
 74
     0
 49
-3.175
 74
     0
 49
0.0
 74
     0
 49
-3.175
 74
     0
  0
LTYPE
  5
84
330
5
100
AcDbSymbolTableRecord
100
AcDbLinetypeTableRecord
  2
PHANTOMX2
 70
     0
  3
Phantom (2x) ____________    ____    ____   _
 72
    65
 73
     6
 40
127.0
 49
63.5
 74
     0
 49
-12.7
 74
     0
 49
12.7
 74
     0
 49
-12.7
 74
     0
 49
12.7
 74
     0
 49
-12.7
 74
     0
  0
LTYPE
  5
85
330
5
100
AcDbSymbolTableRecord
100
AcDbLinetypeTableRecord
  2
PHANTOM
 70
     0
  3
Phantom ______  __  __  ______  __  __  ______ 
 72
    65
 73
     6
 40
63.5
 49
31.75
 74
     0
 49
-6.35
 74
     0
 49
6.35
 74
     0
 49
-6.35
 74
     0
 49
6.35
 74
     0
 49
-6.35
 74
     0
  0
LTYPE
  5
86
330
5
100
AcDbSymbolTableRecord
100
AcDbLinetypeTableRecord
  2
PHANTOM2
 70
     0
  3
Phantom (.5x) ___ _ _ ___ _ _ ___ _ _ ___ _ _
 72
    65
 73
     6
 40
31.75
 49
15.875
 74
     0
 49
-3.175
 74
     0
 49
3.175
 74
     0
 49
-3.175
 74
     0
 49
3.175
 74
     0
 49
-3.175
 74
     0
  0
LTYPE
  5
87
330
5
100
AcDbSymbolTableRecord
100
AcDbLinetypeTableRecord
  2
ACAD_ISO06W100
 70
     0
  3
ISO long-dash triple-dot ____ ... ____ ... ____
 72
    65
 73
     8
 40
36.0
 49
24.0
 74
     0
 49
-3.0
 74
     0
 49
0.0
 74
     0
 49
-3.0
 74
     0
 49
0.0
 74
     0
 49
-3.0
 74
     0
 49
0.0
 74
     0
 49
-3.0
 74
     0
  0
LTYPE
  5
88
330
5
100
AcDbSymbolTableRecord
100
AcDbLinetypeTableRecord
  2
ACAD_ISO13W100
 70
     0
  3
ISO double-dash double-dot __ __ . . __ __ . . _
 72
    65
 73
     8
 40
36.0
 49
12.0
 74
     0
 49
-3.0
 74
     0
 49
12.0
 74
     0
 49
-3.0
 74
     0
 49
0.0
 74
     0
 49
-3.0
 74
     0
 49
0.0
 74
     0
 49
-3.0
 74
     0
  0
LTYPE
  5
89
330
5
100
AcDbSymbolTableRecord
100
AcDbLinetypeTableRecord
  2
ACAD_ISO14W100
 70
     0
  3
ISO dash triple-dot __ . . . __ . . . __ . . . _
 72
    65
 73
     8
 40
24.0
 49
12.0
 74
     0
 49
-3.0
 74
     0
 49
0.0
 74
     0
 49
-3.0
 74
     0
 49
0.0
 74
     0
 49
-3.0
 74
     0
 49
0.0
 74
     0
 49
-3.0
 74
     0
  0
LTYPE
  5
8A
330
5
100
AcDbSymbolTableRecord
100
AcDbLinetypeTableRecord
  2
ACAD_ISO02W100
 70
     0
  3
ISO dash __ __ __ __ __ __ __ __ __ __ __ __ __
 72
    65
 73
     2
 40
15.0
 49
12.0
 74
     0
 49
-3.0
 74
     0
  0
LTYPE
  5
8B
330
5
100
AcDbSymbolTableRecord
100
AcDbLinetypeTableRecord
  2
ACAD_ISO03W100
 70
     0
  3
ISO dash space __    __    __    __    __    __
 72
    65
 73
     2
 40
30.0
 49
12.0
 74
     0
 49
-18.0
 74
     0
  0
LTYPE
  5
8C
330
5
100
AcDbSymbolTableRecord
100
AcDbLinetypeTableRecord
  2
ACAD_ISO04W100
 70
     0
  3
ISO long-dash dot ____ . ____ . ____ . ____ . _
 72
    65
 73
     4
 40
30.0
 49
24.0
 74
     0
 49
-3.0
 74
     0
 49
0.0
 74
     0
 49
-3.0
 74
     0
  0
LTYPE
  5
8D
330
5
100
AcDbSymbolTableRecord
100
AcDbLinetypeTableRecord
  2
ACAD_ISO05W100
 70
     0
  3
ISO long-dash double-dot ____ .. ____ .. ____ . 
 72
    65
 73
     6
 40
33.0
 49
24.0
 74
     0
 49
-3.0
 74
     0
 49
0.0
 74
     0
 49
-3.0
 74
     0
 49
0.0
 74
     0
 49
-3.0
 74
     0
  0
LTYPE
  5
8E
330
5
100
AcDbSymbolTableRecord
100
AcDbLinetypeTableRecord
  2
ACAD_ISO07W100
 70
     0
  3
ISO dot . . . . . . . . . . . . . . . . . . . . 
 72
    65
 73
     2
 40
3.0
 49
0.0
 74
     0
 49
-3.0
 74
     0
  0
LTYPE
  5
8F
330
5
100
AcDbSymbolTableRecord
100
AcDbLinetypeTableRecord
  2
ACAD_ISO08W100
 70
     0
  3
ISO long-dash short-dash ____ __ ____ __ ____ _
 72
    65
 73
     4
 40
36.0
 49
24.0
 74
     0
 49
-3.0
 74
     0
 49
6.0
 74
     0
 49
-3.0
 74
     0
  0
LTYPE
  5
90
330
5
100
AcDbSymbolTableRecord
100
AcDbLinetypeTableRecord
  2
ACAD_ISO09W100
 70
     0
  3
ISO long-dash double-short-dash ____ __ __ ____
 72
    65
 73
     6
 40
45.0
 49
24.0
 74
     0
 49
-3.0
 74
     0
 49
6.0
 74
     0
 49
-3.0
 74
     0
 49
6.0
 74
     0
 49
-3.0
 74
     0
  0
LTYPE
  5
91
330
5
100
AcDbSymbolTableRecord
100
AcDbLinetypeTableRecord
  2
ACAD_ISO10W100
 70
     0
  3
ISO dash dot __ . __ . __ . __ . __ . __ . __ . 
 72
    65
 73
     4
 40
18.0
 49
12.0
 74
     0
 49
-3.0
 74
     0
 49
0.0
 74
     0
 49
-3.0
 74
     0
  0
LTYPE
  5
92
330
5
100
AcDbSymbolTableRecord
100
AcDbLinetypeTableRecord
  2
ACAD_ISO11W100
 70
     0
  3
ISO double-dash dot __ __ . __ __ . __ __ . __ _
 72
    65
 73
     6
 40
33.0
 49
12.0
 74
     0
 49
-3.0
 74
     0
 49
12.0
 74
     0
 49
-3.0
 74
     0
 49
0.0
 74
     0
 49
-3.0
 74
     0
  0
LTYPE
  5
93
330
5
100
AcDbSymbolTableRecord
100
AcDbLinetypeTableRecord
  2
ACAD_ISO12W100
 70
     0
  3
ISO dash double-dot __ . . __ . . __ . . __ . . 
 72
    65
 73
     6
 40
21.0
 49
12.0
 74
     0
 49
-3.0
 74
     0
 49
0.0
 74
     0
 49
-3.0
 74
     0
 49
0.0
 74
     0
 49
-3.0
 74
     0
  0
LTYPE
  5
94
330
5
100
AcDbSymbolTableRecord
100
AcDbLinetypeTableRecord
  2
ACAD_ISO15W100
 70
     0
  3
ISO double-dash triple-dot __ __ . . . __ __ . .
 72
    65
 73
    10
 40
39.0
 49
12.0
 74
     0
 49
-3.0
 74
     0
 49
12.0
 74
     0
 49
-3.0
 74
     0
 49
0.0
 74
     0
 49
-3.0
 74
     0
 49
0.0
 74
     0
 49
-3.0
 74
     0
 49
0.0
 74
     0
 49
-3.0
 74
     0
  0
LTYPE
  5
95
330
5
100
AcDbSymbolTableRecord
100
AcDbLinetypeTableRecord
  2
JIS_02_0.7
 70
     0
  3
HIDDEN0.75 _ _ _ _ _ _ _ _ _ _ _ _ _ _ _ _ _ 
 72
    65
 73
     2
 40
1.35
 49
0.75
 74
     0
 49
-0.6
 74
     0
  0
LTYPE
  5
96
330
5
100
AcDbSymbolTableRecord
100
AcDbLinetypeTableRecord
  2
JIS_02_1.0
 70
     0
  3
HIDDEN01 _ _ _ _ _ _ _ _ _ _ _ _ _ _ _ _ _ 
 72
    65
 73
     2
 40
2.0
 49
1.0
 74
     0
 49
-1.0
 74
     0
  0
LTYPE
  5
97
330
5
100
AcDbSymbolTableRecord
100
AcDbLinetypeTableRecord
  2
JIS_02_1.2
 70
     0
  3
HIDDEN01.25  _ _ _ _ _ _ _ _ _ _ _ _ _ _ _ _ _ 
 72
    65
 73
     2
 40
2.5
 49
1.25
 74
     0
 49
-1.25
 74
     0
  0
LTYPE
  5
98
330
5
100
AcDbSymbolTableRecord
100
AcDbLinetypeTableRecord
  2
JIS_02_2.0
 70
     0
  3
HIDDEN02 __ __ __ __ __ __ __ __ __ __ __ 
 72
    65
 73
     2
 40
3.0
 49
2.0
 74
     0
 49
-1.0
 74
     0
  0
LTYPE
  5
99
330
5
100
AcDbSymbolTableRecord
100
AcDbLinetypeTableRecord
  2
JIS_02_4.0
 70
     0
  3
HIDDEN04 ____ ____ ____ ____ ____ ____ ____ 
 72
    65
 73
     2
 40
5.5
 49
4.0
 74
     0
 49
-1.5
 74
     0
  0
LTYPE
  5
9A
330
5
100
AcDbSymbolTableRecord
100
AcDbLinetypeTableRecord
  2
JIS_08_11
 70
     0
  3
1SASEN11 ___ _ ___ _ ___ _ ___ _ ___ _ ___
 72
    65
 73
     4
 40
12.8
 49
11.0
 74
     0
 49
-0.6
 74
     0
 49
0.6
 74
     0
 49
-0.6
 74
     0
  0
LTYPE
  5
9B
330
5
100
AcDbSymbolTableRecord
100
AcDbLinetypeTableRecord
  2
JIS_08_15
 70
     0
  3
1SASEN15 ____ _ ____ _ ____ _ ____ _ ____ 
 72
    65
 73
     4
 40
17.25
 49
15.0
 74
     0
 49
-0.75
 74
     0
 49
0.75
 74
     0
 49
-0.75
 74
     0
  0
LTYPE
  5
9C
330
5
100
AcDbSymbolTableRecord
100
AcDbLinetypeTableRecord
  2
JIS_08_25
 70
     0
  3
1SASEN25 ________  __  ________  __  _____
 72
    65
 73
     4
 40
28.0
 49
25.0
 74
     0
 49
-1.125
 74
     0
 49
0.75
 74
     0
 49
-1.125
 74
     0
  0
LTYPE
  5
9D
330
5
100
AcDbSymbolTableRecord
100
AcDbLinetypeTableRecord
  2
JIS_08_37
 70
     0
  3
1SASEN37 ________  __  ________  __  _____
 72
    65
 73
     4
 40
40.5
 49
37.5
 74
     0
 49
-1.125
 74
     0
 49
0.75
 74
     0
 49
-1.125
 74
     0
  0
LTYPE
  5
9E
330
5
100
AcDbSymbolTableRecord
100
AcDbLinetypeTableRecord
  2
JIS_08_50
 70
     0
  3
1SASEN50 _______________  __  ____________
 72
    65
 73
     4
 40
53.0
 49
50.0
 74
     0
 49
-1.125
 74
     0
 49
0.75
 74
     0
 49
-1.125
 74
     0
  0
LTYPE
  5
9F
330
5
100
AcDbSymbolTableRecord
100
AcDbLinetypeTableRecord
  2
JIS_09_08
 70
     0
  3
2SASEN8 __ _ _ __ _ _ __ _ _ __ _ _ __ _ _ 
 72
    65
 73
     6
 40
10.75
 49
8.0
 74
     0
 49
-0.55
 74
     0
 49
0.55
 74
     0
 49
-0.55
 74
     0
 49
0.55
 74
     0
 49
-0.55
 74
     0
  0
LTYPE
  5
A0
330
5
100
AcDbSymbolTableRecord
100
AcDbLinetypeTableRecord
  2
JIS_09_15
 70
     0
  3
2SASEN15 ___ _ _ ___ _ _ ___ _ _ ___ _ _ ___ 
 72
    65
 73
     6
 40
18.9
 49
15.0
 74
     0
 49
-0.9
 74
     0
 49
0.6
 74
     0
 49
-0.9
 74
     0
 49
0.6
 74
     0
 49
-0.9
 74
     0
  0
LTYPE
  5
A1
330
5
100
AcDbSymbolTableRecord
100
AcDbLinetypeTableRecord
  2
JIS_09_29
 70
     0
  3
2SASEN29 ______　__  __  ______　__  __  ___
 72
    65
 73
     6
 40
34.0
 49
29.0
 74
     0
 49
-1.2
 74
     0
 49
0.7
 74
     0
 49
-1.2
 74
     0
 49
0.7
 74
     0
 49
-1.2
 74
     0
  0
LTYPE
  5
A2
330
5
100
AcDbSymbolTableRecord
100
AcDbLinetypeTableRecord
  2
JIS_09_50
 70
     0
  3
2SASEN50 ____________　__  __  _____________
 72
    65
 73
     6
 40
55.0
 49
50.0
 74
     0
 49
-1.2
 74
     0
 49
0.7
 74
     0
 49
-1.2
 74
     0
 49
0.7
 74
     0
 49
-1.2
 74
     0
  0
LTYPE
  5
A3
330
5
100
AcDbSymbolTableRecord
100
AcDbLinetypeTableRecord
  2
SXF_破線
 70
     0
  3
02 dashed -- -- -- -- -- --
 72
    65
 73
     2
 40
7.5
 49
6.0
 74
     0
 49
-1.5
 74
     0
  0
LTYPE
  5
A4
330
5
100
AcDbSymbolTableRecord
100
AcDbLinetypeTableRecord
  2
SXF_跳び破線
 70
     0
  3
03 dashed_spaced --  --  --  --
 72
    65
 73
     2
 40
12.0
 49
6.0
 74
     0
 49
-6.0
 74
     0
  0
LTYPE
  5
A5
330
5
100
AcDbSymbolTableRecord
100
AcDbLinetypeTableRecord
  2
SXF_一点長鎖線
 70
     0
  3
04 long_dashed_dotted ---- . ---- . ----
 72
    65
 73
     4
 40
15.25
 49
12.0
 74
     0
 49
-1.5
 74
     0
 49
0.25
 74
     0
 49
-1.5
 74
     0
  0
LTYPE
  5
A6
330
5
100
AcDbSymbolTableRecord
100
AcDbLinetypeTableRecord
  2
SXF_二点長鎖線
 70
     0
  3
05 long_dashed_double-dotted ---- . . ---- 
 72
    65
 73
     6
 40
17.0
 49
12.0
 74
     0
 49
-1.5
 74
     0
 49
0.25
 74
     0
 49
-1.5
 74
     0
 49
0.25
 74
     0
 49
-1.5
 74
     0
  0
LTYPE
  5
A7
330
5
100
AcDbSymbolTableRecord
100
AcDbLinetypeTableRecord
  2
SXF_三点長鎖線
 70
     0
  3
06 long_dashed_triplicate-dotted ---- ... ---- 
 72
    65
 73
     8
 40
18.75
 49
12.0
 74
     0
 49
-1.5
 74
     0
 49
0.25
 74
     0
 49
-1.5
 74
     0
 49
0.25
 74
     0
 49
-1.5
 74
     0
 49
0.25
 74
     0
 49
-1.5
 74
     0
  0
LTYPE
  5
A8
330
5
100
AcDbSymbolTableRecord
100
AcDbLinetypeTableRecord
  2
SXF_点線
 70
     0
  3
07 dotted . . . . . . . . . . . . 
 72
    65
 73
     2
 40
1.75
 49
0.25
 74
     0
 49
-1.5
 74
     0
  0
LTYPE
  5
A9
330
5
100
AcDbSymbolTableRecord
100
AcDbLinetypeTableRecord
  2
SXF_一点鎖線
 70
     0
  3
08 chain ---- - --- - --- - ---
 72
    65
 73
     4
 40
18.5
 49
12.0
 74
     0
 49
-1.5
 74
     0
 49
3.5
 74
     0
 49
-1.5
 74
     0
  0
LTYPE
  5
AA
330
5
100
AcDbSymbolTableRecord
100
AcDbLinetypeTableRecord
  2
SXF_二点鎖線
 70
     0
  3
09 chain_double_dash ---- - - ---- - - ----
 72
    65
 73
     6
 40
23.5
 49
12.0
 74
     0
 49
-1.5
 74
     0
 49
3.5
 74
     0
 49
-1.5
 74
     0
 49
3.5
 74
     0
 49
-1.5
 74
     0
  0
LTYPE
  5
AB
330
5
100
AcDbSymbolTableRecord
100
AcDbLinetypeTableRecord
  2
SXF_一点短鎖線
 70
     0
  3
10 dashed_dotted -- . -- . -- . --
 72
    65
 73
     4
 40
9.25
 49
6.0
 74
     0
 49
-1.5
 74
     0
 49
0.25
 74
     0
 49
-1.5
 74
     0
  0
LTYPE
  5
AC
330
5
100
AcDbSymbolTableRecord
100
AcDbLinetypeTableRecord
  2
SXF_一点二短鎖線
 70
     0
  3
11 double-dashed_dotted -- -- . -- --
 72
    65
 73
     6
 40
16.75
 49
6.0
 74
     0
 49
-1.5
 74
     0
 49
6.0
 74
     0
 49
-1.5
 74
     0
 49
0.25
 74
     0
 49
-1.5
 74
     0
  0
LTYPE
  5
AD
330
5
100
AcDbSymbolTableRecord
100
AcDbLinetypeTableRecord
  2
SXF_二点短鎖線
 70
     0
  3
12 dashed_double_dotted -- . . -- . . --
 72
    65
 73
     6
 40
11.0
 49
6.0
 74
     0
 49
-1.5
 74
     0
 49
0.25
 74
     0
 49
-1.5
 74
     0
 49
0.25
 74
     0
 49
-1.5
 74
     0
  0
LTYPE
  5
AE
330
5
100
AcDbSymbolTableRecord
100
AcDbLinetypeTableRecord
  2
SXF_二点二短鎖線
 70
     0
  3
13 double-dashed_double-dotted -- -- . . -- --
 72
    65
 73
     8
 40
18.5
 49
6.0
 74
     0
 49
-1.5
 74
     0
 49
6.0
 74
     0
 49
-1.5
 74
     0
 49
0.25
 74
     0
 49
-1.5
 74
     0
 49
0.25
 74
     0
 49
-1.5
 74
     0
  0
LTYPE
  5
AF
330
5
100
AcDbSymbolTableRecord
100
AcDbLinetypeTableRecord
  2
SXF_三点短鎖線
 70
     0
  3
14 dashed triplicate-dotted -- . . . -- . . . --
 72
    65
 73
     8
 40
12.75
 49
6.0
 74
     0
 49
-1.5
 74
     0
 49
0.25
 74
     0
 49
-1.5
 74
     0
 49
0.25
 74
     0
 49
-1.5
 74
     0
 49
0.25
 74
     0
 49
-1.5
 74
     0
  0
LTYPE
  5
B0
330
5
100
AcDbSymbolTableRecord
100
AcDbLinetypeTableRecord
  2
SXF_三点二短鎖線
 70
     0
  3
15 double-dashed triplicate-dotted -- -- . . . -- -- 
 72
    65
 73
    10
 40
20.25
 49
6.0
 74
     0
 49
-1.5
 74
     0
 49
6.0
 74
     0
 49
-1.5
 74
     0
 49
0.25
 74
     0
 49
-1.5
 74
     0
 49
0.25
 74
     0
 49
-1.5
 74
     0
 49
0.25
 74
     0
 49
-1.5
 74
     0
  0
ENDTAB
  0
TABLE
  2
LAYER
  5
2
330
0
100
AcDbSymbolTable
 70
     1
  0
LAYER
  5
10
330
2
100
AcDbSymbolTableRecord
100
AcDbLayerTableRecord
  2
0
 70
     0
 62
     7
  6
Continuous
370
    -3
390
F
347
46
  0
ENDTAB
  0
TABLE
  2
STYLE
  5
3
330
0
100
AcDbSymbolTable
 70
     2
  0
STYLE
  5
11
330
3
100
AcDbSymbolTableRecord
100
AcDbTextStyleTableRecord
  2
Standard
 70
     0
 40
0.0
 41
1.0
 50
0.0
 71
     0
 42
0.2
  3
txt.shx
  4
bigfont.shx
  0
STYLE
  5
3C9
330
3
100
AcDbSymbolTableRecord
100
AcDbTextStyleTableRecord
  2
dcStyle0
 70
     0
 40
0.0
 41
0.8
 50
0.0
 71
     0
 42
0.2
  3
ＭＳ ゴシック
  4

1001
ACAD
1000
ＭＳ ゴシック
1071
    32802
  0
ENDTAB
  0
TABLE
  2
VIEW
  5
6
330
0
100
AcDbSymbolTable
 70
     0
  0
ENDTAB
  0
TABLE
  2
UCS
  5
7
330
0
100
AcDbSymbolTable
 70
     0
  0
ENDTAB
  0
TABLE
  2
APPID
  5
9
330
0
100
AcDbSymbolTable
 70
     2
  0
APPID
  5
12
330
9
100
AcDbSymbolTableRecord
100
AcDbRegAppTableRecord
  2
ACAD
 70
     0
  0
APPID
  5
6E
330
9
100
AcDbSymbolTableRecord
100
AcDbRegAppTableRecord
  2
DaFusionOut
 70
     0
  0
ENDTAB
  0
TABLE
  2
DIMSTYLE
  5
A
330
0
100
AcDbSymbolTable
 70
     1
100
AcDbDimStyleTable
  0
DIMSTYLE
105
27
330
A
100
AcDbSymbolTableRecord
100
AcDbDimStyleTableRecord
  2
Standard
 70
     0
178
     0
340
11
  0
ENDTAB
  0
TABLE
  2
BLOCK_RECORD
  5
1
330
0
100
AcDbSymbolTable
 70
    42
  0
BLOCK_RECORD
  5
1F
330
1
100
AcDbSymbolTableRecord
100
AcDbBlockTableRecord
  2
*Model_Space
340
22
 70
     0
280
     1
281
     0
  0
BLOCK_RECORD
  5
1B
330
1
100
AcDbSymbolTableRecord
100
AcDbBlockTableRecord
  2
*Paper_Space
340
1E
 70
     0
280
     1
281
     0
  0
BLOCK_RECORD
  5
23
330
1
100
AcDbSymbolTableRecord
100
AcDbBlockTableRecord
  2
*Paper_Space0
340
26
 70
     0
280
     1
281
     0
  0
BLOCK_RECORD
  5
B2
330
1
100
AcDbSymbolTableRecord
100
AcDbBlockTableRecord
  2
DC_GROUP_ESB-165標準_1
340
0
102
{BLKREFS
331
3D8
102
}
 70
     0
280
     1
281
     0
  0
BLOCK_RECORD
  5
B5
330
1
100
AcDbSymbolTableRecord
100
AcDbBlockTableRecord
  2
DC_GROUP_ESB-165標準_2
340
0
102
{BLKREFS
331
3D9
102
}
 70
     0
280
     1
281
     0
  0
BLOCK_RECORD
  5
B8
330
1
100
AcDbSymbolTableRecord
100
AcDbBlockTableRecord
  2
DC_GROUP_ESB-165標準_3
340
0
102
{BLKREFS
331
3DA
102
}
 70
     0
280
     1
281
     0
  0
BLOCK_RECORD
  5
BB
330
1
100
AcDbSymbolTableRecord
100
AcDbBlockTableRecord
  2
DC_GROUP_ESB-165標準_4
340
0
102
{BLKREFS
331
3DB
102
}
 70
     0
280
     1
281
     0
  0
BLOCK_RECORD
  5
BE
330
1
100
AcDbSymbolTableRecord
100
AcDbBlockTableRecord
  2
DC_GROUP_ESB-165標準_5
340
0
102
{BLKREFS
331
3DC
102
}
 70
     0
280
     1
281
     0
  0
BLOCK_RECORD
  5
C1
330
1
100
AcDbSymbolTableRecord
100
AcDbBlockTableRecord
  2
DC_GROUP_ESB-165標準_6
340
0
102
{BLKREFS
331
3DD
102
}
 70
     0
280
     1
281
     0
  0
BLOCK_RECORD
  5
C4
330
1
100
AcDbSymbolTableRecord
100
AcDbBlockTableRecord
  2
DC_GROUP_ESB-165標準_7
340
0
102
{BLKREFS
331
3DE
102
}
 70
     0
280
     1
281
     0
  0
BLOCK_RECORD
  5
C7
330
1
100
AcDbSymbolTableRecord
100
AcDbBlockTableRecord
  2
DC_GROUP_ESB-165標準_8
340
0
102
{BLKREFS
331
3DF
102
}
 70
     0
280
     1
281
     0
  0
BLOCK_RECORD
  5
CA
330
1
100
AcDbSymbolTableRecord
100
AcDbBlockTableRecord
  2
DC_GROUP_ESB-165標準_9
340
0
102
{BLKREFS
331
3E0
102
}
 70
     0
280
     1
281
     0
  0
BLOCK_RECORD
  5
CD
330
1
100
AcDbSymbolTableRecord
100
AcDbBlockTableRecord
  2
DC_GROUP_ESB-165標準_10
340
0
102
{BLKREFS
331
3E1
102
}
 70
     0
280
     1
281
     0
  0
BLOCK_RECORD
  5
D0
330
1
100
AcDbSymbolTableRecord
100
AcDbBlockTableRecord
  2
DC_GROUP_ESB-165標準_11
340
0
102
{BLKREFS
331
3E2
102
}
 70
     0
280
     1
281
     0
  0
BLOCK_RECORD
  5
D3
330
1
100
AcDbSymbolTableRecord
100
AcDbBlockTableRecord
  2
DC_GROUP_ESB-165標準_12
340
0
102
{BLKREFS
331
3E3
102
}
 70
     0
280
     1
281
     0
  0
BLOCK_RECORD
  5
D6
330
1
100
AcDbSymbolTableRecord
100
AcDbBlockTableRecord
  2
DC_GROUP_ESB-165標準_13
340
0
102
{BLKREFS
331
3E4
102
}
 70
     0
280
     1
281
     0
  0
BLOCK_RECORD
  5
D9
330
1
100
AcDbSymbolTableRecord
100
AcDbBlockTableRecord
  2
DC_GROUP_ESB-165標準_14
340
0
102
{BLKREFS
331
3E5
102
}
 70
     0
280
     1
281
     0
  0
BLOCK_RECORD
  5
DC
330
1
100
AcDbSymbolTableRecord
100
AcDbBlockTableRecord
  2
DC_GROUP_ESB-165標準_15
340
0
102
{BLKREFS
331
3E6
102
}
 70
     0
280
     1
281
     0
  0
BLOCK_RECORD
  5
DF
330
1
100
AcDbSymbolTableRecord
100
AcDbBlockTableRecord
  2
DC_GROUP_ESB-165標準_16
340
0
102
{BLKREFS
331
3E7
102
}
 70
     0
280
     1
281
     0
  0
BLOCK_RECORD
  5
E2
330
1
100
AcDbSymbolTableRecord
100
AcDbBlockTableRecord
  2
DC_GROUP_ESB-165標準_17
340
0
102
{BLKREFS
331
3E8
102
}
 70
     0
280
     1
281
     0
  0
BLOCK_RECORD
  5
E5
330
1
100
AcDbSymbolTableRecord
100
AcDbBlockTableRecord
  2
DC_GROUP_ESB-165標準_18
340
0
102
{BLKREFS
331
3E9
102
}
 70
     0
280
     1
281
     0
  0
BLOCK_RECORD
  5
E8
330
1
100
AcDbSymbolTableRecord
100
AcDbBlockTableRecord
  2
DC_GROUP_ESB-165標準_19
340
0
102
{BLKREFS
331
3EA
102
}
 70
     0
280
     1
281
     0
  0
BLOCK_RECORD
  5
EB
330
1
100
AcDbSymbolTableRecord
100
AcDbBlockTableRecord
  2
DC_GROUP_ESB-165標準_20
340
0
102
{BLKREFS
331
3EB
102
}
 70
     0
280
     1
281
     0
  0
BLOCK_RECORD
  5
EE
330
1
100
AcDbSymbolTableRecord
100
AcDbBlockTableRecord
  2
DC_GROUP_ESB-165標準_21
340
0
102
{BLKREFS
331
3EC
102
}
 70
     0
280
     1
281
     0
  0
BLOCK_RECORD
  5
F1
330
1
100
AcDbSymbolTableRecord
100
AcDbBlockTableRecord
  2
DC_GROUP_ESB-165標準_22
340
0
102
{BLKREFS
331
3ED
102
}
 70
     0
280
     1
281
     0
  0
BLOCK_RECORD
  5
F4
330
1
100
AcDbSymbolTableRecord
100
AcDbBlockTableRecord
  2
DC_GROUP_ESB-165標準_23
340
0
102
{BLKREFS
331
3EE
102
}
 70
     0
280
     1
281
     0
  0
BLOCK_RECORD
  5
F7
330
1
100
AcDbSymbolTableRecord
100
AcDbBlockTableRecord
  2
DC_GROUP_ESB-165標準_24
340
0
102
{BLKREFS
331
3EF
102
}
 70
     0
280
     1
281
     0
  0
BLOCK_RECORD
  5
FA
330
1
100
AcDbSymbolTableRecord
100
AcDbBlockTableRecord
  2
DC_GROUP_ESB-165標準_25
340
0
102
{BLKREFS
331
3F0
102
}
 70
     0
280
     1
281
     0
  0
BLOCK_RECORD
  5
FD
330
1
100
AcDbSymbolTableRecord
100
AcDbBlockTableRecord
  2
DC_GROUP_ESB-165標準_26
340
0
102
{BLKREFS
331
3F1
102
}
 70
     0
280
     1
281
     0
  0
BLOCK_RECORD
  5
100
330
1
100
AcDbSymbolTableRecord
100
AcDbBlockTableRecord
  2
DC_GROUP_ESB-165標準_27
340
0
102
{BLKREFS
331
3F2
102
}
 70
     0
280
     1
281
     0
  0
BLOCK_RECORD
  5
103
330
1
100
AcDbSymbolTableRecord
100
AcDbBlockTableRecord
  2
DC_GROUP_ESB-165標準_28
340
0
102
{BLKREFS
331
3F3
102
}
 70
     0
280
     1
281
     0
  0
BLOCK_RECORD
  5
106
330
1
100
AcDbSymbolTableRecord
100
AcDbBlockTableRecord
  2
DC_GROUP_ESB-165標準_29
340
0
102
{BLKREFS
331
3F4
102
}
 70
     0
280
     1
281
     0
  0
BLOCK_RECORD
  5
109
330
1
100
AcDbSymbolTableRecord
100
AcDbBlockTableRecord
  2
DC_GROUP_ESB-165標準_30
340
0
102
{BLKREFS
331
3F5
102
}
 70
     0
280
     1
281
     0
  0
BLOCK_RECORD
  5
10C
330
1
100
AcDbSymbolTableRecord
100
AcDbBlockTableRecord
  2
DC_GROUP_ESB-165標準_31
340
0
102
{BLKREFS
331
3F6
102
}
 70
     0
280
     1
281
     0
  0
BLOCK_RECORD
  5
10F
330
1
100
AcDbSymbolTableRecord
100
AcDbBlockTableRecord
  2
DC_GROUP_ESB-165標準_32
340
0
102
{BLKREFS
331
3F7
102
}
 70
     0
280
     1
281
     0
  0
BLOCK_RECORD
  5
112
330
1
100
AcDbSymbolTableRecord
100
AcDbBlockTableRecord
  2
DC_GROUP_ESB-165標準_33
340
0
102
{BLKREFS
331
3F8
102
}
 70
     0
280
     1
281
     0
  0
BLOCK_RECORD
  5
115
330
1
100
AcDbSymbolTableRecord
100
AcDbBlockTableRecord
  2
DC_GROUP_ESB-165標準_34
340
0
102
{BLKREFS
331
3F9
102
}
 70
     0
280
     1
281
     0
  0
BLOCK_RECORD
  5
118
330
1
100
AcDbSymbolTableRecord
100
AcDbBlockTableRecord
  2
DC_GROUP_ESB-165標準_35
340
0
102
{BLKREFS
331
3FA
102
}
 70
     0
280
     1
281
     0
  0
BLOCK_RECORD
  5
11B
330
1
100
AcDbSymbolTableRecord
100
AcDbBlockTableRecord
  2
DC_GROUP_ESB-165標準_36
340
0
102
{BLKREFS
331
3FB
102
}
 70
     0
280
     1
281
     0
  0
BLOCK_RECORD
  5
11E
330
1
100
AcDbSymbolTableRecord
100
AcDbBlockTableRecord
  2
DC_GROUP_ESB-165標準_37
340
0
102
{BLKREFS
331
3FC
102
}
 70
     0
280
     1
281
     0
  0
BLOCK_RECORD
  5
121
330
1
100
AcDbSymbolTableRecord
100
AcDbBlockTableRecord
  2
DC_GROUP_ESB-165標準_38
340
0
102
{BLKREFS
331
3FD
102
}
 70
     0
280
     1
281
     0
  0
BLOCK_RECORD
  5
124
330
1
100
AcDbSymbolTableRecord
100
AcDbBlockTableRecord
  2
DC_GROUP_ESB-165標準_39
340
0
102
{BLKREFS
331
3FE
102
}
 70
     0
280
     1
281
     0
  0
BLOCK_RECORD
  5
127
330
1
100
AcDbSymbolTableRecord
100
AcDbBlockTableRecord
  2
DC_GROUP_ESB-165標準_40
340
0
102
{BLKREFS
331
3FF
102
}
 70
     0
280
     1
281
     0
  0
BLOCK_RECORD
  5
12A
330
1
100
AcDbSymbolTableRecord
100
AcDbBlockTableRecord
  2
DC_GROUP_ESB-165標準_41
340
0
102
{BLKREFS
331
400
102
}
 70
     0
280
     1
281
     0
  0
ENDTAB
  0
ENDSEC
  0
SECTION
  2
BLOCKS
  0
BLOCK
  5
20
330
1F
100
AcDbEntity
  8
0
100
AcDbBlockBegin
  2
*Model_Space
 70
     0
 10
0.0
 20
0.0
 30
0.0
  3
*Model_Space
  1

  0
ENDBLK
  5
21
330
1F
100
AcDbEntity
  8
0
100
AcDbBlockEnd
  0
BLOCK
  5
1C
330
1B
100
AcDbEntity
 67
     1
  8
0
100
AcDbBlockBegin
  2
*Paper_Space
 70
     0
 10
0.0
 20
0.0
 30
0.0
  3
*Paper_Space
  1

  0
ENDBLK
  5
1D
330
1B
100
AcDbEntity
 67
     1
  8
0
100
AcDbBlockEnd
  0
BLOCK
  5
24
330
23
100
AcDbEntity
  8
0
100
AcDbBlockBegin
  2
*Paper_Space0
 70
     0
 10
0.0
 20
0.0
 30
0.0
  3
*Paper_Space0
  1

  0
ENDBLK
  5
25
330
23
100
AcDbEntity
  8
0
100
AcDbBlockEnd
  0
BLOCK
  5
B3
330
B2
100
AcDbEntity
  8
0
100
AcDbBlockBegin
  2
DC_GROUP_ESB-165標準_1
 70
     0
 10
0.0
 20
0.0
 30
0.0
  3
DC_GROUP_ESB-165標準_1
  1

  0
LINE
  5
12D
330
B2
100
AcDbEntity
  8
0
  6
Continuous
 62
    91
370
    18
100
AcDbLine
 10
-254.9204353443691
 20
20.66246931182664
 30
0.0
 11
-254.9204353443691
 21
17.77571931182666
 31
0.0
  0
LINE
  5
12E
330
B2
100
AcDbEntity
  8
0
  6
Continuous
 62
    91
370
    18
100
AcDbLine
 10
-254.9204353443691
 20
17.77571931182666
 30
0.0
 11
-252.4204365099943
 21
16.33234431182669
 31
0.0
  0
LINE
  5
12F
330
B2
100
AcDbEntity
  8
0
  6
Continuous
 62
    91
370
    18
100
AcDbLine
 10
-252.4204365099943
 20
16.33234431182669
 30
0.0
 11
-249.9204376756196
 21
17.77571931182663
 31
0.0
  0
LINE
  5
130
330
B2
100
AcDbEntity
  8
0
  6
Continuous
 62
    91
370
    18
100
AcDbLine
 10
-249.9204376756196
 20
17.77571931182663
 30
0.0
 11
-249.9204376756196
 21
20.66246931182667
 31
0.0
  0
LINE
  5
131
330
B2
100
AcDbEntity
  8
0
  6
Continuous
 62
    91
370
    18
100
AcDbLine
 10
-249.9204376756196
 20
20.66246931182667
 30
0.0
 11
-252.4204365099943
 21
22.10584431182664
 31
0.0
  0
LINE
  5
132
330
B2
100
AcDbEntity
  8
0
  6
Continuous
 62
    91
370
    18
100
AcDbLine
 10
-252.4204365099943
 20
22.10584431182664
 30
0.0
 11
-254.9204353443691
 21
20.66246931182664
 31
0.0
  0
CIRCLE
  5
133
330
B2
100
AcDbEntity
  8
0
  6
Continuous
 62
    91
370
    18
100
AcDbCircle
 10
-252.4204365099943
 20
19.21909431182664
 30
0.0
 40
5.0
  0
CIRCLE
  5
134
330
B2
100
AcDbEntity
  8
0
  6
Continuous
 62
    91
370
    18
100
AcDbCircle
 10
-252.4204365099943
 20
19.21909431182664
 30
0.0
 40
4.307179353944747
  0
ENDBLK
  5
B4
330
B2
100
AcDbEntity
  8
0
100
AcDbBlockEnd
  0
BLOCK
  5
B6
330
B5
100
AcDbEntity
  8
0
100
AcDbBlockBegin
  2
DC_GROUP_ESB-165標準_2
 70
     0
 10
0.0
 20
0.0
 30
0.0
  3
DC_GROUP_ESB-165標準_2
  1

  0
LINE
  5
135
330
B5
100
AcDbEntity
  8
0
  6
Continuous
 62
    91
370
    18
100
AcDbLine
 10
-265.3552812261614
 20
-18.28090568817333
 30
0.0
 11
-263.9119062261615
 21
-20.78090452254806
 31
0.0
  0
LINE
  5
136
330
B5
100
AcDbEntity
  8
0
  6
Continuous
 62
    91
370
    18
100
AcDbLine
 10
-263.9119062261615
 20
-20.78090452254806
 30
0.0
 11
-261.0251562261616
 21
-20.78090452254806
 31
0.0
  0
LINE
  5
137
330
B5
100
AcDbEntity
  8
0
  6
Continuous
 62
    91
370
    18
100
AcDbLine
 10
-261.0251562261616
 20
-20.78090452254806
 30
0.0
 11
-259.5817812261614
 21
-18.28090568817331
 31
0.0
  0
LINE
  5
138
330
B5
100
AcDbEntity
  8
0
  6
Continuous
 62
    91
370
    18
100
AcDbLine
 10
-259.5817812261614
 20
-18.28090568817331
 30
0.0
 11
-261.0251562261616
 21
-15.78090685379863
 31
0.0
  0
LINE
  5
139
330
B5
100
AcDbEntity
  8
0
  6
Continuous
 62
    91
370
    18
100
AcDbLine
 10
-261.0251562261616
 20
-15.78090685379863
 30
0.0
 11
-263.9119062261615
 21
-15.78090685379858
 31
0.0
  0
LINE
  5
13A
330
B5
100
AcDbEntity
  8
0
  6
Continuous
 62
    91
370
    18
100
AcDbLine
 10
-263.9119062261615
 20
-15.78090685379858
 30
0.0
 11
-265.3552812261614
 21
-18.28090568817333
 31
0.0
  0
CIRCLE
  5
13B
330
B5
100
AcDbEntity
  8
0
  6
Continuous
 62
    91
370
    18
100
AcDbCircle
 10
-262.4685312261615
 20
-18.28090568817335
 30
0.0
 40
5.0
  0
CIRCLE
  5
13C
330
B5
100
AcDbEntity
  8
0
  6
Continuous
 62
    91
370
    18
100
AcDbCircle
 10
-262.4685312261615
 20
-18.28090568817335
 30
0.0
 40
4.307179353944747
  0
ENDBLK
  5
B7
330
B5
100
AcDbEntity
  8
0
100
AcDbBlockEnd
  0
BLOCK
  5
B9
330
B8
100
AcDbEntity
  8
0
100
AcDbBlockBegin
  2
DC_GROUP_ESB-165標準_3
 70
     0
 10
0.0
 20
0.0
 30
0.0
  3
DC_GROUP_ESB-165標準_3
  1

  0
LINE
  5
13D
330
B8
100
AcDbEntity
  8
0
  6
Continuous
 62
    91
370
    18
100
AcDbLine
 10
-254.9204353443691
 20
-57.22428068817332
 30
0.0
 11
-252.4204365099945
 21
-58.66765568817334
 31
0.0
  0
LINE
  5
13E
330
B8
100
AcDbEntity
  8
0
  6
Continuous
 62
    91
370
    18
100
AcDbLine
 10
-252.4204365099945
 20
-58.66765568817334
 30
0.0
 11
-249.9204376756196
 21
-57.22428068817332
 31
0.0
  0
LINE
  5
13F
330
B8
100
AcDbEntity
  8
0
  6
Continuous
 62
    91
370
    18
100
AcDbLine
 10
-249.9204376756196
 20
-57.22428068817332
 30
0.0
 11
-249.9204376756196
 21
-54.33753068817332
 31
0.0
  0
LINE
  5
140
330
B8
100
AcDbEntity
  8
0
  6
Continuous
 62
    91
370
    18
100
AcDbLine
 10
-249.9204376756196
 20
-54.33753068817332
 30
0.0
 11
-252.4204365099945
 21
-52.89415568817333
 31
0.0
  0
LINE
  5
141
330
B8
100
AcDbEntity
  8
0
  6
Continuous
 62
    91
370
    18
100
AcDbLine
 10
-252.4204365099945
 20
-52.89415568817333
 30
0.0
 11
-254.9204353443691
 21
-54.33753068817332
 31
0.0
  0
LINE
  5
142
330
B8
100
AcDbEntity
  8
0
  6
Continuous
 62
    91
370
    18
100
AcDbLine
 10
-254.9204353443691
 20
-54.33753068817332
 30
0.0
 11
-254.9204353443691
 21
-57.22428068817332
 31
0.0
  0
CIRCLE
  5
143
330
B8
100
AcDbEntity
  8
0
  6
Continuous
 62
    91
370
    18
100
AcDbCircle
 10
-252.4204365099945
 20
-55.78090568817333
 30
0.0
 40
5.0
  0
CIRCLE
  5
144
330
B8
100
AcDbEntity
  8
0
  6
Continuous
 62
    91
370
    18
100
AcDbCircle
 10
-252.4204365099945
 20
-55.78090568817333
 30
0.0
 40
4.307179353944747
  0
ENDBLK
  5
BA
330
B8
100
AcDbEntity
  8
0
100
AcDbBlockEnd
  0
BLOCK
  5
BC
330
BB
100
AcDbEntity
  8
0
100
AcDbBlockBegin
  2
DC_GROUP_ESB-165標準_4
 70
     0
 10
0.0
 20
0.0
 30
0.0
  3
DC_GROUP_ESB-165標準_4
  1

  0
LINE
  5
145
330
BB
100
AcDbEntity
  8
0
  6
Continuous
 62
    91
370
    18
100
AcDbLine
 10
-226.4119062261614
 20
-85.73280980638093
 30
0.0
 11
-223.5251562261616
 21
-85.73280980638094
 31
0.0
  0
LINE
  5
146
330
BB
100
AcDbEntity
  8
0
  6
Continuous
 62
    91
370
    18
100
AcDbLine
 10
-223.5251562261616
 20
-85.73280980638094
 30
0.0
 11
-222.0817812261614
 21
-83.23281097200622
 31
0.0
  0
LINE
  5
147
330
BB
100
AcDbEntity
  8
0
  6
Continuous
 62
    91
370
    18
100
AcDbLine
 10
-222.0817812261614
 20
-83.23281097200622
 30
0.0
 11
-223.5251562261616
 21
-80.73281213763153
 31
0.0
  0
LINE
  5
148
330
BB
100
AcDbEntity
  8
0
  6
Continuous
 62
    91
370
    18
100
AcDbLine
 10
-223.5251562261616
 20
-80.73281213763153
 30
0.0
 11
-226.4119062261615
 21
-80.7328121376315
 31
0.0
  0
LINE
  5
149
330
BB
100
AcDbEntity
  8
0
  6
Continuous
 62
    91
370
    18
100
AcDbLine
 10
-226.4119062261615
 20
-80.7328121376315
 30
0.0
 11
-227.8552812261615
 21
-83.2328109720062
 31
0.0
  0
LINE
  5
14A
330
BB
100
AcDbEntity
  8
0
  6
Continuous
 62
    91
370
    18
100
AcDbLine
 10
-227.8552812261615
 20
-83.2328109720062
 30
0.0
 11
-226.4119062261614
 21
-85.73280980638093
 31
0.0
  0
CIRCLE
  5
14B
330
BB
100
AcDbEntity
  8
0
  6
Continuous
 62
    91
370
    18
100
AcDbCircle
 10
-224.9685312261614
 20
-83.23281097200622
 30
0.0
 40
5.0
  0
CIRCLE
  5
14C
330
BB
100
AcDbEntity
  8
0
  6
Continuous
 62
    91
370
    18
100
AcDbCircle
 10
-224.9685312261614
 20
-83.23281097200622
 30
0.0
 40
4.307179353944747
  0
ENDBLK
  5
BD
330
BB
100
AcDbEntity
  8
0
100
AcDbBlockEnd
  0
BLOCK
  5
BF
330
BE
100
AcDbEntity
  8
0
100
AcDbBlockBegin
  2
DC_GROUP_ESB-165標準_5
 70
     0
 10
0.0
 20
0.0
 30
0.0
  3
DC_GROUP_ESB-165標準_5
  1

  0
LINE
  5
14D
330
BE
100
AcDbEntity
  8
0
  6
Continuous
 62
    91
370
    18
100
AcDbLine
 10
-187.4685312261614
 20
-96.16765568817333
 30
0.0
 11
-184.9685323917869
 21
-94.72428068817337
 31
0.0
  0
LINE
  5
14E
330
BE
100
AcDbEntity
  8
0
  6
Continuous
 62
    91
370
    18
100
AcDbLine
 10
-184.9685323917869
 20
-94.72428068817337
 30
0.0
 11
-184.9685323917869
 21
-91.83753068817336
 31
0.0
  0
LINE
  5
14F
330
BE
100
AcDbEntity
  8
0
  6
Continuous
 62
    91
370
    18
100
AcDbLine
 10
-184.9685323917869
 20
-91.83753068817336
 30
0.0
 11
-187.4685312261616
 21
-90.39415568817333
 31
0.0
  0
LINE
  5
150
330
BE
100
AcDbEntity
  8
0
  6
Continuous
 62
    91
370
    18
100
AcDbLine
 10
-187.4685312261616
 20
-90.39415568817333
 30
0.0
 11
-189.9685300605362
 21
-91.83753068817335
 31
0.0
  0
LINE
  5
151
330
BE
100
AcDbEntity
  8
0
  6
Continuous
 62
    91
370
    18
100
AcDbLine
 10
-189.9685300605362
 20
-91.83753068817335
 30
0.0
 11
-189.9685300605364
 21
-94.72428068817334
 31
0.0
  0
LINE
  5
152
330
BE
100
AcDbEntity
  8
0
  6
Continuous
 62
    91
370
    18
100
AcDbLine
 10
-189.9685300605364
 20
-94.72428068817334
 30
0.0
 11
-187.4685312261614
 21
-96.16765568817333
 31
0.0
  0
CIRCLE
  5
153
330
BE
100
AcDbEntity
  8
0
  6
Continuous
 62
    91
370
    18
100
AcDbCircle
 10
-187.4685312261616
 20
-93.28090568817335
 30
0.0
 40
5.0
  0
CIRCLE
  5
154
330
BE
100
AcDbEntity
  8
0
  6
Continuous
 62
    91
370
    18
100
AcDbCircle
 10
-187.4685312261616
 20
-93.28090568817335
 30
0.0
 40
4.307179353944747
  0
ENDBLK
  5
C0
330
BE
100
AcDbEntity
  8
0
100
AcDbBlockEnd
  0
BLOCK
  5
C2
330
C1
100
AcDbEntity
  8
0
100
AcDbBlockBegin
  2
DC_GROUP_ESB-165標準_6
 70
     0
 10
0.0
 20
0.0
 30
0.0
  3
DC_GROUP_ESB-165標準_6
  1

  0
LINE
  5
155
330
C1
100
AcDbEntity
  8
0
  6
Continuous
 62
    91
370
    18
100
AcDbLine
 10
-120.0166271079539
 20
-57.22428068817337
 30
0.0
 11
-120.0166271079539
 21
-54.33753068817335
 31
0.0
  0
LINE
  5
156
330
C1
100
AcDbEntity
  8
0
  6
Continuous
 62
    91
370
    18
100
AcDbLine
 10
-120.0166271079539
 20
-54.33753068817335
 30
0.0
 11
-122.5166259423286
 21
-52.89415568817336
 31
0.0
  0
LINE
  5
157
330
C1
100
AcDbEntity
  8
0
  6
Continuous
 62
    91
370
    18
100
AcDbLine
 10
-122.5166259423286
 20
-52.89415568817336
 30
0.0
 11
-125.0166247767034
 21
-54.33753068817334
 31
0.0
  0
LINE
  5
158
330
C1
100
AcDbEntity
  8
0
  6
Continuous
 62
    91
370
    18
100
AcDbLine
 10
-125.0166247767034
 20
-54.33753068817334
 30
0.0
 11
-125.0166247767034
 21
-57.22428068817335
 31
0.0
  0
LINE
  5
159
330
C1
100
AcDbEntity
  8
0
  6
Continuous
 62
    91
370
    18
100
AcDbLine
 10
-125.0166247767034
 20
-57.22428068817335
 30
0.0
 11
-122.5166259423286
 21
-58.66765568817335
 31
0.0
  0
LINE
  5
15A
330
C1
100
AcDbEntity
  8
0
  6
Continuous
 62
    91
370
    18
100
AcDbLine
 10
-122.5166259423286
 20
-58.66765568817335
 30
0.0
 11
-120.0166271079539
 21
-57.22428068817337
 31
0.0
  0
CIRCLE
  5
15B
330
C1
100
AcDbEntity
  8
0
  6
Continuous
 62
    91
370
    18
100
AcDbCircle
 10
-122.5166259423286
 20
-55.78090568817336
 30
0.0
 40
5.0
  0
CIRCLE
  5
15C
330
C1
100
AcDbEntity
  8
0
  6
Continuous
 62
    91
370
    18
100
AcDbCircle
 10
-122.5166259423286
 20
-55.78090568817336
 30
0.0
 40
4.307179353944747
  0
ENDBLK
  5
C3
330
C1
100
AcDbEntity
  8
0
100
AcDbBlockEnd
  0
BLOCK
  5
C5
330
C4
100
AcDbEntity
  8
0
100
AcDbBlockBegin
  2
DC_GROUP_ESB-165標準_7
 70
     0
 10
0.0
 20
0.0
 30
0.0
  3
DC_GROUP_ESB-165標準_7
  1

  0
LINE
  5
15D
330
C4
100
AcDbEntity
  8
0
  6
Continuous
 62
    91
370
    18
100
AcDbLine
 10
-109.5817812261615
 20
-18.28090568817338
 30
0.0
 11
-111.0251562261615
 21
-15.78090685379863
 31
0.0
  0
LINE
  5
15E
330
C4
100
AcDbEntity
  8
0
  6
Continuous
 62
    91
370
    18
100
AcDbLine
 10
-111.0251562261615
 20
-15.78090685379863
 30
0.0
 11
-113.9119062261615
 21
-15.78090685379863
 31
0.0
  0
LINE
  5
15F
330
C4
100
AcDbEntity
  8
0
  6
Continuous
 62
    91
370
    18
100
AcDbLine
 10
-113.9119062261615
 20
-15.78090685379863
 30
0.0
 11
-115.3552812261615
 21
-18.28090568817336
 31
0.0
  0
LINE
  5
160
330
C4
100
AcDbEntity
  8
0
  6
Continuous
 62
    91
370
    18
100
AcDbLine
 10
-115.3552812261615
 20
-18.28090568817336
 30
0.0
 11
-113.9119062261615
 21
-20.78090452254806
 31
0.0
  0
LINE
  5
161
330
C4
100
AcDbEntity
  8
0
  6
Continuous
 62
    91
370
    18
100
AcDbLine
 10
-113.9119062261615
 20
-20.78090452254806
 30
0.0
 11
-111.0251562261615
 21
-20.78090452254811
 31
0.0
  0
LINE
  5
162
330
C4
100
AcDbEntity
  8
0
  6
Continuous
 62
    91
370
    18
100
AcDbLine
 10
-111.0251562261615
 20
-20.78090452254811
 30
0.0
 11
-109.5817812261615
 21
-18.28090568817338
 31
0.0
  0
CIRCLE
  5
163
330
C4
100
AcDbEntity
  8
0
  6
Continuous
 62
    91
370
    18
100
AcDbCircle
 10
-112.4685312261614
 20
-18.28090568817336
 30
0.0
 40
5.0
  0
CIRCLE
  5
164
330
C4
100
AcDbEntity
  8
0
  6
Continuous
 62
    91
370
    18
100
AcDbCircle
 10
-112.4685312261614
 20
-18.28090568817336
 30
0.0
 40
4.307179353944747
  0
ENDBLK
  5
C6
330
C4
100
AcDbEntity
  8
0
100
AcDbBlockEnd
  0
BLOCK
  5
C8
330
C7
100
AcDbEntity
  8
0
100
AcDbBlockBegin
  2
DC_GROUP_ESB-165標準_8
 70
     0
 10
0.0
 20
0.0
 30
0.0
  3
DC_GROUP_ESB-165標準_8
  1

  0
LINE
  5
165
330
C7
100
AcDbEntity
  8
0
  6
Continuous
 62
    91
370
    18
100
AcDbLine
 10
-120.0166271079539
 20
20.66246931182664
 30
0.0
 11
-122.5166259423286
 21
22.10584431182662
 31
0.0
  0
LINE
  5
166
330
C7
100
AcDbEntity
  8
0
  6
Continuous
 62
    91
370
    18
100
AcDbLine
 10
-122.5166259423286
 20
22.10584431182662
 30
0.0
 11
-125.0166247767034
 21
20.66246931182663
 31
0.0
  0
LINE
  5
167
330
C7
100
AcDbEntity
  8
0
  6
Continuous
 62
    91
370
    18
100
AcDbLine
 10
-125.0166247767034
 20
20.66246931182663
 30
0.0
 11
-125.0166247767033
 21
17.77571931182663
 31
0.0
  0
LINE
  5
168
330
C7
100
AcDbEntity
  8
0
  6
Continuous
 62
    91
370
    18
100
AcDbLine
 10
-125.0166247767033
 20
17.77571931182663
 30
0.0
 11
-122.5166259423286
 21
16.33234431182663
 31
0.0
  0
LINE
  5
169
330
C7
100
AcDbEntity
  8
0
  6
Continuous
 62
    91
370
    18
100
AcDbLine
 10
-122.5166259423286
 20
16.33234431182663
 30
0.0
 11
-120.0166271079539
 21
17.77571931182663
 31
0.0
  0
LINE
  5
16A
330
C7
100
AcDbEntity
  8
0
  6
Continuous
 62
    91
370
    18
100
AcDbLine
 10
-120.0166271079539
 20
17.77571931182663
 30
0.0
 11
-120.0166271079539
 21
20.66246931182664
 31
0.0
  0
CIRCLE
  5
16B
330
C7
100
AcDbEntity
  8
0
  6
Continuous
 62
    91
370
    18
100
AcDbCircle
 10
-122.5166259423286
 20
19.21909431182664
 30
0.0
 40
5.0
  0
CIRCLE
  5
16C
330
C7
100
AcDbEntity
  8
0
  6
Continuous
 62
    91
370
    18
100
AcDbCircle
 10
-122.5166259423286
 20
19.21909431182664
 30
0.0
 40
4.307179353944747
  0
ENDBLK
  5
C9
330
C7
100
AcDbEntity
  8
0
100
AcDbBlockEnd
  0
BLOCK
  5
CB
330
CA
100
AcDbEntity
  8
0
100
AcDbBlockBegin
  2
DC_GROUP_ESB-165標準_9
 70
     0
 10
0.0
 20
0.0
 30
0.0
  3
DC_GROUP_ESB-165標準_9
  1

  0
LINE
  5
16D
330
CA
100
AcDbEntity
  8
0
  6
Continuous
 62
    91
370
    18
100
AcDbLine
 10
-148.5251562261616
 20
49.17099843003425
 30
0.0
 11
-151.4119062261614
 21
49.17099843003425
 31
0.0
  0
LINE
  5
16E
330
CA
100
AcDbEntity
  8
0
  6
Continuous
 62
    91
370
    18
100
AcDbLine
 10
-151.4119062261614
 20
49.17099843003425
 30
0.0
 11
-152.8552812261615
 21
46.67099959565954
 31
0.0
  0
LINE
  5
16F
330
CA
100
AcDbEntity
  8
0
  6
Continuous
 62
    91
370
    18
100
AcDbLine
 10
-152.8552812261615
 20
46.67099959565954
 30
0.0
 11
-151.4119062261615
 21
44.17100076128484
 31
0.0
  0
LINE
  5
170
330
CA
100
AcDbEntity
  8
0
  6
Continuous
 62
    91
370
    18
100
AcDbLine
 10
-151.4119062261615
 20
44.17100076128484
 30
0.0
 11
-148.5251562261616
 21
44.17100076128474
 31
0.0
  0
LINE
  5
171
330
CA
100
AcDbEntity
  8
0
  6
Continuous
 62
    91
370
    18
100
AcDbLine
 10
-148.5251562261616
 20
44.17100076128474
 30
0.0
 11
-147.0817812261614
 21
46.67099959565954
 31
0.0
  0
LINE
  5
172
330
CA
100
AcDbEntity
  8
0
  6
Continuous
 62
    91
370
    18
100
AcDbLine
 10
-147.0817812261614
 20
46.67099959565954
 30
0.0
 11
-148.5251562261616
 21
49.17099843003425
 31
0.0
  0
CIRCLE
  5
173
330
CA
100
AcDbEntity
  8
0
  6
Continuous
 62
    91
370
    18
100
AcDbCircle
 10
-149.9685312261614
 20
46.67099959565954
 30
0.0
 40
5.0
  0
CIRCLE
  5
174
330
CA
100
AcDbEntity
  8
0
  6
Continuous
 62
    91
370
    18
100
AcDbCircle
 10
-149.9685312261614
 20
46.67099959565954
 30
0.0
 40
4.307179353944747
  0
ENDBLK
  5
CC
330
CA
100
AcDbEntity
  8
0
100
AcDbBlockEnd
  0
BLOCK
  5
CE
330
CD
100
AcDbEntity
  8
0
100
AcDbBlockBegin
  2
DC_GROUP_ESB-165標準_10
 70
     0
 10
0.0
 20
0.0
 30
0.0
  3
DC_GROUP_ESB-165標準_10
  1

  0
LINE
  5
175
330
CD
100
AcDbEntity
  8
0
  6
Continuous
 62
    91
370
    18
100
AcDbLine
 10
-187.4685312261614
 20
59.60584431182664
 30
0.0
 11
-189.9685300605362
 21
58.16246931182664
 31
0.0
  0
LINE
  5
176
330
CD
100
AcDbEntity
  8
0
  6
Continuous
 62
    91
370
    18
100
AcDbLine
 10
-189.9685300605362
 20
58.16246931182664
 30
0.0
 11
-189.9685300605362
 21
55.27571931182665
 31
0.0
  0
LINE
  5
177
330
CD
100
AcDbEntity
  8
0
  6
Continuous
 62
    91
370
    18
100
AcDbLine
 10
-189.9685300605362
 20
55.27571931182665
 30
0.0
 11
-187.4685312261614
 21
53.83234431182665
 31
0.0
  0
LINE
  5
178
330
CD
100
AcDbEntity
  8
0
  6
Continuous
 62
    91
370
    18
100
AcDbLine
 10
-187.4685312261614
 20
53.83234431182665
 30
0.0
 11
-184.9685323917869
 21
55.27571931182665
 31
0.0
  0
LINE
  5
179
330
CD
100
AcDbEntity
  8
0
  6
Continuous
 62
    91
370
    18
100
AcDbLine
 10
-184.9685323917869
 20
55.27571931182665
 30
0.0
 11
-184.9685323917869
 21
58.16246931182664
 31
0.0
  0
LINE
  5
17A
330
CD
100
AcDbEntity
  8
0
  6
Continuous
 62
    91
370
    18
100
AcDbLine
 10
-184.9685323917869
 20
58.16246931182664
 30
0.0
 11
-187.4685312261614
 21
59.60584431182664
 31
0.0
  0
CIRCLE
  5
17B
330
CD
100
AcDbEntity
  8
0
  6
Continuous
 62
    91
370
    18
100
AcDbCircle
 10
-187.4685312261614
 20
56.71909431182664
 30
0.0
 40
5.0
  0
CIRCLE
  5
17C
330
CD
100
AcDbEntity
  8
0
  6
Continuous
 62
    91
370
    18
100
AcDbCircle
 10
-187.4685312261614
 20
56.71909431182664
 30
0.0
 40
4.307179353944747
  0
ENDBLK
  5
CF
330
CD
100
AcDbEntity
  8
0
100
AcDbBlockEnd
  0
BLOCK
  5
D1
330
D0
100
AcDbEntity
  8
0
100
AcDbBlockBegin
  2
DC_GROUP_ESB-165標準_11
 70
     0
 10
0.0
 20
0.0
 30
0.0
  3
DC_GROUP_ESB-165標準_11
  1

  0
LINE
  5
17D
330
D0
100
AcDbEntity
  8
0
  6
Continuous
 62
    91
370
    18
100
AcDbLine
 10
-226.4119062261613
 20
49.17099843003405
 30
0.0
 11
-223.5251562261614
 21
49.17099843003405
 31
0.0
  0
LINE
  5
17E
330
D0
100
AcDbEntity
  8
0
  6
Continuous
 62
    91
370
    18
100
AcDbLine
 10
-223.5251562261614
 20
49.17099843003405
 30
0.0
 11
-222.0817812261614
 21
46.67099959565934
 31
0.0
  0
LINE
  5
17F
330
D0
100
AcDbEntity
  8
0
  6
Continuous
 62
    91
370
    18
100
AcDbLine
 10
-222.0817812261614
 20
46.67099959565934
 30
0.0
 11
-223.5251562261614
 21
44.17100076128455
 31
0.0
  0
LINE
  5
180
330
D0
100
AcDbEntity
  8
0
  6
Continuous
 62
    91
370
    18
100
AcDbLine
 10
-223.5251562261614
 20
44.17100076128455
 30
0.0
 11
-226.4119062261614
 21
44.17100076128455
 31
0.0
  0
LINE
  5
181
330
D0
100
AcDbEntity
  8
0
  6
Continuous
 62
    91
370
    18
100
AcDbLine
 10
-226.4119062261614
 20
44.17100076128455
 30
0.0
 11
-227.8552812261613
 21
46.67099959565924
 31
0.0
  0
LINE
  5
182
330
D0
100
AcDbEntity
  8
0
  6
Continuous
 62
    91
370
    18
100
AcDbLine
 10
-227.8552812261613
 20
46.67099959565924
 30
0.0
 11
-226.4119062261613
 21
49.17099843003405
 31
0.0
  0
CIRCLE
  5
183
330
D0
100
AcDbEntity
  8
0
  6
Continuous
 62
    91
370
    18
100
AcDbCircle
 10
-224.9685312261613
 20
46.67099959565924
 30
0.0
 40
4.999999999999999
  0
CIRCLE
  5
184
330
D0
100
AcDbEntity
  8
0
  6
Continuous
 62
    91
370
    18
100
AcDbCircle
 10
-224.9685312261613
 20
46.67099959565924
 30
0.0
 40
4.307179353944746
  0
ENDBLK
  5
D2
330
D0
100
AcDbEntity
  8
0
100
AcDbBlockEnd
  0
BLOCK
  5
D4
330
D3
100
AcDbEntity
  8
0
100
AcDbBlockBegin
  2
DC_GROUP_ESB-165標準_12
 70
     0
 10
0.0
 20
0.0
 30
0.0
  3
DC_GROUP_ESB-165標準_12
  1

  0
LINE
  5
185
330
D3
100
AcDbEntity
  8
0
  6
Continuous
 62
    91
370
    18
100
AcDbLine
 10
-148.5251562261605
 20
-85.73280980638073
 30
0.0
 11
-151.4119062261605
 21
-85.73280980638077
 31
0.0
  0
LINE
  5
186
330
D3
100
AcDbEntity
  8
0
  6
Continuous
 62
    91
370
    18
100
AcDbLine
 10
-151.4119062261605
 20
-85.73280980638077
 30
0.0
 11
-152.8552812261605
 21
-83.23281097200605
 31
0.0
  0
LINE
  5
187
330
D3
100
AcDbEntity
  8
0
  6
Continuous
 62
    91
370
    18
100
AcDbLine
 10
-152.8552812261605
 20
-83.23281097200605
 30
0.0
 11
-151.4119062261605
 21
-80.73281213763131
 31
0.0
  0
LINE
  5
188
330
D3
100
AcDbEntity
  8
0
  6
Continuous
 62
    91
370
    18
100
AcDbLine
 10
-151.4119062261605
 20
-80.73281213763131
 30
0.0
 11
-148.5251562261606
 21
-80.73281213763129
 31
0.0
  0
LINE
  5
189
330
D3
100
AcDbEntity
  8
0
  6
Continuous
 62
    91
370
    18
100
AcDbLine
 10
-148.5251562261606
 20
-80.73281213763129
 30
0.0
 11
-147.0817812261606
 21
-83.23281097200595
 31
0.0
  0
LINE
  5
18A
330
D3
100
AcDbEntity
  8
0
  6
Continuous
 62
    91
370
    18
100
AcDbLine
 10
-147.0817812261606
 20
-83.23281097200595
 30
0.0
 11
-148.5251562261605
 21
-85.73280980638073
 31
0.0
  0
CIRCLE
  5
18B
330
D3
100
AcDbEntity
  8
0
  6
Continuous
 62
    91
370
    18
100
AcDbCircle
 10
-149.9685312261605
 20
-83.232810972006
 30
0.0
 40
4.999999999999999
  0
CIRCLE
  5
18C
330
D3
100
AcDbEntity
  8
0
  6
Continuous
 62
    91
370
    18
100
AcDbCircle
 10
-149.9685312261605
 20
-83.232810972006
 30
0.0
 40
4.307179353944746
  0
ENDBLK
  5
D5
330
D3
100
AcDbEntity
  8
0
100
AcDbBlockEnd
  0
BLOCK
  5
D7
330
D6
100
AcDbEntity
  8
0
100
AcDbBlockBegin
  2
DC_GROUP_ESB-165標準_13
 70
     0
 10
0.0
 20
0.0
 30
0.0
  3
DC_GROUP_ESB-165標準_13
  1

  0
LINE
  5
18D
330
D6
100
AcDbEntity
  8
0
  6
Continuous
 62
     3
370
    18
100
AcDbLine
 10
-219.0756445137459
 20
61.04141393011466
 30
0.0
 11
-218.3229202490948
 21
58.23220873034664
 31
0.0
  0
LINE
  5
18E
330
D6
100
AcDbEntity
  8
0
  6
Continuous
 62
     3
370
    18
100
AcDbLine
 10
-199.0044037233133
 20
63.40858963239694
 30
0.0
 11
-199.7571279879645
 21
66.21779483216505
 31
0.0
  0
LINE
  5
18F
330
D6
100
AcDbEntity
  8
0
  6
Continuous
 62
     3
370
    18
100
AcDbLine
 10
-217.3716532034861
 20
63.56854938642846
 30
0.0
 11
-216.854015113281
 21
61.63669773385044
 31
0.0
  0
LINE
  5
190
330
D6
100
AcDbEntity
  8
0
  6
Continuous
 62
     3
370
    18
100
AcDbLine
 10
-202.4963954786346
 20
67.55436268100743
 30
0.0
 11
-201.9787573884294
 21
65.62251102842913
 31
0.0
  0
LINE
  5
191
330
D6
100
AcDbEntity
  8
0
  6
Continuous
 62
     3
370
    18
100
AcDbLine
 10
-216.2125422119393
 20
63.87913224055154
 30
0.0
 11
-218.1536850502081
 21
71.12357593771955
 31
0.0
  0
LINE
  5
192
330
D6
100
AcDbEntity
  8
0
  6
Continuous
 62
     3
370
    18
100
AcDbLine
 10
-203.6555064701813
 20
67.24377982688435
 30
0.0
 11
-205.5966493084503
 21
74.48822352405244
 31
0.0
  0
LINE
  5
193
330
D6
100
AcDbEntity
  8
0
  6
Continuous
 62
     3
370
    18
100
AcDbLine
 10
-218.1536850502081
 20
71.12357593771955
 30
0.0
 11
-217.4465778789956
 21
71.83068282341335
 31
0.0
  0
LINE
  5
194
330
D6
100
AcDbEntity
  8
0
  6
Continuous
 62
     3
370
    18
100
AcDbLine
 10
-205.5966493084503
 20
74.48822352405244
 30
0.0
 11
-206.5625755247652
 21
74.74704246464773
 31
0.0
  0
LINE
  5
195
330
D6
100
AcDbEntity
  8
0
  6
Continuous
 62
     3
370
    18
100
AcDbLine
 10
-213.130870753505
 20
72.46943497225266
 30
0.0
 11
-218.1536850502081
 21
71.12357593771955
 31
0.0
  0
LINE
  5
196
330
D6
100
AcDbEntity
  8
0
  6
Continuous
 62
     3
370
    18
100
AcDbLine
 10
-213.2602802760561
 20
72.95239788539723
 30
0.0
 11
-217.4465778789956
 21
71.83068282341335
 31
0.0
  0
LINE
  5
197
330
D6
100
AcDbEntity
  8
0
  6
Continuous
 62
     3
370
    18
100
AcDbLine
 10
-206.5625755247652
 20
74.74704246464773
 30
0.0
 11
-210.7488731277047
 21
73.62532740266374
 31
0.0
  0
LINE
  5
198
330
D6
100
AcDbEntity
  8
0
  6
Continuous
 62
     3
370
    18
100
AcDbLine
 10
-205.5966493084503
 20
74.48822352405244
 30
0.0
 11
-210.6194636051534
 21
73.14236448951925
 31
0.0
  0
LINE
  5
199
330
D6
100
AcDbEntity
  8
0
  6
Continuous
 62
     3
370
    18
100
AcDbLine
 10
-202.4963954786346
 20
67.55436268100743
 30
0.0
 11
-208.6783207668846
 21
65.89792079235124
 31
0.0
  0
LINE
  5
19A
330
D6
100
AcDbEntity
  8
0
  6
Continuous
 62
     3
370
    18
100
AcDbLine
 10
-211.1897279152362
 20
65.22499127508465
 30
0.0
 11
-217.3716532034861
 21
63.56854938642846
 31
0.0
  0
LINE
  5
19B
330
D6
100
AcDbEntity
  8
0
  6
Continuous
 62
     3
370
    18
100
AcDbLine
 10
-214.7289782954452
 20
62.20609963307595
 30
0.0
 11
-219.0756445137459
 21
61.04141393011466
 31
0.0
  0
LINE
  5
19C
330
D6
100
AcDbEntity
  8
0
  6
Continuous
 62
     3
370
    18
100
AcDbLine
 10
-199.7571279879645
 20
66.21779483216505
 30
0.0
 11
-204.1037942062653
 21
65.05310912920373
 31
0.0
  0
ENDBLK
  5
D8
330
D6
100
AcDbEntity
  8
0
100
AcDbBlockEnd
  0
BLOCK
  5
DA
330
D9
100
AcDbEntity
  8
0
100
AcDbBlockBegin
  2
DC_GROUP_ESB-165標準_14
 70
     0
 10
0.0
 20
0.0
 30
0.0
  3
DC_GROUP_ESB-165標準_14
  1

  0
LINE
  5
19D
330
D9
100
AcDbEntity
  8
0
  6
Continuous
 62
     4
370
    18
100
AcDbLine
 10
-2.657099473717896
 20
-21.58090568817361
 30
0.0
 11
16.3429005262821
 21
-21.58090568817361
 31
0.0
  0
LINE
  5
19E
330
D9
100
AcDbEntity
  8
0
  6
Continuous
 62
     4
370
    18
100
AcDbLine
 10
-2.657099473717896
 20
-14.98090568817359
 30
0.0
 11
16.3429005262821
 21
-14.98090568817359
 31
0.0
  0
LINE
  5
19F
330
D9
100
AcDbEntity
  8
0
  6
Continuous
 62
     4
370
    18
100
AcDbLine
 10
-2.657099473717896
 20
-22.28090568817358
 30
0.0
 11
13.3429005262821
 21
-22.28090568817358
 31
0.0
  0
LINE
  5
1A0
330
D9
100
AcDbEntity
  8
0
  6
Continuous
 62
     4
370
    18
100
AcDbLine
 10
-2.657099473717896
 20
-14.28090568817358
 30
0.0
 11
13.3429005262821
 21
-14.28090568817358
 31
0.0
  0
LINE
  5
1A1
330
D9
100
AcDbEntity
  8
0
  6
Continuous
 62
     4
370
    18
100
AcDbLine
 10
13.3429005262821
 20
-22.28090568817358
 30
0.0
 11
13.3429005262821
 21
-14.28090568817358
 31
0.0
  0
LINE
  5
1A2
330
D9
100
AcDbEntity
  8
0
  6
Continuous
 62
     4
370
    18
100
AcDbLine
 10
16.3429005262821
 20
-21.58090568817361
 30
0.0
 11
16.3429005262821
 21
-14.98090568817359
 31
0.0
  0
LINE
  5
1A3
330
D9
100
AcDbEntity
  8
0
  6
Continuous
 62
     4
370
    18
100
AcDbLine
 10
16.3429005262821
 20
-21.58090568817361
 30
0.0
 11
18.24815641460787
 21
-18.28090568817358
 31
0.0
  0
LINE
  5
1A4
330
D9
100
AcDbEntity
  8
0
  6
Continuous
 62
     4
370
    18
100
AcDbLine
 10
16.3429005262821
 20
-14.98090568817359
 30
0.0
 11
18.24815641460787
 21
-18.28090568817358
 31
0.0
  0
LINE
  5
1A5
330
D9
100
AcDbEntity
  8
0
  6
Continuous
 62
     4
370
    18
100
AcDbLine
 10
13.3429005262821
 20
-14.28090568817358
 30
0.0
 11
14.55533609158038
 21
-14.98090568817359
 31
0.0
  0
LINE
  5
1A6
330
D9
100
AcDbEntity
  8
0
  6
Continuous
 62
     4
370
    18
100
AcDbLine
 10
13.3429005262821
 20
-22.28090568817358
 30
0.0
 11
14.55533609158038
 21
-21.58090568817361
 31
0.0
  0
ENDBLK
  5
DB
330
D9
100
AcDbEntity
  8
0
100
AcDbBlockEnd
  0
BLOCK
  5
DD
330
DC
100
AcDbEntity
  8
0
100
AcDbBlockBegin
  2
DC_GROUP_ESB-165標準_15
 70
     0
 10
0.0
 20
0.0
 30
0.0
  3
DC_GROUP_ESB-165標準_15
  1

  0
LINE
  5
1A7
330
DC
100
AcDbEntity
  8
0
  6
Continuous
 62
     9
370
    18
100
AcDbLine
 10
0.3429005262821043
 20
38.21909431182664
 30
0.0
 11
-0.6570994737178957
 21
37.21909431182664
 31
0.0
  0
LINE
  5
1A8
330
DC
100
AcDbEntity
  8
0
  6
Continuous
 62
     9
370
    18
100
AcDbLine
 10
0.3429005262821043
 20
39.27975448360624
 30
0.0
 11
-0.6570994737178957
 21
38.27975448360624
 31
0.0
  0
LINE
  5
1A9
330
DC
100
AcDbEntity
  8
0
  6
Continuous
 62
     9
370
    18
100
AcDbLine
 10
0.3429005262821043
 20
40.34041465538604
 30
0.0
 11
-0.6570994737178957
 21
39.34041465538604
 31
0.0
  0
LINE
  5
1AA
330
DC
100
AcDbEntity
  8
0
  6
Continuous
 62
     9
370
    18
100
AcDbLine
 10
0.3429005262821043
 20
41.40107482716584
 30
0.0
 11
-0.6570994737178957
 21
40.40107482716584
 31
0.0
  0
LINE
  5
1AB
330
DC
100
AcDbEntity
  8
0
  6
Continuous
 62
     9
370
    18
100
AcDbLine
 10
0.3429005262821043
 20
42.46173499894564
 30
0.0
 11
-0.6570994737178957
 21
41.46173499894564
 31
0.0
  0
LINE
  5
1AC
330
DC
100
AcDbEntity
  8
0
  6
Continuous
 62
     9
370
    18
100
AcDbLine
 10
0.3429005262821043
 20
43.52239517072555
 30
0.0
 11
-0.6570994737178957
 21
42.52239517072555
 31
0.0
  0
LINE
  5
1AD
330
DC
100
AcDbEntity
  8
0
  6
Continuous
 62
     9
370
    18
100
AcDbLine
 10
0.3429005262821043
 20
44.58305534250535
 30
0.0
 11
-0.6570994737178957
 21
43.58305534250535
 31
0.0
  0
LINE
  5
1AE
330
DC
100
AcDbEntity
  8
0
  6
Continuous
 62
     9
370
    18
100
AcDbLine
 10
0.3429005262821043
 20
45.64371551428525
 30
0.0
 11
-0.6570994737178957
 21
44.64371551428525
 31
0.0
  0
LINE
  5
1AF
330
DC
100
AcDbEntity
  8
0
  6
Continuous
 62
     9
370
    18
100
AcDbLine
 10
0.3429005262821043
 20
46.70437568606505
 30
0.0
 11
-0.6570994737178957
 21
45.70437568606505
 31
0.0
  0
LINE
  5
1B0
330
DC
100
AcDbEntity
  8
0
  6
Continuous
 62
     9
370
    18
100
AcDbLine
 10
0.2969589802636943
 20
47.71909431182644
 30
0.0
 11
-0.6570994737178957
 21
46.76503585784485
 31
0.0
  0
LINE
  5
1B1
330
DC
100
AcDbEntity
  8
0
  6
Continuous
 62
     9
370
    18
100
AcDbLine
 10
0.3429005262821043
 20
37.15843414004665
 30
0.0
 11
-0.6570994737178957
 21
36.15843414004665
 31
0.0
  0
LINE
  5
1B2
330
DC
100
AcDbEntity
  8
0
  6
Continuous
 62
     9
370
    18
100
AcDbLine
 10
0.3429005262821043
 20
36.09777396826675
 30
0.0
 11
-0.6570994737178957
 21
35.09777396826675
 31
0.0
  0
LINE
  5
1B3
330
DC
100
AcDbEntity
  8
0
  6
Continuous
 62
     9
370
    18
100
AcDbLine
 10
0.3429005262821043
 20
35.03711379648695
 30
0.0
 11
-0.6570994737178957
 21
34.03711379648695
 31
0.0
  0
LINE
  5
1B4
330
DC
100
AcDbEntity
  8
0
  6
Continuous
 62
     9
370
    18
100
AcDbLine
 10
0.3429005262821043
 20
33.97645362470705
 30
0.0
 11
-0.6570994737178957
 21
32.97645362470705
 31
0.0
  0
LINE
  5
1B5
330
DC
100
AcDbEntity
  8
0
  6
Continuous
 62
     9
370
    18
100
AcDbLine
 10
0.3429005262821043
 20
32.91579345292725
 30
0.0
 11
-0.6570994737178957
 21
31.91579345292725
 31
0.0
  0
LINE
  5
1B6
330
DC
100
AcDbEntity
  8
0
  6
Continuous
 62
     9
370
    18
100
AcDbLine
 10
0.3429005262821043
 20
31.85513328114745
 30
0.0
 11
-0.6570994737178957
 21
30.85513328114742
 31
0.0
  0
LINE
  5
1B7
330
DC
100
AcDbEntity
  8
0
  6
Continuous
 62
     9
370
    18
100
AcDbLine
 10
0.3429005262821043
 20
30.79447310936762
 30
0.0
 11
-0.6570994737178957
 21
29.79447310936762
 31
0.0
  0
LINE
  5
1B8
330
DC
100
AcDbEntity
  8
0
  6
Continuous
 62
     9
370
    18
100
AcDbLine
 10
0.3429005262821043
 20
29.73381293758779
 30
0.0
 11
-0.6570994737178957
 21
28.73381293758779
 31
0.0
  0
LINE
  5
1B9
330
DC
100
AcDbEntity
  8
0
  6
Continuous
 62
     9
370
    18
100
AcDbLine
 10
0.3429005262821043
 20
28.67315276580796
 30
0.0
 11
-0.6111579276993666
 21
27.7190943118264
 31
0.0
  0
ENDBLK
  5
DE
330
DC
100
AcDbEntity
  8
0
100
AcDbBlockEnd
  0
BLOCK
  5
E0
330
DF
100
AcDbEntity
  8
0
100
AcDbBlockBegin
  2
DC_GROUP_ESB-165標準_16
 70
     0
 10
0.0
 20
0.0
 30
0.0
  3
DC_GROUP_ESB-165標準_16
  1

  0
LINE
  5
1BA
330
DF
100
AcDbEntity
  8
0
  6
Continuous
 62
     9
370
    18
100
AcDbLine
 10
3.842900526282104
 20
38.21909431182664
 30
0.0
 11
2.842900526282104
 21
37.21909431182664
 31
0.0
  0
LINE
  5
1BB
330
DF
100
AcDbEntity
  8
0
  6
Continuous
 62
     9
370
    18
100
AcDbLine
 10
3.842900526282104
 20
39.27975448360624
 30
0.0
 11
2.842900526282104
 21
38.27975448360624
 31
0.0
  0
LINE
  5
1BC
330
DF
100
AcDbEntity
  8
0
  6
Continuous
 62
     9
370
    18
100
AcDbLine
 10
3.842900526282104
 20
40.34041465538604
 30
0.0
 11
2.842900526282104
 21
39.34041465538604
 31
0.0
  0
LINE
  5
1BD
330
DF
100
AcDbEntity
  8
0
  6
Continuous
 62
     9
370
    18
100
AcDbLine
 10
3.842900526282104
 20
41.40107482716584
 30
0.0
 11
2.842900526282104
 21
40.40107482716584
 31
0.0
  0
LINE
  5
1BE
330
DF
100
AcDbEntity
  8
0
  6
Continuous
 62
     9
370
    18
100
AcDbLine
 10
3.842900526282104
 20
42.46173499894564
 30
0.0
 11
2.842900526282104
 21
41.46173499894564
 31
0.0
  0
LINE
  5
1BF
330
DF
100
AcDbEntity
  8
0
  6
Continuous
 62
     9
370
    18
100
AcDbLine
 10
3.842900526282104
 20
43.52239517072555
 30
0.0
 11
2.842900526282104
 21
42.52239517072555
 31
0.0
  0
LINE
  5
1C0
330
DF
100
AcDbEntity
  8
0
  6
Continuous
 62
     9
370
    18
100
AcDbLine
 10
3.842900526282104
 20
44.58305534250535
 30
0.0
 11
2.842900526282104
 21
43.58305534250535
 31
0.0
  0
LINE
  5
1C1
330
DF
100
AcDbEntity
  8
0
  6
Continuous
 62
     9
370
    18
100
AcDbLine
 10
3.842900526282104
 20
45.64371551428525
 30
0.0
 11
2.842900526282104
 21
44.64371551428525
 31
0.0
  0
LINE
  5
1C2
330
DF
100
AcDbEntity
  8
0
  6
Continuous
 62
     9
370
    18
100
AcDbLine
 10
3.842900526282104
 20
46.70437568606505
 30
0.0
 11
2.842900526282104
 21
45.70437568606505
 31
0.0
  0
LINE
  5
1C3
330
DF
100
AcDbEntity
  8
0
  6
Continuous
 62
     9
370
    18
100
AcDbLine
 10
3.796958980263692
 20
47.71909431182644
 30
0.0
 11
2.842900526282104
 21
46.76503585784485
 31
0.0
  0
LINE
  5
1C4
330
DF
100
AcDbEntity
  8
0
  6
Continuous
 62
     9
370
    18
100
AcDbLine
 10
3.842900526282104
 20
37.15843414004665
 30
0.0
 11
2.842900526282104
 21
36.15843414004665
 31
0.0
  0
LINE
  5
1C5
330
DF
100
AcDbEntity
  8
0
  6
Continuous
 62
     9
370
    18
100
AcDbLine
 10
3.842900526282104
 20
36.09777396826675
 30
0.0
 11
2.842900526282104
 21
35.09777396826675
 31
0.0
  0
LINE
  5
1C6
330
DF
100
AcDbEntity
  8
0
  6
Continuous
 62
     9
370
    18
100
AcDbLine
 10
3.842900526282104
 20
35.03711379648695
 30
0.0
 11
2.842900526282104
 21
34.03711379648695
 31
0.0
  0
LINE
  5
1C7
330
DF
100
AcDbEntity
  8
0
  6
Continuous
 62
     9
370
    18
100
AcDbLine
 10
3.842900526282104
 20
33.97645362470705
 30
0.0
 11
2.842900526282104
 21
32.97645362470705
 31
0.0
  0
LINE
  5
1C8
330
DF
100
AcDbEntity
  8
0
  6
Continuous
 62
     9
370
    18
100
AcDbLine
 10
3.842900526282104
 20
32.91579345292725
 30
0.0
 11
2.842900526282104
 21
31.91579345292725
 31
0.0
  0
LINE
  5
1C9
330
DF
100
AcDbEntity
  8
0
  6
Continuous
 62
     9
370
    18
100
AcDbLine
 10
3.842900526282104
 20
31.85513328114745
 30
0.0
 11
2.842900526282104
 21
30.85513328114742
 31
0.0
  0
LINE
  5
1CA
330
DF
100
AcDbEntity
  8
0
  6
Continuous
 62
     9
370
    18
100
AcDbLine
 10
3.842900526282104
 20
30.79447310936762
 30
0.0
 11
2.842900526282104
 21
29.79447310936762
 31
0.0
  0
LINE
  5
1CB
330
DF
100
AcDbEntity
  8
0
  6
Continuous
 62
     9
370
    18
100
AcDbLine
 10
3.842900526282104
 20
29.73381293758779
 30
0.0
 11
2.842900526282104
 21
28.73381293758779
 31
0.0
  0
LINE
  5
1CC
330
DF
100
AcDbEntity
  8
0
  6
Continuous
 62
     9
370
    18
100
AcDbLine
 10
3.842900526282104
 20
28.67315276580796
 30
0.0
 11
2.888842072300633
 21
27.7190943118264
 31
0.0
  0
ENDBLK
  5
E1
330
DF
100
AcDbEntity
  8
0
100
AcDbBlockEnd
  0
BLOCK
  5
E3
330
E2
100
AcDbEntity
  8
0
100
AcDbBlockBegin
  2
DC_GROUP_ESB-165標準_17
 70
     0
 10
0.0
 20
0.0
 30
0.0
  3
DC_GROUP_ESB-165標準_17
  1

  0
LINE
  5
1CD
330
E2
100
AcDbEntity
  8
0
  6
Continuous
 62
     9
370
    18
100
AcDbLine
 10
7.342900526282104
 20
38.21909431182664
 30
0.0
 11
6.342900526282104
 21
37.21909431182664
 31
0.0
  0
LINE
  5
1CE
330
E2
100
AcDbEntity
  8
0
  6
Continuous
 62
     9
370
    18
100
AcDbLine
 10
7.342900526282104
 20
39.27975448360624
 30
0.0
 11
6.342900526282104
 21
38.27975448360624
 31
0.0
  0
LINE
  5
1CF
330
E2
100
AcDbEntity
  8
0
  6
Continuous
 62
     9
370
    18
100
AcDbLine
 10
7.342900526282104
 20
40.34041465538604
 30
0.0
 11
6.342900526282104
 21
39.34041465538604
 31
0.0
  0
LINE
  5
1D0
330
E2
100
AcDbEntity
  8
0
  6
Continuous
 62
     9
370
    18
100
AcDbLine
 10
7.342900526282104
 20
41.40107482716584
 30
0.0
 11
6.342900526282104
 21
40.40107482716584
 31
0.0
  0
LINE
  5
1D1
330
E2
100
AcDbEntity
  8
0
  6
Continuous
 62
     9
370
    18
100
AcDbLine
 10
7.342900526282104
 20
42.46173499894564
 30
0.0
 11
6.342900526282104
 21
41.46173499894564
 31
0.0
  0
LINE
  5
1D2
330
E2
100
AcDbEntity
  8
0
  6
Continuous
 62
     9
370
    18
100
AcDbLine
 10
7.342900526282104
 20
43.52239517072555
 30
0.0
 11
6.342900526282104
 21
42.52239517072555
 31
0.0
  0
LINE
  5
1D3
330
E2
100
AcDbEntity
  8
0
  6
Continuous
 62
     9
370
    18
100
AcDbLine
 10
7.342900526282104
 20
44.58305534250535
 30
0.0
 11
6.342900526282104
 21
43.58305534250535
 31
0.0
  0
LINE
  5
1D4
330
E2
100
AcDbEntity
  8
0
  6
Continuous
 62
     9
370
    18
100
AcDbLine
 10
7.342900526282104
 20
45.64371551428525
 30
0.0
 11
6.342900526282104
 21
44.64371551428525
 31
0.0
  0
LINE
  5
1D5
330
E2
100
AcDbEntity
  8
0
  6
Continuous
 62
     9
370
    18
100
AcDbLine
 10
7.342900526282104
 20
46.70437568606505
 30
0.0
 11
6.342900526282104
 21
45.70437568606505
 31
0.0
  0
LINE
  5
1D6
330
E2
100
AcDbEntity
  8
0
  6
Continuous
 62
     9
370
    18
100
AcDbLine
 10
7.296958980263692
 20
47.71909431182644
 30
0.0
 11
6.342900526282104
 21
46.76503585784485
 31
0.0
  0
LINE
  5
1D7
330
E2
100
AcDbEntity
  8
0
  6
Continuous
 62
     9
370
    18
100
AcDbLine
 10
7.342900526282104
 20
37.15843414004665
 30
0.0
 11
6.342900526282104
 21
36.15843414004665
 31
0.0
  0
LINE
  5
1D8
330
E2
100
AcDbEntity
  8
0
  6
Continuous
 62
     9
370
    18
100
AcDbLine
 10
7.342900526282104
 20
36.09777396826675
 30
0.0
 11
6.342900526282104
 21
35.09777396826675
 31
0.0
  0
LINE
  5
1D9
330
E2
100
AcDbEntity
  8
0
  6
Continuous
 62
     9
370
    18
100
AcDbLine
 10
7.342900526282104
 20
35.03711379648695
 30
0.0
 11
6.342900526282104
 21
34.03711379648695
 31
0.0
  0
LINE
  5
1DA
330
E2
100
AcDbEntity
  8
0
  6
Continuous
 62
     9
370
    18
100
AcDbLine
 10
7.342900526282104
 20
33.97645362470705
 30
0.0
 11
6.342900526282104
 21
32.97645362470705
 31
0.0
  0
LINE
  5
1DB
330
E2
100
AcDbEntity
  8
0
  6
Continuous
 62
     9
370
    18
100
AcDbLine
 10
7.342900526282104
 20
32.91579345292725
 30
0.0
 11
6.342900526282104
 21
31.91579345292725
 31
0.0
  0
LINE
  5
1DC
330
E2
100
AcDbEntity
  8
0
  6
Continuous
 62
     9
370
    18
100
AcDbLine
 10
7.342900526282104
 20
31.85513328114745
 30
0.0
 11
6.342900526282104
 21
30.85513328114742
 31
0.0
  0
LINE
  5
1DD
330
E2
100
AcDbEntity
  8
0
  6
Continuous
 62
     9
370
    18
100
AcDbLine
 10
7.342900526282104
 20
30.79447310936762
 30
0.0
 11
6.342900526282104
 21
29.79447310936762
 31
0.0
  0
LINE
  5
1DE
330
E2
100
AcDbEntity
  8
0
  6
Continuous
 62
     9
370
    18
100
AcDbLine
 10
7.342900526282104
 20
29.73381293758779
 30
0.0
 11
6.342900526282104
 21
28.73381293758779
 31
0.0
  0
LINE
  5
1DF
330
E2
100
AcDbEntity
  8
0
  6
Continuous
 62
     9
370
    18
100
AcDbLine
 10
7.342900526282104
 20
28.67315276580796
 30
0.0
 11
6.388842072300633
 21
27.7190943118264
 31
0.0
  0
ENDBLK
  5
E4
330
E2
100
AcDbEntity
  8
0
100
AcDbBlockEnd
  0
BLOCK
  5
E6
330
E5
100
AcDbEntity
  8
0
100
AcDbBlockBegin
  2
DC_GROUP_ESB-165標準_18
 70
     0
 10
0.0
 20
0.0
 30
0.0
  3
DC_GROUP_ESB-165標準_18
  1

  0
LINE
  5
1E0
330
E5
100
AcDbEntity
  8
0
  6
Continuous
 62
     9
370
    18
100
AcDbLine
 10
10.8429005262821
 20
38.21909431182664
 30
0.0
 11
9.842900526282104
 21
37.21909431182664
 31
0.0
  0
LINE
  5
1E1
330
E5
100
AcDbEntity
  8
0
  6
Continuous
 62
     9
370
    18
100
AcDbLine
 10
10.8429005262821
 20
39.27975448360624
 30
0.0
 11
9.842900526282104
 21
38.27975448360624
 31
0.0
  0
LINE
  5
1E2
330
E5
100
AcDbEntity
  8
0
  6
Continuous
 62
     9
370
    18
100
AcDbLine
 10
10.8429005262821
 20
40.34041465538604
 30
0.0
 11
9.842900526282104
 21
39.34041465538604
 31
0.0
  0
LINE
  5
1E3
330
E5
100
AcDbEntity
  8
0
  6
Continuous
 62
     9
370
    18
100
AcDbLine
 10
10.8429005262821
 20
41.40107482716584
 30
0.0
 11
9.842900526282104
 21
40.40107482716584
 31
0.0
  0
LINE
  5
1E4
330
E5
100
AcDbEntity
  8
0
  6
Continuous
 62
     9
370
    18
100
AcDbLine
 10
10.8429005262821
 20
42.46173499894564
 30
0.0
 11
9.842900526282104
 21
41.46173499894564
 31
0.0
  0
LINE
  5
1E5
330
E5
100
AcDbEntity
  8
0
  6
Continuous
 62
     9
370
    18
100
AcDbLine
 10
10.8429005262821
 20
43.52239517072555
 30
0.0
 11
9.842900526282104
 21
42.52239517072555
 31
0.0
  0
LINE
  5
1E6
330
E5
100
AcDbEntity
  8
0
  6
Continuous
 62
     9
370
    18
100
AcDbLine
 10
10.8429005262821
 20
44.58305534250535
 30
0.0
 11
9.842900526282104
 21
43.58305534250535
 31
0.0
  0
LINE
  5
1E7
330
E5
100
AcDbEntity
  8
0
  6
Continuous
 62
     9
370
    18
100
AcDbLine
 10
10.8429005262821
 20
45.64371551428525
 30
0.0
 11
9.842900526282104
 21
44.64371551428525
 31
0.0
  0
LINE
  5
1E8
330
E5
100
AcDbEntity
  8
0
  6
Continuous
 62
     9
370
    18
100
AcDbLine
 10
10.8429005262821
 20
46.70437568606505
 30
0.0
 11
9.842900526282104
 21
45.70437568606505
 31
0.0
  0
LINE
  5
1E9
330
E5
100
AcDbEntity
  8
0
  6
Continuous
 62
     9
370
    18
100
AcDbLine
 10
10.79695898026369
 20
47.71909431182644
 30
0.0
 11
9.842900526282104
 21
46.76503585784485
 31
0.0
  0
LINE
  5
1EA
330
E5
100
AcDbEntity
  8
0
  6
Continuous
 62
     9
370
    18
100
AcDbLine
 10
10.8429005262821
 20
37.15843414004665
 30
0.0
 11
9.842900526282104
 21
36.15843414004665
 31
0.0
  0
LINE
  5
1EB
330
E5
100
AcDbEntity
  8
0
  6
Continuous
 62
     9
370
    18
100
AcDbLine
 10
10.8429005262821
 20
36.09777396826675
 30
0.0
 11
9.842900526282104
 21
35.09777396826675
 31
0.0
  0
LINE
  5
1EC
330
E5
100
AcDbEntity
  8
0
  6
Continuous
 62
     9
370
    18
100
AcDbLine
 10
10.8429005262821
 20
35.03711379648695
 30
0.0
 11
9.842900526282104
 21
34.03711379648695
 31
0.0
  0
LINE
  5
1ED
330
E5
100
AcDbEntity
  8
0
  6
Continuous
 62
     9
370
    18
100
AcDbLine
 10
10.8429005262821
 20
33.97645362470705
 30
0.0
 11
9.842900526282104
 21
32.97645362470705
 31
0.0
  0
LINE
  5
1EE
330
E5
100
AcDbEntity
  8
0
  6
Continuous
 62
     9
370
    18
100
AcDbLine
 10
10.8429005262821
 20
32.91579345292725
 30
0.0
 11
9.842900526282104
 21
31.91579345292725
 31
0.0
  0
LINE
  5
1EF
330
E5
100
AcDbEntity
  8
0
  6
Continuous
 62
     9
370
    18
100
AcDbLine
 10
10.8429005262821
 20
31.85513328114745
 30
0.0
 11
9.842900526282104
 21
30.85513328114742
 31
0.0
  0
LINE
  5
1F0
330
E5
100
AcDbEntity
  8
0
  6
Continuous
 62
     9
370
    18
100
AcDbLine
 10
10.8429005262821
 20
30.79447310936762
 30
0.0
 11
9.842900526282104
 21
29.79447310936762
 31
0.0
  0
LINE
  5
1F1
330
E5
100
AcDbEntity
  8
0
  6
Continuous
 62
     9
370
    18
100
AcDbLine
 10
10.8429005262821
 20
29.73381293758779
 30
0.0
 11
9.842900526282104
 21
28.73381293758779
 31
0.0
  0
LINE
  5
1F2
330
E5
100
AcDbEntity
  8
0
  6
Continuous
 62
     9
370
    18
100
AcDbLine
 10
10.8429005262821
 20
28.67315276580796
 30
0.0
 11
9.888842072300633
 21
27.7190943118264
 31
0.0
  0
ENDBLK
  5
E7
330
E5
100
AcDbEntity
  8
0
100
AcDbBlockEnd
  0
BLOCK
  5
E9
330
E8
100
AcDbEntity
  8
0
100
AcDbBlockBegin
  2
DC_GROUP_ESB-165標準_19
 70
     0
 10
0.0
 20
0.0
 30
0.0
  3
DC_GROUP_ESB-165標準_19
  1

  0
LINE
  5
1F3
330
E8
100
AcDbEntity
  8
0
  6
Continuous
 62
     9
370
    18
100
AcDbLine
 10
0.3429005262821043
 20
-73.78090568817338
 30
0.0
 11
-0.6570994737178957
 21
-74.78090568817338
 31
0.0
  0
LINE
  5
1F4
330
E8
100
AcDbEntity
  8
0
  6
Continuous
 62
     9
370
    18
100
AcDbLine
 10
0.3429005262821043
 20
-72.72024551639377
 30
0.0
 11
-0.6570994737178957
 21
-73.72024551639377
 31
0.0
  0
LINE
  5
1F5
330
E8
100
AcDbEntity
  8
0
  6
Continuous
 62
     9
370
    18
100
AcDbLine
 10
0.3429005262821043
 20
-71.65958534461393
 30
0.0
 11
-0.6570994737178957
 21
-72.65958534461393
 31
0.0
  0
LINE
  5
1F6
330
E8
100
AcDbEntity
  8
0
  6
Continuous
 62
     9
370
    18
100
AcDbLine
 10
0.3429005262821043
 20
-70.59892517283411
 30
0.0
 11
-0.6570994737178957
 21
-71.59892517283411
 31
0.0
  0
LINE
  5
1F7
330
E8
100
AcDbEntity
  8
0
  6
Continuous
 62
     9
370
    18
100
AcDbLine
 10
0.3429005262821043
 20
-69.53826500105428
 30
0.0
 11
-0.6570994737178957
 21
-70.53826500105428
 31
0.0
  0
LINE
  5
1F8
330
E8
100
AcDbEntity
  8
0
  6
Continuous
 62
     9
370
    18
100
AcDbLine
 10
0.3429005262821043
 20
-68.47760482927444
 30
0.0
 11
-0.6570994737178957
 21
-69.47760482927443
 31
0.0
  0
LINE
  5
1F9
330
E8
100
AcDbEntity
  8
0
  6
Continuous
 62
     9
370
    18
100
AcDbLine
 10
0.3429005262821043
 20
-67.41694465749461
 30
0.0
 11
-0.6570994737178957
 21
-68.4169446574946
 31
0.0
  0
LINE
  5
1FA
330
E8
100
AcDbEntity
  8
0
  6
Continuous
 62
     9
370
    18
100
AcDbLine
 10
0.3429005262821043
 20
-66.35628448571478
 30
0.0
 11
-0.6570994737178957
 21
-67.35628448571478
 31
0.0
  0
LINE
  5
1FB
330
E8
100
AcDbEntity
  8
0
  6
Continuous
 62
     9
370
    18
100
AcDbLine
 10
0.3429005262821043
 20
-65.29562431393495
 30
0.0
 11
-0.6570994737178957
 21
-66.29562431393495
 31
0.0
  0
LINE
  5
1FC
330
E8
100
AcDbEntity
  8
0
  6
Continuous
 62
     9
370
    18
100
AcDbLine
 10
0.2969589802636943
 20
-64.28090568817359
 30
0.0
 11
-0.6570994737178957
 21
-65.23496414215512
 31
0.0
  0
LINE
  5
1FD
330
E8
100
AcDbEntity
  8
0
  6
Continuous
 62
     9
370
    18
100
AcDbLine
 10
0.3429005262821043
 20
-74.84156585995338
 30
0.0
 11
-0.6570994737178957
 21
-75.84156585995338
 31
0.0
  0
LINE
  5
1FE
330
E8
100
AcDbEntity
  8
0
  6
Continuous
 62
     9
370
    18
100
AcDbLine
 10
0.3429005262821043
 20
-75.90222603173324
 30
0.0
 11
-0.6570994737178957
 21
-76.90222603173324
 31
0.0
  0
LINE
  5
1FF
330
E8
100
AcDbEntity
  8
0
  6
Continuous
 62
     9
370
    18
100
AcDbLine
 10
0.3429005262821043
 20
-76.96288620351307
 30
0.0
 11
-0.6570994737178957
 21
-77.96288620351307
 31
0.0
  0
LINE
  5
200
330
E8
100
AcDbEntity
  8
0
  6
Continuous
 62
     9
370
    18
100
AcDbLine
 10
0.3429005262821043
 20
-78.0235463752929
 30
0.0
 11
-0.6570994737178957
 21
-79.0235463752929
 31
0.0
  0
LINE
  5
201
330
E8
100
AcDbEntity
  8
0
  6
Continuous
 62
     9
370
    18
100
AcDbLine
 10
0.3429005262821043
 20
-79.08420654707272
 30
0.0
 11
-0.6570994737178957
 21
-80.08420654707272
 31
0.0
  0
LINE
  5
202
330
E8
100
AcDbEntity
  8
0
  6
Continuous
 62
     9
370
    18
100
AcDbLine
 10
0.3429005262821043
 20
-80.14486671885258
 30
0.0
 11
-0.6570994737178957
 21
-81.14486671885258
 31
0.0
  0
LINE
  5
203
330
E8
100
AcDbEntity
  8
0
  6
Continuous
 62
     9
370
    18
100
AcDbLine
 10
0.3429005262821043
 20
-81.20552689063238
 30
0.0
 11
-0.6570994737178957
 21
-82.20552689063238
 31
0.0
  0
LINE
  5
204
330
E8
100
AcDbEntity
  8
0
  6
Continuous
 62
     9
370
    18
100
AcDbLine
 10
0.3429005262821043
 20
-82.26618706241221
 30
0.0
 11
-0.6570994737178957
 21
-83.26618706241221
 31
0.0
  0
LINE
  5
205
330
E8
100
AcDbEntity
  8
0
  6
Continuous
 62
     9
370
    18
100
AcDbLine
 10
0.3429005262821043
 20
-83.32684723419204
 30
0.0
 11
-0.6111579276993666
 21
-84.28090568817359
 31
0.0
  0
ENDBLK
  5
EA
330
E8
100
AcDbEntity
  8
0
100
AcDbBlockEnd
  0
BLOCK
  5
EC
330
EB
100
AcDbEntity
  8
0
100
AcDbBlockBegin
  2
DC_GROUP_ESB-165標準_20
 70
     0
 10
0.0
 20
0.0
 30
0.0
  3
DC_GROUP_ESB-165標準_20
  1

  0
LINE
  5
206
330
EB
100
AcDbEntity
  8
0
  6
Continuous
 62
     9
370
    18
100
AcDbLine
 10
3.842900526282104
 20
-73.78090568817338
 30
0.0
 11
2.842900526282104
 21
-74.78090568817338
 31
0.0
  0
LINE
  5
207
330
EB
100
AcDbEntity
  8
0
  6
Continuous
 62
     9
370
    18
100
AcDbLine
 10
3.842900526282104
 20
-72.72024551639377
 30
0.0
 11
2.842900526282104
 21
-73.72024551639377
 31
0.0
  0
LINE
  5
208
330
EB
100
AcDbEntity
  8
0
  6
Continuous
 62
     9
370
    18
100
AcDbLine
 10
3.842900526282104
 20
-71.65958534461393
 30
0.0
 11
2.842900526282104
 21
-72.65958534461393
 31
0.0
  0
LINE
  5
209
330
EB
100
AcDbEntity
  8
0
  6
Continuous
 62
     9
370
    18
100
AcDbLine
 10
3.842900526282104
 20
-70.59892517283411
 30
0.0
 11
2.842900526282104
 21
-71.59892517283411
 31
0.0
  0
LINE
  5
20A
330
EB
100
AcDbEntity
  8
0
  6
Continuous
 62
     9
370
    18
100
AcDbLine
 10
3.842900526282104
 20
-69.53826500105428
 30
0.0
 11
2.842900526282104
 21
-70.53826500105428
 31
0.0
  0
LINE
  5
20B
330
EB
100
AcDbEntity
  8
0
  6
Continuous
 62
     9
370
    18
100
AcDbLine
 10
3.842900526282104
 20
-68.47760482927444
 30
0.0
 11
2.842900526282104
 21
-69.47760482927443
 31
0.0
  0
LINE
  5
20C
330
EB
100
AcDbEntity
  8
0
  6
Continuous
 62
     9
370
    18
100
AcDbLine
 10
3.842900526282104
 20
-67.41694465749461
 30
0.0
 11
2.842900526282104
 21
-68.4169446574946
 31
0.0
  0
LINE
  5
20D
330
EB
100
AcDbEntity
  8
0
  6
Continuous
 62
     9
370
    18
100
AcDbLine
 10
3.842900526282104
 20
-66.35628448571478
 30
0.0
 11
2.842900526282104
 21
-67.35628448571478
 31
0.0
  0
LINE
  5
20E
330
EB
100
AcDbEntity
  8
0
  6
Continuous
 62
     9
370
    18
100
AcDbLine
 10
3.842900526282104
 20
-65.29562431393495
 30
0.0
 11
2.842900526282104
 21
-66.29562431393495
 31
0.0
  0
LINE
  5
20F
330
EB
100
AcDbEntity
  8
0
  6
Continuous
 62
     9
370
    18
100
AcDbLine
 10
3.796958980263692
 20
-64.28090568817359
 30
0.0
 11
2.842900526282104
 21
-65.23496414215512
 31
0.0
  0
LINE
  5
210
330
EB
100
AcDbEntity
  8
0
  6
Continuous
 62
     9
370
    18
100
AcDbLine
 10
3.842900526282104
 20
-74.84156585995338
 30
0.0
 11
2.842900526282104
 21
-75.84156585995338
 31
0.0
  0
LINE
  5
211
330
EB
100
AcDbEntity
  8
0
  6
Continuous
 62
     9
370
    18
100
AcDbLine
 10
3.842900526282104
 20
-75.90222603173324
 30
0.0
 11
2.842900526282104
 21
-76.90222603173324
 31
0.0
  0
LINE
  5
212
330
EB
100
AcDbEntity
  8
0
  6
Continuous
 62
     9
370
    18
100
AcDbLine
 10
3.842900526282104
 20
-76.96288620351307
 30
0.0
 11
2.842900526282104
 21
-77.96288620351307
 31
0.0
  0
LINE
  5
213
330
EB
100
AcDbEntity
  8
0
  6
Continuous
 62
     9
370
    18
100
AcDbLine
 10
3.842900526282104
 20
-78.0235463752929
 30
0.0
 11
2.842900526282104
 21
-79.0235463752929
 31
0.0
  0
LINE
  5
214
330
EB
100
AcDbEntity
  8
0
  6
Continuous
 62
     9
370
    18
100
AcDbLine
 10
3.842900526282104
 20
-79.08420654707272
 30
0.0
 11
2.842900526282104
 21
-80.08420654707272
 31
0.0
  0
LINE
  5
215
330
EB
100
AcDbEntity
  8
0
  6
Continuous
 62
     9
370
    18
100
AcDbLine
 10
3.842900526282104
 20
-80.14486671885258
 30
0.0
 11
2.842900526282104
 21
-81.14486671885258
 31
0.0
  0
LINE
  5
216
330
EB
100
AcDbEntity
  8
0
  6
Continuous
 62
     9
370
    18
100
AcDbLine
 10
3.842900526282104
 20
-81.20552689063238
 30
0.0
 11
2.842900526282104
 21
-82.20552689063238
 31
0.0
  0
LINE
  5
217
330
EB
100
AcDbEntity
  8
0
  6
Continuous
 62
     9
370
    18
100
AcDbLine
 10
3.842900526282104
 20
-82.26618706241221
 30
0.0
 11
2.842900526282104
 21
-83.26618706241221
 31
0.0
  0
LINE
  5
218
330
EB
100
AcDbEntity
  8
0
  6
Continuous
 62
     9
370
    18
100
AcDbLine
 10
3.842900526282104
 20
-83.32684723419204
 30
0.0
 11
2.888842072300633
 21
-84.28090568817359
 31
0.0
  0
ENDBLK
  5
ED
330
EB
100
AcDbEntity
  8
0
100
AcDbBlockEnd
  0
BLOCK
  5
EF
330
EE
100
AcDbEntity
  8
0
100
AcDbBlockBegin
  2
DC_GROUP_ESB-165標準_21
 70
     0
 10
0.0
 20
0.0
 30
0.0
  3
DC_GROUP_ESB-165標準_21
  1

  0
LINE
  5
219
330
EE
100
AcDbEntity
  8
0
  6
Continuous
 62
     9
370
    18
100
AcDbLine
 10
7.342900526282104
 20
-73.78090568817338
 30
0.0
 11
6.342900526282104
 21
-74.78090568817338
 31
0.0
  0
LINE
  5
21A
330
EE
100
AcDbEntity
  8
0
  6
Continuous
 62
     9
370
    18
100
AcDbLine
 10
7.342900526282104
 20
-72.72024551639377
 30
0.0
 11
6.342900526282104
 21
-73.72024551639377
 31
0.0
  0
LINE
  5
21B
330
EE
100
AcDbEntity
  8
0
  6
Continuous
 62
     9
370
    18
100
AcDbLine
 10
7.342900526282104
 20
-71.65958534461393
 30
0.0
 11
6.342900526282104
 21
-72.65958534461393
 31
0.0
  0
LINE
  5
21C
330
EE
100
AcDbEntity
  8
0
  6
Continuous
 62
     9
370
    18
100
AcDbLine
 10
7.342900526282104
 20
-70.59892517283411
 30
0.0
 11
6.342900526282104
 21
-71.59892517283411
 31
0.0
  0
LINE
  5
21D
330
EE
100
AcDbEntity
  8
0
  6
Continuous
 62
     9
370
    18
100
AcDbLine
 10
7.342900526282104
 20
-69.53826500105428
 30
0.0
 11
6.342900526282104
 21
-70.53826500105428
 31
0.0
  0
LINE
  5
21E
330
EE
100
AcDbEntity
  8
0
  6
Continuous
 62
     9
370
    18
100
AcDbLine
 10
7.342900526282104
 20
-68.47760482927444
 30
0.0
 11
6.342900526282104
 21
-69.47760482927443
 31
0.0
  0
LINE
  5
21F
330
EE
100
AcDbEntity
  8
0
  6
Continuous
 62
     9
370
    18
100
AcDbLine
 10
7.342900526282104
 20
-67.41694465749461
 30
0.0
 11
6.342900526282104
 21
-68.4169446574946
 31
0.0
  0
LINE
  5
220
330
EE
100
AcDbEntity
  8
0
  6
Continuous
 62
     9
370
    18
100
AcDbLine
 10
7.342900526282104
 20
-66.35628448571478
 30
0.0
 11
6.342900526282104
 21
-67.35628448571478
 31
0.0
  0
LINE
  5
221
330
EE
100
AcDbEntity
  8
0
  6
Continuous
 62
     9
370
    18
100
AcDbLine
 10
7.342900526282104
 20
-65.29562431393495
 30
0.0
 11
6.342900526282104
 21
-66.29562431393495
 31
0.0
  0
LINE
  5
222
330
EE
100
AcDbEntity
  8
0
  6
Continuous
 62
     9
370
    18
100
AcDbLine
 10
7.296958980263692
 20
-64.28090568817359
 30
0.0
 11
6.342900526282104
 21
-65.23496414215512
 31
0.0
  0
LINE
  5
223
330
EE
100
AcDbEntity
  8
0
  6
Continuous
 62
     9
370
    18
100
AcDbLine
 10
7.342900526282104
 20
-74.84156585995338
 30
0.0
 11
6.342900526282104
 21
-75.84156585995338
 31
0.0
  0
LINE
  5
224
330
EE
100
AcDbEntity
  8
0
  6
Continuous
 62
     9
370
    18
100
AcDbLine
 10
7.342900526282104
 20
-75.90222603173324
 30
0.0
 11
6.342900526282104
 21
-76.90222603173324
 31
0.0
  0
LINE
  5
225
330
EE
100
AcDbEntity
  8
0
  6
Continuous
 62
     9
370
    18
100
AcDbLine
 10
7.342900526282104
 20
-76.96288620351307
 30
0.0
 11
6.342900526282104
 21
-77.96288620351307
 31
0.0
  0
LINE
  5
226
330
EE
100
AcDbEntity
  8
0
  6
Continuous
 62
     9
370
    18
100
AcDbLine
 10
7.342900526282104
 20
-78.0235463752929
 30
0.0
 11
6.342900526282104
 21
-79.0235463752929
 31
0.0
  0
LINE
  5
227
330
EE
100
AcDbEntity
  8
0
  6
Continuous
 62
     9
370
    18
100
AcDbLine
 10
7.342900526282104
 20
-79.08420654707272
 30
0.0
 11
6.342900526282104
 21
-80.08420654707272
 31
0.0
  0
LINE
  5
228
330
EE
100
AcDbEntity
  8
0
  6
Continuous
 62
     9
370
    18
100
AcDbLine
 10
7.342900526282104
 20
-80.14486671885258
 30
0.0
 11
6.342900526282104
 21
-81.14486671885258
 31
0.0
  0
LINE
  5
229
330
EE
100
AcDbEntity
  8
0
  6
Continuous
 62
     9
370
    18
100
AcDbLine
 10
7.342900526282104
 20
-81.20552689063238
 30
0.0
 11
6.342900526282104
 21
-82.20552689063238
 31
0.0
  0
LINE
  5
22A
330
EE
100
AcDbEntity
  8
0
  6
Continuous
 62
     9
370
    18
100
AcDbLine
 10
7.342900526282104
 20
-82.26618706241221
 30
0.0
 11
6.342900526282104
 21
-83.26618706241221
 31
0.0
  0
LINE
  5
22B
330
EE
100
AcDbEntity
  8
0
  6
Continuous
 62
     9
370
    18
100
AcDbLine
 10
7.342900526282104
 20
-83.32684723419204
 30
0.0
 11
6.388842072300633
 21
-84.28090568817359
 31
0.0
  0
ENDBLK
  5
F0
330
EE
100
AcDbEntity
  8
0
100
AcDbBlockEnd
  0
BLOCK
  5
F2
330
F1
100
AcDbEntity
  8
0
100
AcDbBlockBegin
  2
DC_GROUP_ESB-165標準_22
 70
     0
 10
0.0
 20
0.0
 30
0.0
  3
DC_GROUP_ESB-165標準_22
  1

  0
LINE
  5
22C
330
F1
100
AcDbEntity
  8
0
  6
Continuous
 62
     9
370
    18
100
AcDbLine
 10
10.8429005262821
 20
-73.78090568817338
 30
0.0
 11
9.842900526282104
 21
-74.78090568817338
 31
0.0
  0
LINE
  5
22D
330
F1
100
AcDbEntity
  8
0
  6
Continuous
 62
     9
370
    18
100
AcDbLine
 10
10.8429005262821
 20
-72.72024551639377
 30
0.0
 11
9.842900526282104
 21
-73.72024551639377
 31
0.0
  0
LINE
  5
22E
330
F1
100
AcDbEntity
  8
0
  6
Continuous
 62
     9
370
    18
100
AcDbLine
 10
10.8429005262821
 20
-71.65958534461393
 30
0.0
 11
9.842900526282104
 21
-72.65958534461393
 31
0.0
  0
LINE
  5
22F
330
F1
100
AcDbEntity
  8
0
  6
Continuous
 62
     9
370
    18
100
AcDbLine
 10
10.8429005262821
 20
-70.59892517283411
 30
0.0
 11
9.842900526282104
 21
-71.59892517283411
 31
0.0
  0
LINE
  5
230
330
F1
100
AcDbEntity
  8
0
  6
Continuous
 62
     9
370
    18
100
AcDbLine
 10
10.8429005262821
 20
-69.53826500105428
 30
0.0
 11
9.842900526282104
 21
-70.53826500105428
 31
0.0
  0
LINE
  5
231
330
F1
100
AcDbEntity
  8
0
  6
Continuous
 62
     9
370
    18
100
AcDbLine
 10
10.8429005262821
 20
-68.47760482927444
 30
0.0
 11
9.842900526282104
 21
-69.47760482927443
 31
0.0
  0
LINE
  5
232
330
F1
100
AcDbEntity
  8
0
  6
Continuous
 62
     9
370
    18
100
AcDbLine
 10
10.8429005262821
 20
-67.41694465749461
 30
0.0
 11
9.842900526282104
 21
-68.4169446574946
 31
0.0
  0
LINE
  5
233
330
F1
100
AcDbEntity
  8
0
  6
Continuous
 62
     9
370
    18
100
AcDbLine
 10
10.8429005262821
 20
-66.35628448571478
 30
0.0
 11
9.842900526282104
 21
-67.35628448571478
 31
0.0
  0
LINE
  5
234
330
F1
100
AcDbEntity
  8
0
  6
Continuous
 62
     9
370
    18
100
AcDbLine
 10
10.8429005262821
 20
-65.29562431393495
 30
0.0
 11
9.842900526282104
 21
-66.29562431393495
 31
0.0
  0
LINE
  5
235
330
F1
100
AcDbEntity
  8
0
  6
Continuous
 62
     9
370
    18
100
AcDbLine
 10
10.79695898026369
 20
-64.28090568817359
 30
0.0
 11
9.842900526282104
 21
-65.23496414215512
 31
0.0
  0
LINE
  5
236
330
F1
100
AcDbEntity
  8
0
  6
Continuous
 62
     9
370
    18
100
AcDbLine
 10
10.8429005262821
 20
-74.84156585995338
 30
0.0
 11
9.842900526282104
 21
-75.84156585995338
 31
0.0
  0
LINE
  5
237
330
F1
100
AcDbEntity
  8
0
  6
Continuous
 62
     9
370
    18
100
AcDbLine
 10
10.8429005262821
 20
-75.90222603173324
 30
0.0
 11
9.842900526282104
 21
-76.90222603173324
 31
0.0
  0
LINE
  5
238
330
F1
100
AcDbEntity
  8
0
  6
Continuous
 62
     9
370
    18
100
AcDbLine
 10
10.8429005262821
 20
-76.96288620351307
 30
0.0
 11
9.842900526282104
 21
-77.96288620351307
 31
0.0
  0
LINE
  5
239
330
F1
100
AcDbEntity
  8
0
  6
Continuous
 62
     9
370
    18
100
AcDbLine
 10
10.8429005262821
 20
-78.0235463752929
 30
0.0
 11
9.842900526282104
 21
-79.0235463752929
 31
0.0
  0
LINE
  5
23A
330
F1
100
AcDbEntity
  8
0
  6
Continuous
 62
     9
370
    18
100
AcDbLine
 10
10.8429005262821
 20
-79.08420654707272
 30
0.0
 11
9.842900526282104
 21
-80.08420654707272
 31
0.0
  0
LINE
  5
23B
330
F1
100
AcDbEntity
  8
0
  6
Continuous
 62
     9
370
    18
100
AcDbLine
 10
10.8429005262821
 20
-80.14486671885258
 30
0.0
 11
9.842900526282104
 21
-81.14486671885258
 31
0.0
  0
LINE
  5
23C
330
F1
100
AcDbEntity
  8
0
  6
Continuous
 62
     9
370
    18
100
AcDbLine
 10
10.8429005262821
 20
-81.20552689063238
 30
0.0
 11
9.842900526282104
 21
-82.20552689063238
 31
0.0
  0
LINE
  5
23D
330
F1
100
AcDbEntity
  8
0
  6
Continuous
 62
     9
370
    18
100
AcDbLine
 10
10.8429005262821
 20
-82.26618706241221
 30
0.0
 11
9.842900526282104
 21
-83.26618706241221
 31
0.0
  0
LINE
  5
23E
330
F1
100
AcDbEntity
  8
0
  6
Continuous
 62
     9
370
    18
100
AcDbLine
 10
10.8429005262821
 20
-83.32684723419204
 30
0.0
 11
9.888842072300633
 21
-84.28090568817359
 31
0.0
  0
ENDBLK
  5
F3
330
F1
100
AcDbEntity
  8
0
100
AcDbBlockEnd
  0
BLOCK
  5
F5
330
F4
100
AcDbEntity
  8
0
100
AcDbBlockBegin
  2
DC_GROUP_ESB-165標準_23
 70
     0
 10
0.0
 20
0.0
 30
0.0
  3
DC_GROUP_ESB-165標準_23
  1

  0
LINE
  5
23F
330
F4
100
AcDbEntity
  8
0
  6
Continuous
 62
     3
370
    18
100
AcDbLine
 10
-56.6570994737179
 20
-88.2809056881736
 30
0.0
 11
-62.05709947371787
 21
-88.2809056881736
 31
0.0
  0
LINE
  5
240
330
F4
100
AcDbEntity
  8
0
  6
Continuous
 62
     3
370
    18
100
AcDbLine
 10
-62.05709947371787
 20
-88.2809056881736
 30
0.0
 11
-62.6570994737179
 21
-89.32013617271492
 31
0.0
  0
LINE
  5
241
330
F4
100
AcDbEntity
  8
0
  6
Continuous
 62
     3
370
    18
100
AcDbLine
 10
-62.05709947371787
 20
-88.2809056881736
 30
0.0
 11
-62.05709947371787
 21
-98.2809056881736
 31
0.0
  0
LINE
  5
242
330
F4
100
AcDbEntity
  8
0
  6
Continuous
 62
     3
370
    18
100
AcDbLine
 10
-56.6570994737179
 20
-88.2809056881736
 30
0.0
 11
-56.6570994737179
 21
-98.2809056881736
 31
0.0
  0
LINE
  5
243
330
F4
100
AcDbEntity
  8
0
  6
Continuous
 62
     3
370
    18
100
AcDbLine
 10
-56.6570994737179
 20
-98.2809056881736
 30
0.0
 11
-62.05709947371787
 21
-98.2809056881736
 31
0.0
  0
LINE
  5
244
330
F4
100
AcDbEntity
  8
0
  6
Continuous
 62
     3
370
    18
100
AcDbLine
 10
-62.05709947371787
 20
-98.2809056881736
 30
0.0
 11
-62.6570994737179
 21
-97.24167520363228
 31
0.0
  0
LINE
  5
245
330
F4
100
AcDbEntity
  8
0
  6
Continuous
 62
     3
370
    18
100
AcDbLine
 10
-62.6570994737179
 20
-89.32013617271492
 30
0.0
 11
-62.6570994737179
 21
-97.24167520363228
 31
0.0
  0
LINE
  5
246
330
F4
100
AcDbEntity
  8
0
  6
Continuous
 62
     3
370
    18
100
AcDbLine
 10
-56.4070994737179
 20
-90.2809056881736
 30
0.0
 11
27.3429005262821
 21
-90.28090568817359
 31
0.0
  0
LINE
  5
247
330
F4
100
AcDbEntity
  8
0
  6
Continuous
 62
     3
370
    18
100
AcDbLine
 10
27.3429005262821
 20
-90.28090568817359
 30
0.0
 11
27.3429005262821
 21
-96.2809056881736
 31
0.0
  0
LINE
  5
248
330
F4
100
AcDbEntity
  8
0
  6
Continuous
 62
     3
370
    18
100
AcDbLine
 10
4.342900526282104
 20
-90.2809056881736
 30
0.0
 11
4.342900526282104
 21
-96.2809056881736
 31
0.0
  0
LINE
  5
249
330
F4
100
AcDbEntity
  8
0
  6
Continuous
 62
     3
370
    18
100
AcDbLine
 10
-56.4070994737179
 20
-96.2809056881736
 30
0.0
 11
27.3429005262821
 21
-96.2809056881736
 31
0.0
  0
ARC
  5
24A
330
F4
100
AcDbEntity
  8
0
  6
Continuous
 62
     3
370
    18
100
AcDbCircle
 10
-56.4070994737179
 20
-90.0309056881736
 30
0.0
 40
0.25
100
AcDbArc
 50
180.0
 51
270.0
  0
ARC
  5
24B
330
F4
100
AcDbEntity
  8
0
  6
Continuous
 62
     3
370
    18
100
AcDbCircle
 10
-56.4070994737179
 20
-96.5309056881736
 30
0.0
 40
0.25
100
AcDbArc
 50
90.0
 51
180.0
  0
LINE
  5
24C
330
F4
100
AcDbEntity
  8
0
  6
Continuous
 62
     3
370
    18
100
AcDbLine
 10
28.3429005262821
 20
-91.2809056881736
 30
0.0
 11
28.3429005262821
 21
-95.28090568817362
 31
0.0
  0
LINE
  5
24D
330
F4
100
AcDbEntity
  8
0
  6
Continuous
 62
     3
370
    18
100
AcDbLine
 10
27.3429005262821
 20
-90.28090568817359
 30
0.0
 11
28.3429005262821
 21
-91.2809056881736
 31
0.0
  0
LINE
  5
24E
330
F4
100
AcDbEntity
  8
0
  6
Continuous
 62
     3
370
    18
100
AcDbLine
 10
27.3429005262821
 20
-96.2809056881736
 30
0.0
 11
28.3429005262821
 21
-95.28090568817362
 31
0.0
  0
LINE
  5
24F
330
F4
100
AcDbEntity
  8
0
  6
Continuous
 62
     4
370
    18
100
AcDbLine
 10
3.476875122497685
 20
-90.2809056881736
 30
0.0
 11
4.342900526282104
 21
-90.8224056881736
 31
0.0
  0
LINE
  5
250
330
F4
100
AcDbEntity
  8
0
  6
Continuous
 62
     4
370
    18
100
AcDbLine
 10
4.342900526282104
 20
-90.8224056881736
 30
0.0
 11
27.88440052628216
 21
-90.8224056881736
 31
0.0
  0
LINE
  5
251
330
F4
100
AcDbEntity
  8
0
  6
Continuous
 62
     4
370
    18
100
AcDbLine
 10
3.476875122497685
 20
-96.2809056881736
 30
0.0
 11
4.342900526282104
 21
-95.7394056881736
 31
0.0
  0
LINE
  5
252
330
F4
100
AcDbEntity
  8
0
  6
Continuous
 62
     4
370
    18
100
AcDbLine
 10
4.342900526282104
 20
-95.7394056881736
 30
0.0
 11
27.88440052628216
 21
-95.7394056881736
 31
0.0
  0
ENDBLK
  5
F6
330
F4
100
AcDbEntity
  8
0
100
AcDbBlockEnd
  0
BLOCK
  5
F8
330
F7
100
AcDbEntity
  8
0
100
AcDbBlockBegin
  2
DC_GROUP_ESB-165標準_24
 70
     0
 10
0.0
 20
0.0
 30
0.0
  3
DC_GROUP_ESB-165標準_24
  1

  0
LINE
  5
253
330
F7
100
AcDbEntity
  8
0
  6
Continuous
 62
     3
370
    18
100
AcDbLine
 10
-56.6570994737179
 20
61.71909431182644
 30
0.0
 11
-62.05709947371787
 21
61.71909431182644
 31
0.0
  0
LINE
  5
254
330
F7
100
AcDbEntity
  8
0
  6
Continuous
 62
     3
370
    18
100
AcDbLine
 10
-62.05709947371787
 20
61.71909431182644
 30
0.0
 11
-62.6570994737179
 21
60.67986382728503
 31
0.0
  0
LINE
  5
255
330
F7
100
AcDbEntity
  8
0
  6
Continuous
 62
     3
370
    18
100
AcDbLine
 10
-62.05709947371787
 20
61.71909431182644
 30
0.0
 11
-62.05709947371787
 21
51.71909431182644
 31
0.0
  0
LINE
  5
256
330
F7
100
AcDbEntity
  8
0
  6
Continuous
 62
     3
370
    18
100
AcDbLine
 10
-56.6570994737179
 20
61.71909431182644
 30
0.0
 11
-56.6570994737179
 21
51.71909431182644
 31
0.0
  0
LINE
  5
257
330
F7
100
AcDbEntity
  8
0
  6
Continuous
 62
     3
370
    18
100
AcDbLine
 10
-56.6570994737179
 20
51.71909431182644
 30
0.0
 11
-62.05709947371787
 21
51.71909431182644
 31
0.0
  0
LINE
  5
258
330
F7
100
AcDbEntity
  8
0
  6
Continuous
 62
     3
370
    18
100
AcDbLine
 10
-62.05709947371787
 20
51.71909431182644
 30
0.0
 11
-62.6570994737179
 21
52.75832479636775
 31
0.0
  0
LINE
  5
259
330
F7
100
AcDbEntity
  8
0
  6
Continuous
 62
     3
370
    18
100
AcDbLine
 10
-62.6570994737179
 20
60.67986382728503
 30
0.0
 11
-62.6570994737179
 21
52.75832479636775
 31
0.0
  0
LINE
  5
25A
330
F7
100
AcDbEntity
  8
0
  6
Continuous
 62
     3
370
    18
100
AcDbLine
 10
-56.4070994737179
 20
59.71909431182644
 30
0.0
 11
42.3429005262821
 21
59.71909431182644
 31
0.0
  0
LINE
  5
25B
330
F7
100
AcDbEntity
  8
0
  6
Continuous
 62
     3
370
    18
100
AcDbLine
 10
42.3429005262821
 20
59.71909431182644
 30
0.0
 11
42.3429005262821
 21
53.71909431182644
 31
0.0
  0
LINE
  5
25C
330
F7
100
AcDbEntity
  8
0
  6
Continuous
 62
     3
370
    18
100
AcDbLine
 10
19.3429005262821
 20
59.71909431182644
 30
0.0
 11
19.3429005262821
 21
53.71909431182644
 31
0.0
  0
LINE
  5
25D
330
F7
100
AcDbEntity
  8
0
  6
Continuous
 62
     3
370
    18
100
AcDbLine
 10
-56.4070994737179
 20
53.71909431182644
 30
0.0
 11
42.3429005262821
 21
53.71909431182644
 31
0.0
  0
ARC
  5
25E
330
F7
100
AcDbEntity
  8
0
  6
Continuous
 62
     3
370
    18
100
AcDbCircle
 10
-56.4070994737179
 20
59.96909431182644
 30
0.0
 40
0.25
100
AcDbArc
 50
180.0
 51
270.0
  0
ARC
  5
25F
330
F7
100
AcDbEntity
  8
0
  6
Continuous
 62
     3
370
    18
100
AcDbCircle
 10
-56.4070994737179
 20
53.46909431182644
 30
0.0
 40
0.25
100
AcDbArc
 50
90.0
 51
180.0
  0
LINE
  5
260
330
F7
100
AcDbEntity
  8
0
  6
Continuous
 62
     3
370
    18
100
AcDbLine
 10
43.3429005262821
 20
58.71909431182644
 30
0.0
 11
43.3429005262821
 21
54.71909431182644
 31
0.0
  0
LINE
  5
261
330
F7
100
AcDbEntity
  8
0
  6
Continuous
 62
     3
370
    18
100
AcDbLine
 10
42.3429005262821
 20
59.71909431182644
 30
0.0
 11
43.3429005262821
 21
58.71909431182644
 31
0.0
  0
LINE
  5
262
330
F7
100
AcDbEntity
  8
0
  6
Continuous
 62
     3
370
    18
100
AcDbLine
 10
42.3429005262821
 20
53.71909431182644
 30
0.0
 11
43.3429005262821
 21
54.71909431182644
 31
0.0
  0
LINE
  5
263
330
F7
100
AcDbEntity
  8
0
  6
Continuous
 62
     4
370
    18
100
AcDbLine
 10
18.47687512249768
 20
59.71909431182644
 30
0.0
 11
19.3429005262821
 21
59.17759431182644
 31
0.0
  0
LINE
  5
264
330
F7
100
AcDbEntity
  8
0
  6
Continuous
 62
     4
370
    18
100
AcDbLine
 10
19.3429005262821
 20
59.17759431182644
 30
0.0
 11
42.88440052628216
 21
59.17759431182634
 31
0.0
  0
LINE
  5
265
330
F7
100
AcDbEntity
  8
0
  6
Continuous
 62
     4
370
    18
100
AcDbLine
 10
18.47687512249768
 20
53.71909431182644
 30
0.0
 11
19.3429005262821
 21
54.26059431182634
 31
0.0
  0
LINE
  5
266
330
F7
100
AcDbEntity
  8
0
  6
Continuous
 62
     4
370
    18
100
AcDbLine
 10
19.3429005262821
 20
54.26059431182634
 30
0.0
 11
42.88440052628216
 21
54.26059431182634
 31
0.0
  0
ENDBLK
  5
F9
330
F7
100
AcDbEntity
  8
0
100
AcDbBlockEnd
  0
BLOCK
  5
FB
330
FA
100
AcDbEntity
  8
0
100
AcDbBlockBegin
  2
DC_GROUP_ESB-165標準_25
 70
     0
 10
0.0
 20
0.0
 30
0.0
  3
DC_GROUP_ESB-165標準_25
  1

  0
CIRCLE
  5
267
330
FA
100
AcDbEntity
  8
0
  6
Continuous
 62
    91
370
    18
100
AcDbCircle
 10
218.035479815111
 20
46.67099959565924
 30
0.0
 40
2.35
  0
CIRCLE
  5
268
330
FA
100
AcDbEntity
  8
0
  6
Continuous
 62
     4
370
    18
100
AcDbCircle
 10
218.035479815111
 20
46.67099959565924
 30
0.0
 40
3.0
  0
ENDBLK
  5
FC
330
FA
100
AcDbEntity
  8
0
100
AcDbBlockEnd
  0
BLOCK
  5
FE
330
FD
100
AcDbEntity
  8
0
100
AcDbBlockBegin
  2
DC_GROUP_ESB-165標準_26
 70
     0
 10
0.0
 20
0.0
 30
0.0
  3
DC_GROUP_ESB-165標準_26
  1

  0
CIRCLE
  5
269
330
FD
100
AcDbEntity
  8
0
  6
Continuous
 62
     4
370
    18
100
AcDbCircle
 10
245.4873850989439
 20
19.21909431182631
 30
0.0
 40
2.35
  0
CIRCLE
  5
26A
330
FD
100
AcDbEntity
  8
0
  6
Continuous
 62
    91
370
    18
100
AcDbCircle
 10
245.4873850989439
 20
19.21909431182631
 30
0.0
 40
3.0
  0
ENDBLK
  5
FF
330
FD
100
AcDbEntity
  8
0
100
AcDbBlockEnd
  0
BLOCK
  5
101
330
100
100
AcDbEntity
  8
0
100
AcDbBlockBegin
  2
DC_GROUP_ESB-165標準_27
 70
     0
 10
0.0
 20
0.0
 30
0.0
  3
DC_GROUP_ESB-165標準_27
  1

  0
CIRCLE
  5
26B
330
100
100
AcDbEntity
  8
0
  6
Continuous
 62
    91
370
    18
100
AcDbCircle
 10
255.535479815111
 20
-18.28090568817363
 30
0.0
 40
2.35
  0
CIRCLE
  5
26C
330
100
100
AcDbEntity
  8
0
  6
Continuous
 62
     4
370
    18
100
AcDbCircle
 10
255.535479815111
 20
-18.28090568817363
 30
0.0
 40
3.0
  0
ENDBLK
  5
102
330
100
100
AcDbEntity
  8
0
100
AcDbBlockEnd
  0
BLOCK
  5
104
330
103
100
AcDbEntity
  8
0
100
AcDbBlockBegin
  2
DC_GROUP_ESB-165標準_28
 70
     0
 10
0.0
 20
0.0
 30
0.0
  3
DC_GROUP_ESB-165標準_28
  1

  0
CIRCLE
  5
26D
330
103
100
AcDbEntity
  8
0
  6
Continuous
 62
     4
370
    18
100
AcDbCircle
 10
245.4873850989439
 20
-55.78090568817368
 30
0.0
 40
2.35
  0
CIRCLE
  5
26E
330
103
100
AcDbEntity
  8
0
  6
Continuous
 62
    91
370
    18
100
AcDbCircle
 10
245.4873850989439
 20
-55.78090568817368
 30
0.0
 40
3.0
  0
ENDBLK
  5
105
330
103
100
AcDbEntity
  8
0
100
AcDbBlockEnd
  0
BLOCK
  5
107
330
106
100
AcDbEntity
  8
0
100
AcDbBlockBegin
  2
DC_GROUP_ESB-165標準_29
 70
     0
 10
0.0
 20
0.0
 30
0.0
  3
DC_GROUP_ESB-165標準_29
  1

  0
CIRCLE
  5
26F
330
106
100
AcDbEntity
  8
0
  6
Continuous
 62
    91
370
    18
100
AcDbCircle
 10
218.035479815111
 20
-83.23281097200658
 30
0.0
 40
2.35
  0
CIRCLE
  5
270
330
106
100
AcDbEntity
  8
0
  6
Continuous
 62
     4
370
    18
100
AcDbCircle
 10
218.035479815111
 20
-83.23281097200658
 30
0.0
 40
3.0
  0
ENDBLK
  5
108
330
106
100
AcDbEntity
  8
0
100
AcDbBlockEnd
  0
BLOCK
  5
10A
330
109
100
AcDbEntity
  8
0
100
AcDbBlockBegin
  2
DC_GROUP_ESB-165標準_30
 70
     0
 10
0.0
 20
0.0
 30
0.0
  3
DC_GROUP_ESB-165標準_30
  1

  0
CIRCLE
  5
271
330
109
100
AcDbEntity
  8
0
  6
Continuous
 62
    91
370
    18
100
AcDbCircle
 10
209.5354798151108
 20
-18.28090568817375
 30
0.0
 40
3.3
  0
CIRCLE
  5
272
330
109
100
AcDbEntity
  8
0
  6
Continuous
 62
     4
370
    18
100
AcDbCircle
 10
209.5354798151108
 20
-18.28090568817375
 30
0.0
 40
4.0
  0
ENDBLK
  5
10B
330
109
100
AcDbEntity
  8
0
100
AcDbBlockEnd
  0
BLOCK
  5
10D
330
10C
100
AcDbEntity
  8
0
100
AcDbBlockBegin
  2
DC_GROUP_ESB-165標準_31
 70
     0
 10
0.0
 20
0.0
 30
0.0
  3
DC_GROUP_ESB-165標準_31
  1

  0
CIRCLE
  5
273
330
10C
100
AcDbEntity
  8
0
  6
Continuous
 62
    91
370
    18
100
AcDbCircle
 10
151.5354798151112
 20
-18.28090568817375
 30
0.0
 40
3.3
  0
CIRCLE
  5
274
330
10C
100
AcDbEntity
  8
0
  6
Continuous
 62
     4
370
    18
100
AcDbCircle
 10
151.5354798151112
 20
-18.28090568817375
 30
0.0
 40
4.0
  0
ENDBLK
  5
10E
330
10C
100
AcDbEntity
  8
0
100
AcDbBlockEnd
  0
BLOCK
  5
110
330
10F
100
AcDbEntity
  8
0
100
AcDbBlockBegin
  2
DC_GROUP_ESB-165標準_32
 70
     0
 10
0.0
 20
0.0
 30
0.0
  3
DC_GROUP_ESB-165標準_32
  1

  0
CIRCLE
  5
275
330
10F
100
AcDbEntity
  8
0
  6
Continuous
 62
    91
370
    18
100
AcDbCircle
 10
143.035479815111
 20
-83.23281097200645
 30
0.0
 40
2.35
  0
CIRCLE
  5
276
330
10F
100
AcDbEntity
  8
0
  6
Continuous
 62
     4
370
    18
100
AcDbCircle
 10
143.035479815111
 20
-83.23281097200645
 30
0.0
 40
3.0
  0
ENDBLK
  5
111
330
10F
100
AcDbEntity
  8
0
100
AcDbBlockEnd
  0
BLOCK
  5
113
330
112
100
AcDbEntity
  8
0
100
AcDbBlockBegin
  2
DC_GROUP_ESB-165標準_33
 70
     0
 10
0.0
 20
0.0
 30
0.0
  3
DC_GROUP_ESB-165標準_33
  1

  0
CIRCLE
  5
277
330
112
100
AcDbEntity
  8
0
  6
Continuous
 62
     4
370
    18
100
AcDbCircle
 10
115.5835745312781
 20
-55.7809056881735
 30
0.0
 40
2.35
  0
CIRCLE
  5
278
330
112
100
AcDbEntity
  8
0
  6
Continuous
 62
    91
370
    18
100
AcDbCircle
 10
115.5835745312781
 20
-55.7809056881735
 30
0.0
 40
3.0
  0
ENDBLK
  5
114
330
112
100
AcDbEntity
  8
0
100
AcDbBlockEnd
  0
BLOCK
  5
116
330
115
100
AcDbEntity
  8
0
100
AcDbBlockBegin
  2
DC_GROUP_ESB-165標準_34
 70
     0
 10
0.0
 20
0.0
 30
0.0
  3
DC_GROUP_ESB-165標準_34
  1

  0
CIRCLE
  5
279
330
115
100
AcDbEntity
  8
0
  6
Continuous
 62
    91
370
    18
100
AcDbCircle
 10
105.5354798151111
 20
-18.28090568817355
 30
0.0
 40
2.35
  0
CIRCLE
  5
27A
330
115
100
AcDbEntity
  8
0
  6
Continuous
 62
     4
370
    18
100
AcDbCircle
 10
105.5354798151111
 20
-18.28090568817355
 30
0.0
 40
3.0
  0
ENDBLK
  5
117
330
115
100
AcDbEntity
  8
0
100
AcDbBlockEnd
  0
BLOCK
  5
119
330
118
100
AcDbEntity
  8
0
100
AcDbBlockBegin
  2
DC_GROUP_ESB-165標準_35
 70
     0
 10
0.0
 20
0.0
 30
0.0
  3
DC_GROUP_ESB-165標準_35
  1

  0
CIRCLE
  5
27B
330
118
100
AcDbEntity
  8
0
  6
Continuous
 62
     4
370
    18
100
AcDbCircle
 10
115.5835745312782
 20
19.21909431182651
 30
0.0
 40
2.35
  0
CIRCLE
  5
27C
330
118
100
AcDbEntity
  8
0
  6
Continuous
 62
    91
370
    18
100
AcDbCircle
 10
115.5835745312782
 20
19.21909431182651
 30
0.0
 40
3.0
  0
ENDBLK
  5
11A
330
118
100
AcDbEntity
  8
0
100
AcDbBlockEnd
  0
BLOCK
  5
11C
330
11B
100
AcDbEntity
  8
0
100
AcDbBlockBegin
  2
DC_GROUP_ESB-165標準_36
 70
     0
 10
0.0
 20
0.0
 30
0.0
  3
DC_GROUP_ESB-165標準_36
  1

  0
CIRCLE
  5
27D
330
11B
100
AcDbEntity
  8
0
  6
Continuous
 62
    91
370
    18
100
AcDbCircle
 10
143.035479815111
 20
46.67099959565934
 30
0.0
 40
2.35
  0
CIRCLE
  5
27E
330
11B
100
AcDbEntity
  8
0
  6
Continuous
 62
     4
370
    18
100
AcDbCircle
 10
143.035479815111
 20
46.67099959565934
 30
0.0
 40
3.0
  0
ENDBLK
  5
11D
330
11B
100
AcDbEntity
  8
0
100
AcDbBlockEnd
  0
BLOCK
  5
11F
330
11E
100
AcDbEntity
  8
0
100
AcDbBlockBegin
  2
DC_GROUP_ESB-165標準_37
 70
     0
 10
0.0
 20
0.0
 30
0.0
  3
DC_GROUP_ESB-165標準_37
  1

  0
CIRCLE
  5
27F
330
11E
100
AcDbEntity
  8
0
  6
Continuous
 62
     4
370
    18
100
AcDbCircle
 10
180.535479815111
 20
56.71909431182654
 30
0.0
 40
2.35
  0
CIRCLE
  5
280
330
11E
100
AcDbEntity
  8
0
  6
Continuous
 62
    91
370
    18
100
AcDbCircle
 10
180.535479815111
 20
56.71909431182654
 30
0.0
 40
3.000000000000001
  0
ENDBLK
  5
120
330
11E
100
AcDbEntity
  8
0
100
AcDbBlockEnd
  0
BLOCK
  5
122
330
121
100
AcDbEntity
  8
0
100
AcDbBlockBegin
  2
DC_GROUP_ESB-165標準_38
 70
     0
 10
0.0
 20
0.0
 30
0.0
  3
DC_GROUP_ESB-165標準_38
  1

  0
CIRCLE
  5
281
330
121
100
AcDbEntity
  8
0
  6
Continuous
 62
     4
370
    18
100
AcDbCircle
 10
180.535479815111
 20
-93.28090568817373
 30
0.0
 40
2.35
  0
CIRCLE
  5
282
330
121
100
AcDbEntity
  8
0
  6
Continuous
 62
    91
370
    18
100
AcDbCircle
 10
180.535479815111
 20
-93.28090568817373
 30
0.0
 40
3.000000000000001
  0
ENDBLK
  5
123
330
121
100
AcDbEntity
  8
0
100
AcDbBlockEnd
  0
BLOCK
  5
125
330
124
100
AcDbEntity
  8
0
100
AcDbBlockBegin
  2
DC_GROUP_ESB-165標準_39
 70
     0
 10
0.0
 20
0.0
 30
0.0
  3
DC_GROUP_ESB-165標準_39
  1

  0
LINE
  5
283
330
124
100
AcDbEntity
  8
0
  6
Continuous
 62
     4
370
    25
100
AcDbLine
 10
-269.9182744552368
 20
-15.40169721021704
 30
0.0
 11
-270.9176652822541
 21
-15.36679771346168
 31
0.0
  0
LINE
  5
284
330
124
100
AcDbEntity
  8
0
  6
Continuous
 62
     4
370
    25
100
AcDbLine
 10
-263.6885926583427
 20
-49.85228885829324
 30
0.0
 11
-264.612472190854
 21
-50.23497229065829
 31
0.0
  0
LINE
  5
285
330
124
100
AcDbEntity
  8
0
  6
Continuous
 62
     4
370
    25
100
AcDbLine
 10
-243.7333959313175
 20
-78.61758607175483
 30
0.0
 11
-244.4153942913414
 21
-79.34893977341011
 31
0.0
  0
ARC
  5
286
330
124
100
AcDbEntity
  8
0
  6
Continuous
 62
     4
370
    25
100
AcDbCircle
 10
-187.4685312261614
 20
-18.28090568817333
 30
0.0
 40
83.5
100
AcDbArc
 50
177.9999999999637
 51
227.0000000000363
  0
ENDBLK
  5
126
330
124
100
AcDbEntity
  8
0
100
AcDbBlockEnd
  0
BLOCK
  5
128
330
127
100
AcDbEntity
  8
0
100
AcDbBlockBegin
  2
DC_GROUP_ESB-165標準_40
 70
     0
 10
0.0
 20
0.0
 30
0.0
  3
DC_GROUP_ESB-165標準_40
  1

  0
CIRCLE
  5
287
330
127
100
AcDbEntity
  8
0
  6
Continuous
 62
     3
370
    25
100
AcDbCircle
 10
-115.0240942544813
 20
1.130522694515676
 30
0.0
 40
2.458500000000001
  0
CIRCLE
  5
288
330
127
100
AcDbEntity
  8
0
  6
Continuous
 62
     4
370
    18
100
AcDbCircle
 10
-115.0240942544813
 20
1.130522694515676
 30
0.0
 40
3.0
  0
ENDBLK
  5
129
330
127
100
AcDbEntity
  8
0
100
AcDbBlockEnd
  0
BLOCK
  5
12B
330
12A
100
AcDbEntity
  8
0
100
AcDbBlockBegin
  2
DC_GROUP_ESB-165標準_41
 70
     0
 10
0.0
 20
0.0
 30
0.0
  3
DC_GROUP_ESB-165標準_41
  1

  0
CIRCLE
  5
289
330
12A
100
AcDbEntity
  8
0
  6
Continuous
 62
     3
370
    25
100
AcDbCircle
 10
-259.9129681978417
 20
-37.69233407086237
 30
0.0
 40
2.458499999999987
  0
CIRCLE
  5
28A
330
12A
100
AcDbEntity
  8
0
  6
Continuous
 62
     4
370
    18
100
AcDbCircle
 10
-259.9129681978417
 20
-37.69233407086237
 30
0.0
 40
3.0
  0
ENDBLK
  5
12C
330
12A
100
AcDbEntity
  8
0
100
AcDbBlockEnd
  0
ENDSEC
  0
SECTION
  2
ENTITIES
  0
LINE
  5
28B
330
1F
100
AcDbEntity
  8
0
  6
Continuous
 62
     4
370
    18
100
AcDbLine
 10
-275.3556746254828
 20
-18.28090568817333
 30
0.0
 11
-99.21202874203749
 21
-18.28090568817333
 31
0.0
  0
LINE
  5
28C
330
1F
100
AcDbEntity
  8
0
  6
Continuous
 62
     4
370
    18
100
AcDbLine
 10
-260.6734148659199
 20
23.98395358723636
 30
0.0
 11
-244.7968646441383
 21
14.81762304288816
 31
0.0
  0
LINE
  5
28D
330
1F
100
AcDbEntity
  8
0
  6
Continuous
 62
     4
370
    18
100
AcDbLine
 10
-269.550938838968
 20
-40.27482052082708
 30
0.0
 11
-251.8448264584513
 21
-35.53048200737292
 31
0.0
  0
LINE
  5
28E
330
1F
100
AcDbEntity
  8
0
  6
Continuous
 62
     4
370
    18
100
AcDbLine
 10
-230.224846427207
 20
-92.33701596081349
 30
0.0
 11
-220.4415257201111
 21
-75.3918074293829
 31
0.0
  0
LINE
  5
28F
330
1F
100
AcDbEntity
  8
0
  6
Continuous
 62
     4
370
    18
100
AcDbLine
 10
-187.4685312261614
 20
77.77462196776216
 30
0.0
 11
-187.4685312261614
 21
-104.8890714585732
 31
0.0
  0
LINE
  5
290
330
1F
100
AcDbEntity
  8
0
  6
Continuous
 62
     4
370
    18
100
AcDbLine
 10
-114.2636475864032
 20
-60.54576496358305
 30
0.0
 11
-130.1401978081848
 21
-51.37943441923483
 31
0.0
  0
LINE
  5
291
330
1F
100
AcDbEntity
  8
0
  6
Continuous
 62
     4
370
    18
100
AcDbLine
 10
-105.386123613355
 20
3.713009144480438
 30
0.0
 11
-123.0922359938717
 21
-1.031329368973715
 31
0.0
  0
LINE
  5
292
330
1F
100
AcDbEntity
  8
0
  6
Continuous
 62
     4
370
    18
100
AcDbLine
 10
-144.7122160251161
 20
55.77520458446685
 30
0.0
 11
-154.4955367322118
 21
38.82999605303624
 31
0.0
  0
LINE
  5
293
330
1F
100
AcDbEntity
  8
0
  6
Continuous
 62
     4
370
    18
100
AcDbLine
 10
-229.4673109885858
 20
54.46311471624125
 30
0.0
 11
-220.8162824924663
 21
39.47909382323584
 31
0.0
  0
LINE
  5
294
330
1F
100
AcDbEntity
  8
0
  6
Continuous
 62
     4
370
    18
100
AcDbLine
 10
-140.7416670495867
 20
-99.21420852037082
 30
0.0
 11
-154.1207799598566
 21
-76.0409051995826
 31
0.0
  0
LINE
  5
295
330
1F
100
AcDbEntity
  8
0
  6
Continuous
 62
     4
370
    18
100
AcDbLine
 10
-113.8754578640188
 20
24.20807502795161
 30
0.0
 11
-129.7503239318413
 21
15.04271683034509
 31
0.0
  0
LINE
  5
296
330
1F
100
AcDbEntity
  8
0
  6
Continuous
 62
     4
370
    18
100
AcDbLine
 10
-261.0616045883041
 20
-60.76988640429826
 30
0.0
 11
-245.1867385204818
 21
-51.60452820669175
 31
0.0
  0
CIRCLE
  5
297
330
1F
100
AcDbEntity
  8
0
  6
Continuous
 62
     4
370
    18
100
AcDbCircle
 10
-187.4685312261614
 20
-18.28090568817333
 30
0.0
 40
75.0
  0
LINE
  5
298
330
1F
100
AcDbEntity
  8
0
  6
Continuous
 62
     4
370
    18
100
AcDbLine
 10
-219.5785511474004
 20
101.5553200899396
 30
0.0
 11
-207.4058268633187
 21
56.12609459521914
 31
0.0
  0
LINE
  5
299
330
1F
100
AcDbEntity
  8
0
  6
Continuous
 62
     4
370
    18
100
AcDbLine
 10
-68.0287055812301
 20
-18.28090568817358
 30
0.0
 11
47.49870301649679
 21
-18.28090568817358
 31
0.0
  0
LINE
  5
29A
330
1F
100
AcDbEntity
  8
0
  6
Continuous
 62
     4
370
    18
100
AcDbLine
 10
-66.50916574494619
 20
56.71909431182644
 30
0.0
 11
46.47484656945124
 21
56.71909431182644
 31
0.0
  0
LINE
  5
29B
330
1F
100
AcDbEntity
  8
0
  6
Continuous
 62
     4
370
    18
100
AcDbLine
 10
-66.50916574494619
 20
-93.2809056881736
 30
0.0
 11
35.09613324113934
 21
-93.2809056881736
 31
0.0
  0
LINE
  5
29C
330
1F
100
AcDbEntity
  8
0
  6
Continuous
 62
     4
370
    18
100
AcDbLine
 10
-26.1570994737179
 20
66.71909431182624
 30
0.0
 11
-26.1570994737179
 21
62.90034218215195
 31
0.0
  0
LINE
  5
29D
330
1F
100
AcDbEntity
  8
0
  6
Continuous
 62
     4
370
    18
100
AcDbLine
 10
23.3429005262821
 20
80.19785780497034
 30
0.0
 11
23.3429005262821
 21
61.29621160085173
 31
0.0
  0
LINE
  5
29E
330
1F
100
AcDbEntity
  8
0
  6
Continuous
 62
     4
370
    18
100
AcDbLine
 10
-4.292604946434782
 20
-47.7809056881736
 30
0.0
 11
20.44426256427334
 21
-47.7809056881736
 31
0.0
  0
LINE
  5
29F
330
1F
100
AcDbEntity
  8
0
  6
Continuous
 62
     4
370
    18
100
AcDbLine
 10
11.97004717678231
 20
35.71909431182644
 30
0.0
 11
34.50193851383124
 21
35.71909431182644
 31
0.0
  0
LINE
  5
2A0
330
1F
100
AcDbEntity
  8
0
  6
Continuous
 62
     4
370
    18
100
AcDbLine
 10
-24.85709947371738
 20
65.67860956516046
 30
0.0
 11
-24.85709947371749
 21
104.8890714585735
 31
0.0
  0
LINE
  5
2A1
330
1F
100
AcDbEntity
  8
0
  6
Continuous
 62
     4
370
    18
100
AcDbLine
 10
-27.4570994737174
 20
65.69339648316404
 30
0.0
 11
-27.45709947371751
 21
104.8890714585735
 31
0.0
  0
LINE
  5
2A2
330
1F
100
AcDbEntity
  8
0
  6
Continuous
 62
     4
370
    18
100
AcDbLine
 10
11.62084677864373
 20
-71.28090568817359
 30
0.0
 11
17.50519291638789
 21
-71.28090568817359
 31
0.0
  0
LINE
  5
2A3
330
1F
100
AcDbEntity
  8
0
  6
Continuous
 62
     4
370
    18
100
AcDbLine
 10
92.64833641578966
 20
-18.28090568817363
 30
0.0
 11
268.791982299235
 21
-18.28090568817363
 31
0.0
  0
LINE
  5
2A4
330
1F
100
AcDbEntity
  8
0
  6
Continuous
 62
     4
370
    18
100
AcDbLine
 10
222.7974551115693
 20
-91.48079412986031
 30
0.0
 11
214.3041241858859
 21
-76.76991344108033
 31
0.0
  0
LINE
  5
2A5
330
1F
100
AcDbEntity
  8
0
  6
Continuous
 62
     4
370
    18
100
AcDbLine
 10
253.1335352223115
 20
-60.19541252016433
 30
0.0
 11
238.9046629890126
 21
-51.98036930600429
 31
0.0
  0
LINE
  5
2A6
330
1F
100
AcDbEntity
  8
0
  6
Continuous
 62
     4
370
    18
100
AcDbLine
 10
254.0183764390094
 20
24.14446445846743
 30
0.0
 11
238.8011084425856
 21
15.35877068440152
 31
0.0
  0
LINE
  5
2A7
330
1F
100
AcDbEntity
  8
0
  6
Continuous
 62
     4
370
    18
100
AcDbLine
 10
222.9826898827592
 20
55.23981878854194
 30
0.0
 11
214.4410574474271
 21
40.44527743096864
 31
0.0
  0
LINE
  5
2A8
330
1F
100
AcDbEntity
  8
0
  6
Continuous
 62
     4
370
    18
100
AcDbLine
 10
249.9486799998821
 20
51.13229449659734
 30
0.0
 11
236.0559383388882
 21
37.23955283560345
 31
0.0
  0
LINE
  5
2A9
330
1F
100
AcDbEntity
  8
0
  6
Continuous
 62
     4
370
    18
100
AcDbLine
 10
275.3556746254828
 20
7.126088937427326
 30
0.0
 11
256.3778365883509
 21
2.040992561289102
 31
0.0
  0
CIRCLE
  5
2AA
330
1F
100
AcDbEntity
  8
0
  6
Continuous
 62
     4
370
    18
100
AcDbCircle
 10
180.535479815111
 20
-18.2809056881737
 30
0.0
 40
29.0
  0
CIRCLE
  5
2AB
330
1F
100
AcDbEntity
  8
0
  6
Continuous
 62
     4
370
    18
100
AcDbCircle
 10
180.535479815111
 20
-18.28090568817358
 30
0.0
 40
75.0
  0
LINE
  5
2AC
330
1F
100
AcDbEntity
  8
0
  6
Continuous
 62
     4
370
    18
100
AcDbLine
 10
138.0882697474628
 20
-91.8016301648891
 30
0.0
 11
146.629902182795
 21
-77.00708880731585
 31
0.0
  0
LINE
  5
2AD
330
1F
100
AcDbEntity
  8
0
  6
Continuous
 62
     4
370
    18
100
AcDbLine
 10
107.0525831912126
 20
-60.70627583481463
 30
0.0
 11
122.2698511876364
 21
-51.92058206074873
 31
0.0
  0
LINE
  5
2AE
330
1F
100
AcDbEntity
  8
0
  6
Continuous
 62
     4
370
    18
100
AcDbLine
 10
107.9374244079105
 20
23.63360114381713
 30
0.0
 11
122.1662966412096
 21
15.4185579296571
 31
0.0
  0
LINE
  5
2AF
330
1F
100
AcDbEntity
  8
0
  6
Continuous
 62
     4
370
    18
100
AcDbLine
 10
138.2735045186527
 20
54.91898275351315
 30
0.0
 11
146.7668354443364
 21
40.20810206473314
 31
0.0
  0
LINE
  5
2B0
330
1F
100
AcDbEntity
  8
0
  6
Continuous
 62
     4
370
    18
100
AcDbLine
 10
206.0349829603861
 20
76.88453561775503
 30
0.0
 11
189.0098189347665
 21
13.34575846694939
 31
0.0
  0
LINE
  5
2B1
330
1F
100
AcDbEntity
  8
0
  6
Continuous
 62
     4
370
    18
100
AcDbLine
 10
180.535479815111
 20
80.71146152029274
 30
0.0
 11
180.535479815111
 21
-104.8890714585735
 31
0.0
  0
LINE
  5
2B2
330
1F
100
AcDbEntity
  8
0
  6
Continuous
 62
     4
370
    18
100
AcDbLine
 10
212.64549973635
 20
101.5553200899392
 30
0.0
 11
200.4727754522684
 21
56.12609459521885
 31
0.0
  0
CIRCLE
  5
2B3
330
1F
100
AcDbEntity
  8
0
  6
Continuous
 62
     4
370
    18
100
AcDbCircle
 10
180.535479815111
 20
-18.28090568817363
 30
0.0
 40
54.0
  0
ARC
  5
2B4
330
1F
100
AcDbEntity
  8
0
  6
Continuous
 62
     4
370
    18
100
AcDbCircle
 10
-212.9219070290336
 20
76.71238603228994
 30
0.0
 40
1.3
100
AcDbArc
 50
14.99999999999974
 51
194.9999999999997
  0
CIRCLE
  5
2B5
330
1F
100
AcDbEntity
  8
0
  6
Continuous
 62
     4
370
    18
100
AcDbCircle
 10
-213.9335329810463
 20
80.48782548345605
 30
0.0
 40
1.3
  0
LINE
  5
2B6
330
1F
100
AcDbEntity
  8
0
  6
Continuous
 62
     4
370
    18
100
AcDbLine
 10
29.3429005262821
 20
44.21909431182644
 30
0.0
 11
28.02160064564981
 21
44.21909431182644
 31
0.0
  0
LINE
  5
2B7
330
1F
100
AcDbEntity
  8
0
  6
Continuous
 62
     4
370
    18
100
AcDbLine
 10
28.02160064564981
 20
-80.7809056881736
 30
0.0
 11
29.3429005262821
 21
-80.7809056881736
 31
0.0
  0
LINE
  5
2B8
330
1F
100
AcDbEntity
  8
0
  6
Continuous
 62
     4
370
    18
100
AcDbLine
 10
27.3429005262821
 20
-90.2809056881736
 30
0.0
 11
31.8429005262821
 21
-90.2809056881736
 31
0.0
  0
LINE
  5
2B9
330
1F
100
AcDbEntity
  8
0
  6
Continuous
 62
     4
370
    18
100
AcDbLine
 10
27.3429005262821
 20
-96.2809056881736
 30
0.0
 11
31.8429005262821
 21
-96.2809056881736
 31
0.0
  0
LINE
  5
2BA
330
1F
100
AcDbEntity
  8
0
  6
Continuous
 62
     4
370
    18
100
AcDbLine
 10
16.52160064564981
 20
43.56909431182635
 30
0.0
 11
28.02160064564981
 21
43.56909431182635
 31
0.0
  0
CIRCLE
  5
2BB
330
1F
100
AcDbEntity
  8
0
  6
Continuous
 62
     4
370
    18
100
AcDbCircle
 10
-27.4570994737174
 20
78.88113563114834
 30
0.0
 40
1.3
  0
ARC
  5
2BC
330
1F
100
AcDbEntity
  8
0
  6
Continuous
 62
     4
370
    18
100
AcDbCircle
 10
-24.85709947371749
 20
78.88113563114834
 30
0.0
 40
1.3
100
AcDbArc
 50
0.0
 51
180.0
  0
ARC
  5
2BD
330
1F
100
AcDbEntity
  8
0
  6
Continuous
 62
     4
370
    18
100
AcDbCircle
 10
-27.45709947371751
 20
83.78975816552105
 30
0.0
 40
1.3
100
AcDbArc
 50
180.0
 51
0.0
  0
CIRCLE
  5
2BE
330
1F
100
AcDbEntity
  8
0
  6
Continuous
 62
     4
370
    18
100
AcDbCircle
 10
-24.85709947371749
 20
83.78975816552114
 30
0.0
 40
1.3
  0
LINE
  5
2BF
330
1F
100
AcDbEntity
  8
0
  6
Continuous
 62
     4
370
    18
100
AcDbLine
 10
28.02160064564981
 20
-80.1309056881736
 30
0.0
 11
16.52160064564981
 21
-80.1309056881736
 31
0.0
  0
CIRCLE
  5
2C0
330
1F
100
AcDbEntity
  8
0
  6
Continuous
 62
     4
370
    18
100
AcDbCircle
 10
180.535479815111
 20
-18.28090568817358
 30
0.0
 40
62.5
  0
CIRCLE
  5
2C1
330
1F
100
AcDbEntity
  8
0
  6
Continuous
 62
     4
370
    18
100
AcDbCircle
 10
180.535479815111
 20
-18.28090568817358
 30
0.0
 40
36.9
  0
ARC
  5
2C2
330
1F
100
AcDbEntity
  8
0
  6
Continuous
 62
     4
370
    18
100
AcDbCircle
 10
205.9888556179833
 20
76.71238603228966
 30
0.0
 40
1.3
100
AcDbArc
 50
345.0000000000002
 51
165.0000000000003
  0
CIRCLE
  5
2C3
330
1F
100
AcDbEntity
  8
0
  6
Continuous
 62
     4
370
    18
100
AcDbCircle
 10
207.0004815699959
 20
80.48782548345574
 30
0.0
 40
1.3
  0
LINE
  5
2C4
330
1F
100
AcDbEntity
  8
0
  6
Continuous
 62
     4
370
    18
100
AcDbLine
 10
14.04290052628209
 20
63.91909431182646
 30
0.0
 11
14.04290052628209
 21
28.51909431182641
 31
0.0
  0
LINE
  5
2C5
330
1F
100
AcDbEntity
  8
0
  6
Continuous
 62
     4
370
    18
100
AcDbLine
 10
15.64290052628217
 20
66.51909431182645
 30
0.0
 11
31.0429005262821
 21
66.51909431182645
 31
0.0
  0
LINE
  5
2C6
330
1F
100
AcDbEntity
  8
0
  6
Continuous
 62
     4
370
    18
100
AcDbLine
 10
31.0429005262821
 20
66.51909431182645
 30
0.0
 11
31.0429005262821
 21
64.21909431182644
 31
0.0
  0
LINE
  5
2C7
330
1F
100
AcDbEntity
  8
0
  6
Continuous
 62
     4
370
    18
100
AcDbLine
 10
14.04290052628209
 20
28.51909431182641
 30
0.0
 11
16.3429005262821
 21
28.51909431182641
 31
0.0
  0
LINE
  5
2C8
330
1F
100
AcDbEntity
  8
0
  6
Continuous
 62
     4
370
    18
100
AcDbLine
 10
31.04290052628215
 20
69.01909431182645
 30
0.0
 11
15.64290052628217
 21
69.01909431182645
 31
0.0
  0
LINE
  5
2C9
330
1F
100
AcDbEntity
  8
0
  6
Continuous
 62
     4
370
    18
100
AcDbLine
 10
15.64290052628217
 20
69.01909431182645
 30
0.0
 11
15.64290052628217
 21
66.51909431182645
 31
0.0
  0
LINE
  5
2CA
330
1F
100
AcDbEntity
  8
0
  6
Continuous
 62
     4
370
    18
100
AcDbLine
 10
31.04290052628215
 20
69.01909431182645
 30
0.0
 11
31.04290052628215
 21
66.51909431182645
 31
0.0
  0
LINE
  5
2CB
330
1F
100
AcDbEntity
  8
0
  6
Continuous
 62
     4
370
    18
100
AcDbLine
 10
16.84290052628216
 20
69.01909431182645
 30
0.0
 11
16.84290052628216
 21
76.51909431182634
 31
0.0
  0
LINE
  5
2CC
330
1F
100
AcDbEntity
  8
0
  6
Continuous
 62
     4
370
    18
100
AcDbLine
 10
29.84290052628216
 20
69.01909431182645
 30
0.0
 11
29.84290052628216
 21
76.51909431182634
 31
0.0
  0
LINE
  5
2CD
330
1F
100
AcDbEntity
  8
0
  6
Continuous
 62
     4
370
    18
100
AcDbLine
 10
16.84290052628216
 20
76.51909431182634
 30
0.0
 11
17.70892633385125
 21
77.01909431182634
 31
0.0
  0
LINE
  5
2CE
330
1F
100
AcDbEntity
  8
0
  6
Continuous
 62
     4
370
    18
100
AcDbLine
 10
29.84290052628216
 20
76.51909431182634
 30
0.0
 11
28.97687471871308
 21
77.01909431182634
 31
0.0
  0
LINE
  5
2CF
330
1F
100
AcDbEntity
  8
0
  6
Continuous
 62
     4
370
    18
100
AcDbLine
 10
28.97687471871308
 20
77.01909431182634
 30
0.0
 11
17.70892633385125
 21
77.01909431182634
 31
0.0
  0
LINE
  5
2D0
330
1F
100
AcDbEntity
  8
0
  6
Continuous
 62
     4
370
    18
100
AcDbLine
 10
29.84290052628216
 20
76.51909431182634
 30
0.0
 11
16.84290052628216
 21
76.51909431182634
 31
0.0
  0
LINE
  5
2D1
330
1F
100
AcDbEntity
  8
0
  6
Continuous
 62
     4
370
    18
100
AcDbLine
 10
16.3429005262821
 20
28.51909431182641
 30
0.0
 11
16.3429005262821
 21
63.21909431182644
 31
0.0
  0
LINE
  5
2D2
330
1F
100
AcDbEntity
  8
0
  6
Continuous
 62
     4
370
    18
100
AcDbLine
 10
18.8429005262821
 20
64.21909431182644
 30
0.0
 11
17.3429005262821
 21
64.21909431182644
 31
0.0
  0
ARC
  5
2D3
330
1F
100
AcDbEntity
  8
0
  6
Continuous
 62
     4
370
    18
100
AcDbCircle
 10
17.3429005262821
 20
63.21909431182644
 30
0.0
 40
1.0
100
AcDbArc
 50
90.0
 51
180.0
  0
ARC
  5
2D4
330
1F
100
AcDbEntity
  8
0
  6
Continuous
 62
     4
370
    18
100
AcDbCircle
 10
16.64290052628206
 20
63.91909431182646
 30
0.0
 40
2.6
100
AcDbArc
 50
90.0
 51
180.0
  0
LINE
  5
2D5
330
1F
100
AcDbEntity
  8
0
  6
Continuous
 62
     4
370
    18
100
AcDbLine
 10
3.842900526282104
 20
47.71909431182644
 30
0.0
 11
3.842900526282104
 21
56.71909431182644
 31
0.0
  0
LINE
  5
2D6
330
1F
100
AcDbEntity
  8
0
  6
Continuous
 62
     4
370
    18
100
AcDbLine
 10
6.342900526282104
 20
47.71909431182644
 30
0.0
 11
6.342900526282104
 21
56.71909431182644
 31
0.0
  0
LINE
  5
2D7
330
1F
100
AcDbEntity
  8
0
  6
Continuous
 62
     4
370
    18
100
AcDbLine
 10
10.79695898026369
 20
47.71909431182644
 30
0.0
 11
10.79695898026369
 21
56.71909431182644
 31
0.0
  0
LINE
  5
2D8
330
1F
100
AcDbEntity
  8
0
  6
Continuous
 62
     4
370
    18
100
AcDbLine
 10
13.3429005262821
 20
47.71909431182644
 30
0.0
 11
13.3429005262821
 21
56.71909431182644
 31
0.0
  0
LINE
  5
2D9
330
1F
100
AcDbEntity
  8
0
  6
Continuous
 62
     4
370
    18
100
AcDbLine
 10
231.8007214511358
 20
47.12647157158204
 30
0.0
 11
245.9428570748668
 21
32.98433594785105
 31
0.0
  0
LINE
  5
2DA
330
1F
100
AcDbEntity
  8
0
  6
Continuous
 62
     4
370
    18
100
AcDbLine
 10
247.5692026715956
 20
34.61068154458015
 30
0.0
 11
233.4270670478649
 21
48.75281716831104
 31
0.0
  0
LINE
  5
2DB
330
1F
100
AcDbEntity
  8
0
  6
Continuous
 62
     4
370
    18
100
AcDbLine
 10
233.4270670478649
 20
48.75281716831104
 30
0.0
 11
231.3705861127478
 21
46.69633623319415
 31
0.0
  0
LINE
  5
2DC
330
1F
100
AcDbEntity
  8
0
  6
Continuous
 62
     4
370
    18
100
AcDbLine
 10
245.5127217364789
 20
32.55420060946325
 30
0.0
 11
247.5692026715956
 21
34.61068154458015
 31
0.0
  0
LINE
  5
2DD
330
1F
100
AcDbEntity
  8
0
  6
Continuous
 62
     4
370
    18
100
AcDbLine
 10
247.3570706372399
 20
37.65124070368225
 30
0.0
 11
236.4676262069669
 21
48.54068513395505
 31
0.0
  0
LINE
  5
2DE
330
1F
100
AcDbEntity
  8
0
  6
Continuous
 62
     4
370
    18
100
AcDbLine
 10
236.4676262069669
 20
48.54068513395505
 30
0.0
 11
235.0534126445939
 21
47.12647157158194
 31
0.0
  0
LINE
  5
2DF
330
1F
100
AcDbEntity
  8
0
  6
Continuous
 62
     4
370
    18
100
AcDbLine
 10
247.3570706372399
 20
37.65124070368225
 30
0.0
 11
245.9428570748668
 21
36.23702714130914
 31
0.0
  0
LINE
  5
2E0
330
1F
100
AcDbEntity
  8
0
  6
Continuous
 62
     4
370
    18
100
AcDbLine
 10
237.3161543443909
 20
47.69215699653124
 30
0.0
 11
242.61945520329
 21
52.99545785543035
 31
0.0
  0
LINE
  5
2E1
330
1F
100
AcDbEntity
  8
0
  6
Continuous
 62
     4
370
    18
100
AcDbLine
 10
246.508542499816
 20
38.49976884110615
 30
0.0
 11
251.8118433587151
 21
43.80306970000524
 31
0.0
  0
LINE
  5
2E2
330
1F
100
AcDbEntity
  8
0
  6
Continuous
 62
     4
370
    18
100
AcDbLine
 10
242.61945520329
 20
52.99545785543035
 30
0.0
 11
243.5853813150979
 21
52.73663852480894
 31
0.0
  0
LINE
  5
2E3
330
1F
100
AcDbEntity
  8
0
  6
Continuous
 62
     4
370
    18
100
AcDbLine
 10
251.8118433587151
 20
43.80306970000524
 30
0.0
 11
251.5530240280937
 21
44.76899581181314
 31
0.0
  0
LINE
  5
2E4
330
1F
100
AcDbEntity
  8
0
  6
Continuous
 62
     4
370
    18
100
AcDbLine
 10
251.5530240280937
 20
44.76899581181314
 30
0.0
 11
243.5853813150979
 21
52.73663852480894
 31
0.0
  0
LINE
  5
2E5
330
1F
100
AcDbEntity
  8
0
  6
Continuous
 62
     4
370
    18
100
AcDbLine
 10
251.8118433587151
 20
43.80306970000524
 30
0.0
 11
242.61945520329
 21
52.99545785543035
 31
0.0
  0
LINE
  5
2E6
330
1F
100
AcDbEntity
  8
0
  6
Continuous
 62
     4
370
    18
100
AcDbLine
 10
257.636170032934
 20
12.730923795675
 30
0.0
 11
262.8125509349845
 21
-6.587592730106337
 31
0.0
  0
LINE
  5
2E7
330
1F
100
AcDbEntity
  8
0
  6
Continuous
 62
     4
370
    18
100
AcDbLine
 10
265.0341803354493
 20
-5.992308926370526
 30
0.0
 11
259.8577994333988
 21
13.32620759941084
 31
0.0
  0
LINE
  5
2E8
330
1F
100
AcDbEntity
  8
0
  6
Continuous
 62
     4
370
    18
100
AcDbLine
 10
259.8577994333988
 20
13.32620759941084
 30
0.0
 11
257.0485942336309
 21
12.57348333475967
 31
0.0
  0
LINE
  5
2E9
330
1F
100
AcDbEntity
  8
0
  6
Continuous
 62
     4
370
    18
100
AcDbLine
 10
262.2249751356812
 20
-6.745033191021676
 30
0.0
 11
265.0341803354493
 21
-5.992308926370526
 31
0.0
  0
LINE
  5
2EA
330
1F
100
AcDbEntity
  8
0
  6
Continuous
 62
     4
370
    18
100
AcDbLine
 10
266.3707481842916
 20
-3.253041435700638
 30
0.0
 11
262.3849348897128
 21
11.62221628915101
 31
0.0
  0
LINE
  5
2EB
330
1F
100
AcDbEntity
  8
0
  6
Continuous
 62
     4
370
    18
100
AcDbLine
 10
262.3849348897128
 20
11.62221628915101
 30
0.0
 11
260.4530832371348
 21
11.10457819894593
 31
0.0
  0
LINE
  5
2EC
330
1F
100
AcDbEntity
  8
0
  6
Continuous
 62
     4
370
    18
100
AcDbLine
 10
266.3707481842916
 20
-3.253041435700638
 30
0.0
 11
264.4388965317133
 21
-3.770679525905678
 31
0.0
  0
LINE
  5
2ED
330
1F
100
AcDbEntity
  8
0
  6
Continuous
 62
     4
370
    18
100
AcDbLine
 10
262.6955177438359
 20
10.46310529760412
 30
0.0
 11
269.9399614410037
 21
12.40424813587303
 31
0.0
  0
LINE
  5
2EE
330
1F
100
AcDbEntity
  8
0
  6
Continuous
 62
     4
370
    18
100
AcDbLine
 10
266.0601653301686
 20
-2.093930444153727
 30
0.0
 11
273.3046090273367
 21
-0.1527876058848676
 31
0.0
  0
LINE
  5
2EF
330
1F
100
AcDbEntity
  8
0
  6
Continuous
 62
     4
370
    18
100
AcDbLine
 10
269.9399614410037
 20
12.40424813587303
 30
0.0
 11
270.6470683266975
 21
11.69714096466048
 31
0.0
  0
LINE
  5
2F0
330
1F
100
AcDbEntity
  8
0
  6
Continuous
 62
     4
370
    18
100
AcDbLine
 10
273.3046090273367
 20
-0.1527876058848676
 30
0.0
 11
273.5634279679319
 21
0.8131386104302294
 31
0.0
  0
LINE
  5
2F1
330
1F
100
AcDbEntity
  8
0
  6
Continuous
 62
     4
370
    18
100
AcDbLine
 10
273.5634279679319
 20
0.8131386104302294
 30
0.0
 11
270.6470683266975
 21
11.69714096466048
 31
0.0
  0
LINE
  5
2F2
330
1F
100
AcDbEntity
  8
0
  6
Continuous
 62
     4
370
    18
100
AcDbLine
 10
273.3046090273367
 20
-0.1527876058848676
 30
0.0
 11
269.9399614410037
 21
12.40424813587303
 31
0.0
  0
LINE
  5
2F3
330
1F
100
AcDbEntity
  8
0
  6
Continuous
 62
     4
370
    18
100
AcDbLine
 10
192.0713523122629
 20
63.40858963239654
 30
0.0
 11
188.4241528101713
 21
49.79705578525045
 31
0.0
  0
LINE
  5
2F4
330
1F
100
AcDbEntity
  8
0
  6
Continuous
 62
     4
370
    18
100
AcDbLine
 10
207.7426693359527
 20
44.62067488319994
 30
0.0
 11
211.3898688380444
 21
58.23220873034604
 31
0.0
  0
LINE
  5
2F5
330
1F
100
AcDbEntity
  8
0
  6
Continuous
 62
     4
370
    18
100
AcDbLine
 10
190.1919197631377
 20
46.73519360677145
 30
0.0
 11
185.403767428741
 21
28.86556582042363
 31
0.0
  0
LINE
  5
2F6
330
1F
100
AcDbEntity
  8
0
  6
Continuous
 62
     4
370
    18
100
AcDbLine
 10
199.8926548230771
 20
24.98328014388581
 30
0.0
 11
204.6808071574737
 21
42.85290793023354
 31
0.0
  0
LINE
  5
2F7
330
1F
100
AcDbEntity
  8
0
  6
Continuous
 62
     4
370
    18
100
AcDbLine
 10
185.403767428741
 20
28.86556582042363
 30
0.0
 11
199.8926548230771
 21
24.98328014388581
 31
0.0
  0
LINE
  5
2F8
330
1F
100
AcDbEntity
  8
0
  6
Continuous
 62
     4
370
    18
100
AcDbLine
 10
188.4241528101713
 20
49.79705578525045
 30
0.0
 11
190.1919197631375
 21
46.73519360677145
 31
0.0
  0
LINE
  5
2F9
330
1F
100
AcDbEntity
  8
0
  6
Continuous
 62
     4
370
    18
100
AcDbLine
 10
207.7426693359527
 20
44.62067488319994
 30
0.0
 11
204.6808071574737
 21
42.85290793023354
 31
0.0
  0
CIRCLE
  5
2FA
330
1F
100
AcDbEntity
  8
0
  6
Continuous
 62
    91
370
    18
100
AcDbCircle
 10
-187.4685312261614
 20
-18.28090568817333
 30
0.0
 40
82.5
  0
CIRCLE
  5
2FB
330
1F
100
AcDbEntity
  8
0
  6
Continuous
 62
    91
370
    18
100
AcDbCircle
 10
-252.4204365099943
 20
19.21909431182664
 30
0.0
 40
5.5
  0
CIRCLE
  5
2FC
330
1F
100
AcDbEntity
  8
0
  6
Continuous
 62
    91
370
    18
100
AcDbCircle
 10
-262.4685312261615
 20
-18.28090568817335
 30
0.0
 40
5.5
  0
CIRCLE
  5
2FD
330
1F
100
AcDbEntity
  8
0
  6
Continuous
 62
    91
370
    18
100
AcDbCircle
 10
-252.4204365099945
 20
-55.78090568817333
 30
0.0
 40
5.5
  0
CIRCLE
  5
2FE
330
1F
100
AcDbEntity
  8
0
  6
Continuous
 62
    91
370
    18
100
AcDbCircle
 10
-224.9685312261614
 20
-83.23281097200622
 30
0.0
 40
5.5
  0
CIRCLE
  5
2FF
330
1F
100
AcDbEntity
  8
0
  6
Continuous
 62
    91
370
    18
100
AcDbCircle
 10
-187.4685312261616
 20
-93.28090568817335
 30
0.0
 40
5.5
  0
CIRCLE
  5
300
330
1F
100
AcDbEntity
  8
0
  6
Continuous
 62
    91
370
    18
100
AcDbCircle
 10
-259.9129681978417
 20
-37.6923340708622
 30
0.0
 40
5.500000000000001
  0
CIRCLE
  5
301
330
1F
100
AcDbEntity
  8
0
  6
Continuous
 62
    91
370
    18
100
AcDbCircle
 10
-122.5166259423286
 20
-55.78090568817336
 30
0.0
 40
5.5
  0
CIRCLE
  5
302
330
1F
100
AcDbEntity
  8
0
  6
Continuous
 62
    91
370
    18
100
AcDbCircle
 10
-112.4685312261614
 20
-18.28090568817336
 30
0.0
 40
5.5
  0
CIRCLE
  5
303
330
1F
100
AcDbEntity
  8
0
  6
Continuous
 62
    91
370
    18
100
AcDbCircle
 10
-122.5166259423286
 20
19.21909431182664
 30
0.0
 40
5.5
  0
CIRCLE
  5
304
330
1F
100
AcDbEntity
  8
0
  6
Continuous
 62
    91
370
    18
100
AcDbCircle
 10
-149.9685312261614
 20
46.67099959565954
 30
0.0
 40
5.5
  0
CIRCLE
  5
305
330
1F
100
AcDbEntity
  8
0
  6
Continuous
 62
    91
370
    18
100
AcDbCircle
 10
-187.4685312261614
 20
56.71909431182664
 30
0.0
 40
5.5
  0
CIRCLE
  5
306
330
1F
100
AcDbEntity
  8
0
  6
Continuous
 62
    91
370
    18
100
AcDbCircle
 10
-115.0240942544815
 20
1.130522694515719
 30
0.0
 40
5.500000000000001
  0
CIRCLE
  5
307
330
1F
100
AcDbEntity
  8
0
  6
Continuous
 62
    91
370
    18
100
AcDbCircle
 10
-224.9685312261613
 20
46.67099959565924
 30
0.0
 40
5.499999999999999
  0
CIRCLE
  5
308
330
1F
100
AcDbEntity
  8
0
  6
Continuous
 62
    91
370
    18
100
AcDbCircle
 10
-149.9685312261605
 20
-83.232810972006
 30
0.0
 40
5.499999999999999
  0
LINE
  5
309
330
1F
100
AcDbEntity
  8
0
  6
Continuous
 62
    91
370
    18
100
AcDbLine
 10
-210.7238536340516
 20
63.48632478776403
 30
0.0
 11
-214.1776106032094
 21
76.37592127365676
 31
0.0
  0
LINE
  5
30A
330
1F
100
AcDbEntity
  8
0
  6
Continuous
 62
    91
370
    18
100
AcDbLine
 10
-215.189236555222
 20
80.15136072482275
 30
0.0
 11
-218.1058554719905
 21
91.03633070851956
 31
0.0
  0
LINE
  5
30B
330
1F
100
AcDbEntity
  8
0
  6
Continuous
 62
    91
370
    18
100
AcDbLine
 10
-208.2124464857
 20
64.15925430503054
 30
0.0
 11
-211.6662034548579
 21
77.04885079092324
 31
0.0
  0
LINE
  5
30C
330
1F
100
AcDbEntity
  8
0
  6
Continuous
 62
    91
370
    18
100
AcDbLine
 10
-212.6778294068704
 20
80.82429024208935
 30
0.0
 11
-215.5944483236389
 21
91.70926022578615
 31
0.0
  0
LINE
  5
30D
330
1F
100
AcDbEntity
  8
0
  6
Continuous
 62
    91
370
    18
100
AcDbLine
 10
-218.1058554719905
 20
91.03633070851956
 30
0.0
 11
-215.5944483236389
 21
91.70926022578615
 31
0.0
  0
LINE
  5
30E
330
1F
100
AcDbEntity
  8
0
  6
Continuous
 62
    91
370
    18
100
AcDbLine
 10
-217.5262999762171
 20
91.19162213558116
 30
0.0
 11
-219.3380332919347
 21
97.95310291960453
 31
0.0
  0
LINE
  5
30F
330
1F
100
AcDbEntity
  8
0
  6
Continuous
 62
    91
370
    18
100
AcDbLine
 10
-217.9857371351301
 20
98.31544958274816
 30
0.0
 11
-216.1740038194123
 21
91.55396879872464
 31
0.0
  0
LINE
  5
310
330
1F
100
AcDbEntity
  8
0
  6
Continuous
 62
    91
370
    18
100
AcDbLine
 10
-217.9857371351301
 20
98.31544958274816
 30
0.0
 11
-219.3380332919347
 21
97.95310291960453
 31
0.0
  0
LINE
  5
311
330
1F
100
AcDbEntity
  8
0
  6
Continuous
 62
    91
370
    18
100
AcDbLine
 10
-204.1555580152857
 20
65.24629429446114
 30
0.0
 11
-214.7807421044656
 21
62.39928479833344
 31
0.0
  0
LINE
  5
312
330
1F
100
AcDbEntity
  8
0
  6
Continuous
 62
    91
370
    18
100
AcDbLine
 10
-214.7807421044656
 20
62.39928479833344
 30
0.0
 11
-214.0861914935551
 21
59.80718662998754
 31
0.0
  0
LINE
  5
313
330
1F
100
AcDbEntity
  8
0
  6
Continuous
 62
    91
370
    18
100
AcDbLine
 10
-204.1555580152857
 20
65.24629429446114
 30
0.0
 11
-203.4610074043752
 21
62.65419612611535
 31
0.0
  0
LINE
  5
314
330
1F
100
AcDbEntity
  8
0
  6
Continuous
 62
    91
370
    18
100
AcDbLine
 10
-63.1570994737179
 20
-100.7809056881736
 30
0.0
 11
-63.1570994737179
 21
64.21909431182644
 31
0.0
  0
LINE
  5
315
330
1F
100
AcDbEntity
  8
0
  6
Continuous
 62
    91
370
    18
100
AcDbLine
 10
-17.1570994737179
 20
64.21909431182644
 30
0.0
 11
-17.1570994737179
 21
59.71909431182635
 31
0.0
  0
LINE
  5
316
330
1F
100
AcDbEntity
  8
0
  6
Continuous
 62
    91
370
    18
100
AcDbLine
 10
-17.1570994737179
 20
-96.28090568817362
 30
0.0
 11
-17.1570994737179
 21
-100.7809056881736
 31
0.0
  0
LINE
  5
317
330
1F
100
AcDbEntity
  8
0
  6
Continuous
 62
    91
370
    18
100
AcDbLine
 10
-63.1570994737179
 20
-100.7809056881736
 30
0.0
 11
-17.1570994737179
 21
-100.7809056881736
 31
0.0
  0
LINE
  5
318
330
1F
100
AcDbEntity
  8
0
  6
Continuous
 62
    91
370
    18
100
AcDbLine
 10
-63.1570994737179
 20
64.21909431182644
 30
0.0
 11
-17.1570994737179
 21
64.21909431182644
 31
0.0
  0
LINE
  5
319
330
1F
100
AcDbEntity
  8
0
  6
Continuous
 62
    91
370
    18
100
AcDbLine
 10
-63.1570994737179
 20
-48.28090568817358
 30
0.0
 11
-17.1570994737179
 21
-48.28090568817358
 31
0.0
  0
LINE
  5
31A
330
1F
100
AcDbEntity
  8
0
  6
Continuous
 62
    91
370
    18
100
AcDbLine
 10
-63.1570994737179
 20
11.71909431182642
 30
0.0
 11
-17.1570994737179
 21
11.71909431182642
 31
0.0
  0
LINE
  5
31B
330
1F
100
AcDbEntity
  8
0
  6
Continuous
 62
    91
370
    18
100
AcDbLine
 10
-56.6570994737179
 20
-98.78090568817358
 30
0.0
 11
-56.6570994737179
 21
-87.78090568817358
 31
0.0
  0
LINE
  5
31C
330
1F
100
AcDbEntity
  8
0
  6
Continuous
 62
    91
370
    18
100
AcDbLine
 10
-56.6570994737179
 20
51.21909431182644
 30
0.0
 11
-56.6570994737179
 21
62.21909431182644
 31
0.0
  0
LINE
  5
31D
330
1F
100
AcDbEntity
  8
0
  6
Continuous
 62
    91
370
    18
100
AcDbLine
 10
-56.6570994737179
 20
-98.78090568817358
 30
0.0
 11
-63.1570994737179
 21
-98.78090568817358
 31
0.0
  0
LINE
  5
31E
330
1F
100
AcDbEntity
  8
0
  6
Continuous
 62
    91
370
    18
100
AcDbLine
 10
-56.6570994737179
 20
51.21909431182644
 30
0.0
 11
-63.1570994737179
 21
51.21909431182644
 31
0.0
  0
LINE
  5
31F
330
1F
100
AcDbEntity
  8
0
  6
Continuous
 62
    91
370
    18
100
AcDbLine
 10
-56.6570994737179
 20
62.21909431182644
 30
0.0
 11
-63.1570994737179
 21
62.21909431182644
 31
0.0
  0
LINE
  5
320
330
1F
100
AcDbEntity
  8
0
  6
Continuous
 62
    91
370
    18
100
AcDbLine
 10
-56.6570994737179
 20
53.41909431182644
 30
0.0
 11
-17.1570994737179
 21
53.41909431182644
 31
0.0
  0
LINE
  5
321
330
1F
100
AcDbEntity
  8
0
  6
Continuous
 62
    91
370
    18
100
AcDbLine
 10
-56.6570994737179
 20
60.01909431182645
 30
0.0
 11
-17.1570994737179
 21
60.01909431182645
 31
0.0
  0
LINE
  5
322
330
1F
100
AcDbEntity
  8
0
  6
Continuous
 62
    91
370
    18
100
AcDbLine
 10
-56.6570994737179
 20
-87.78090568817358
 30
0.0
 11
-63.1570994737179
 21
-87.78090568817358
 31
0.0
  0
LINE
  5
323
330
1F
100
AcDbEntity
  8
0
  6
Continuous
 62
    91
370
    18
100
AcDbLine
 10
-56.6570994737179
 20
-96.58090568817356
 30
0.0
 11
-17.1570994737179
 21
-96.58090568817356
 31
0.0
  0
LINE
  5
324
330
1F
100
AcDbEntity
  8
0
  6
Continuous
 62
    91
370
    18
100
AcDbLine
 10
-56.6570994737179
 20
-89.98090568817356
 30
0.0
 11
-17.1570994737179
 21
-89.98090568817356
 31
0.0
  0
LINE
  5
325
330
1F
100
AcDbEntity
  8
0
  6
Continuous
 62
    91
370
    18
100
AcDbLine
 10
-16.6570994737179
 20
64.21909431182644
 30
0.0
 11
-16.6570994737179
 21
59.71909431182635
 31
0.0
  0
LINE
  5
326
330
1F
100
AcDbEntity
  8
0
  6
Continuous
 62
    91
370
    18
100
AcDbLine
 10
-16.6570994737179
 20
53.71909431182634
 30
0.0
 11
-16.6570994737179
 21
-87.38090568817361
 31
0.0
  0
LINE
  5
327
330
1F
100
AcDbEntity
  8
0
  6
Continuous
 62
    91
370
    18
100
AcDbLine
 10
-16.6570994737179
 20
-99.18090568817362
 30
0.0
 11
-16.6570994737179
 21
-100.7809056881736
 31
0.0
  0
LINE
  5
328
330
1F
100
AcDbEntity
  8
0
  6
Continuous
 62
    91
370
    18
100
AcDbLine
 10
-5.657099473717896
 20
64.21909431182644
 30
0.0
 11
-5.657099473717896
 21
59.71909431182635
 31
0.0
  0
LINE
  5
329
330
1F
100
AcDbEntity
  8
0
  6
Continuous
 62
    91
370
    18
100
AcDbLine
 10
-5.657099473717896
 20
53.71909431182634
 30
0.0
 11
-5.657099473717896
 21
47.71909431182644
 31
0.0
  0
LINE
  5
32A
330
1F
100
AcDbEntity
  8
0
  6
Continuous
 62
    91
370
    18
100
AcDbLine
 10
-5.657099473717896
 20
-84.2809056881736
 30
0.0
 11
-5.657099473717896
 21
-87.38090568817361
 31
0.0
  0
LINE
  5
32B
330
1F
100
AcDbEntity
  8
0
  6
Continuous
 62
    91
370
    18
100
AcDbLine
 10
-5.657099473717896
 20
-99.1809056881736
 30
0.0
 11
-5.657099473717896
 21
-100.7809056881736
 31
0.0
  0
LINE
  5
32C
330
1F
100
AcDbEntity
  8
0
  6
Continuous
 62
    91
370
    18
100
AcDbLine
 10
-0.6570994737178957
 20
47.71909431182644
 30
0.0
 11
-0.6570994737178957
 21
21.91909431182638
 31
0.0
  0
LINE
  5
32D
330
1F
100
AcDbEntity
  8
0
  6
Continuous
 62
    91
370
    18
100
AcDbLine
 10
-0.6570994737178957
 20
-58.48090568817359
 30
0.0
 11
-0.6570994737178957
 21
-84.2809056881736
 31
0.0
  0
LINE
  5
32E
330
1F
100
AcDbEntity
  8
0
  6
Continuous
 62
    91
370
    18
100
AcDbLine
 10
-6.357099473717827
 20
27.7190943118264
 30
0.0
 11
-6.357099473717827
 21
-64.28090568817359
 31
0.0
  0
LINE
  5
32F
330
1F
100
AcDbEntity
  8
0
  6
Continuous
 62
    91
370
    18
100
AcDbLine
 10
-16.6570994737179
 20
64.21909431182644
 30
0.0
 11
-5.657099473717896
 21
64.21909431182644
 31
0.0
  0
LINE
  5
330
330
1F
100
AcDbEntity
  8
0
  6
Continuous
 62
    91
370
    18
100
AcDbLine
 10
-16.6570994737179
 20
-100.7809056881736
 30
0.0
 11
-5.657099473717896
 21
-100.7809056881736
 31
0.0
  0
LINE
  5
331
330
1F
100
AcDbEntity
  8
0
  6
Continuous
 62
    91
370
    18
100
AcDbLine
 10
-0.6570994737178957
 20
-84.2809056881736
 30
0.0
 11
-5.657099473717896
 21
-84.2809056881736
 31
0.0
  0
LINE
  5
332
330
1F
100
AcDbEntity
  8
0
  6
Continuous
 62
    91
370
    18
100
AcDbLine
 10
-0.6570994737178957
 20
47.71909431182644
 30
0.0
 11
-5.657099473717896
 21
47.71909431182644
 31
0.0
  0
LINE
  5
333
330
1F
100
AcDbEntity
  8
0
  6
Continuous
 62
    91
370
    18
100
AcDbLine
 10
-6.357099473717827
 20
27.7190943118264
 30
0.0
 11
0.3429005262821043
 21
27.7190943118264
 31
0.0
  0
LINE
  5
334
330
1F
100
AcDbEntity
  8
0
  6
Continuous
 62
    91
370
    18
100
AcDbLine
 10
-6.357099473717827
 20
-64.28090568817359
 30
0.0
 11
-0.6570994737178957
 21
-64.28090568817359
 31
0.0
  0
LINE
  5
335
330
1F
100
AcDbEntity
  8
0
  6
Continuous
 62
    91
370
    18
100
AcDbLine
 10
-16.6570994737179
 20
11.7190943118264
 30
0.0
 11
-6.357099473717827
 21
11.7190943118264
 31
0.0
  0
LINE
  5
336
330
1F
100
AcDbEntity
  8
0
  6
Continuous
 62
    91
370
    18
100
AcDbLine
 10
-16.6570994737179
 20
-48.2809056881736
 30
0.0
 11
-6.357099473717827
 21
-48.2809056881736
 31
0.0
  0
LINE
  5
337
330
1F
100
AcDbEntity
  8
0
  6
Continuous
 62
    91
370
    18
100
AcDbLine
 10
2.842900526282104
 20
-84.28090568817363
 30
0.0
 11
3.842900526282104
 21
-84.28090568817363
 31
0.0
  0
LINE
  5
338
330
1F
100
AcDbEntity
  8
0
  6
Continuous
 62
    91
370
    18
100
AcDbLine
 10
9.842900526282104
 20
-84.28090568817359
 30
0.0
 11
10.8429005262821
 21
-84.28090568817359
 31
0.0
  0
LINE
  5
339
330
1F
100
AcDbEntity
  8
0
  6
Continuous
 62
    91
370
    18
100
AcDbLine
 10
17.3429005262821
 20
62.71909431182644
 30
0.0
 11
17.3429005262821
 21
59.71909431182635
 31
0.0
  0
LINE
  5
33A
330
1F
100
AcDbEntity
  8
0
  6
Continuous
 62
    91
370
    18
100
AcDbLine
 10
17.3429005262821
 20
53.71909431182634
 30
0.0
 11
17.3429005262821
 21
43.56909431182635
 31
0.0
  0
LINE
  5
33B
330
1F
100
AcDbEntity
  8
0
  6
Continuous
 62
    91
370
    18
100
AcDbLine
 10
17.3429005262821
 20
-80.1309056881736
 30
0.0
 11
17.3429005262821
 21
-90.28090568817359
 31
0.0
  0
LINE
  5
33C
330
1F
100
AcDbEntity
  8
0
  6
Continuous
 62
    91
370
    18
100
AcDbLine
 10
17.3429005262821
 20
-96.2809056881736
 30
0.0
 11
17.3429005262821
 21
-99.2809056881736
 31
0.0
  0
LINE
  5
33D
330
1F
100
AcDbEntity
  8
0
  6
Continuous
 62
    91
370
    18
100
AcDbLine
 10
31.8429005262821
 20
64.21909431182644
 30
0.0
 11
31.8429005262821
 21
59.71909431182635
 31
0.0
  0
LINE
  5
33E
330
1F
100
AcDbEntity
  8
0
  6
Continuous
 62
    91
370
    18
100
AcDbLine
 10
31.8429005262821
 20
53.71909431182634
 30
0.0
 11
31.8429005262821
 21
17.71909431182638
 31
0.0
  0
LINE
  5
33F
330
1F
100
AcDbEntity
  8
0
  6
Continuous
 62
    91
370
    18
100
AcDbLine
 10
31.8429005262821
 20
-54.2809056881736
 30
0.0
 11
31.8429005262821
 21
-100.7809056881736
 31
0.0
  0
LINE
  5
340
330
1F
100
AcDbEntity
  8
0
  6
Continuous
 62
    91
370
    18
100
AcDbLine
 10
18.8429005262821
 20
64.21909431182644
 30
0.0
 11
31.8429005262821
 21
64.21909431182644
 31
0.0
  0
LINE
  5
341
330
1F
100
AcDbEntity
  8
0
  6
Continuous
 62
    91
370
    18
100
AcDbLine
 10
18.8429005262821
 20
-100.7809056881736
 30
0.0
 11
31.8429005262821
 21
-100.7809056881736
 31
0.0
  0
LINE
  5
342
330
1F
100
AcDbEntity
  8
0
  6
Continuous
 62
    91
370
    18
100
AcDbLine
 10
29.3429005262821
 20
51.71909431182644
 30
0.0
 11
29.3429005262821
 21
17.71909431182638
 31
0.0
  0
LINE
  5
343
330
1F
100
AcDbEntity
  8
0
  6
Continuous
 62
    91
370
    18
100
AcDbLine
 10
29.3429005262821
 20
-54.2809056881736
 30
0.0
 11
29.3429005262821
 21
-88.2809056881736
 31
0.0
  0
LINE
  5
344
330
1F
100
AcDbEntity
  8
0
  6
Continuous
 62
    91
370
    18
100
AcDbLine
 10
28.02160064564981
 20
43.56909431182635
 30
0.0
 11
29.3429005262821
 21
43.56909431182635
 31
0.0
  0
LINE
  5
345
330
1F
100
AcDbEntity
  8
0
  6
Continuous
 62
    91
370
    18
100
AcDbLine
 10
29.3429005262821
 20
-88.2809056881736
 30
0.0
 11
31.8429005262821
 21
-88.2809056881736
 31
0.0
  0
LINE
  5
346
330
1F
100
AcDbEntity
  8
0
  6
Continuous
 62
    91
370
    18
100
AcDbLine
 10
29.3429005262821
 20
51.71909431182644
 30
0.0
 11
31.8429005262821
 21
51.71909431182644
 31
0.0
  0
LINE
  5
347
330
1F
100
AcDbEntity
  8
0
  6
Continuous
 62
    91
370
    18
100
AcDbLine
 10
-2.657099473717896
 20
21.91909431182638
 30
0.0
 11
-2.657099473717896
 21
-58.48090568817359
 31
0.0
  0
LINE
  5
348
330
1F
100
AcDbEntity
  8
0
  6
Continuous
 62
    91
370
    18
100
AcDbLine
 10
42.3429005262821
 20
16.21909431182641
 30
0.0
 11
42.3429005262821
 21
-52.7809056881736
 31
0.0
  0
LINE
  5
349
330
1F
100
AcDbEntity
  8
0
  6
Continuous
 62
    91
370
    18
100
AcDbLine
 10
42.3429005262821
 20
-52.7809056881736
 30
0.0
 11
40.8429005262821
 21
-54.2809056881736
 31
0.0
  0
LINE
  5
34A
330
1F
100
AcDbEntity
  8
0
  6
Continuous
 62
    91
370
    18
100
AcDbLine
 10
42.3429005262821
 20
16.21909431182641
 30
0.0
 11
40.8429005262821
 21
17.71909431182641
 31
0.0
  0
LINE
  5
34B
330
1F
100
AcDbEntity
  8
0
  6
Continuous
 62
    91
370
    18
100
AcDbLine
 10
22.3429005262821
 20
-54.2809056881736
 30
0.0
 11
22.3429005262821
 21
-58.48090568817359
 31
0.0
  0
LINE
  5
34C
330
1F
100
AcDbEntity
  8
0
  6
Continuous
 62
    91
370
    18
100
AcDbLine
 10
-2.657099473717896
 20
-58.48090568817359
 30
0.0
 11
0.3429005262821043
 21
-58.48090568817359
 31
0.0
  0
LINE
  5
34D
330
1F
100
AcDbEntity
  8
0
  6
Continuous
 62
    91
370
    18
100
AcDbLine
 10
2.842900526282104
 20
-58.48090568817359
 30
0.0
 11
7.342900526282104
 21
-58.48090568817359
 31
0.0
  0
LINE
  5
34E
330
1F
100
AcDbEntity
  8
0
  6
Continuous
 62
    91
370
    18
100
AcDbLine
 10
9.842900526282104
 20
-58.48090568817359
 30
0.0
 11
22.3429005262821
 21
-58.48090568817359
 31
0.0
  0
LINE
  5
34F
330
1F
100
AcDbEntity
  8
0
  6
Continuous
 62
    91
370
    18
100
AcDbLine
 10
-2.657099473717896
 20
21.91909431182638
 30
0.0
 11
0.3429005262821043
 21
21.91909431182638
 31
0.0
  0
LINE
  5
350
330
1F
100
AcDbEntity
  8
0
  6
Continuous
 62
    91
370
    18
100
AcDbLine
 10
2.842900526282104
 20
21.91909431182638
 30
0.0
 11
7.342900526282104
 21
21.91909431182638
 31
0.0
  0
LINE
  5
351
330
1F
100
AcDbEntity
  8
0
  6
Continuous
 62
    91
370
    18
100
AcDbLine
 10
9.842900526282104
 20
21.91909431182638
 30
0.0
 11
22.3429005262821
 21
21.91909431182638
 31
0.0
  0
LINE
  5
352
330
1F
100
AcDbEntity
  8
0
  6
Continuous
 62
    91
370
    18
100
AcDbLine
 10
22.3429005262821
 20
17.71909431182641
 30
0.0
 11
40.8429005262821
 21
17.71909431182641
 31
0.0
  0
LINE
  5
353
330
1F
100
AcDbEntity
  8
0
  6
Continuous
 62
    91
370
    18
100
AcDbLine
 10
22.3429005262821
 20
-54.2809056881736
 30
0.0
 11
40.8429005262821
 21
-54.2809056881736
 31
0.0
  0
LINE
  5
354
330
1F
100
AcDbEntity
  8
0
  6
Continuous
 62
    91
370
    18
100
AcDbLine
 10
22.3429005262821
 20
21.91909431182638
 30
0.0
 11
22.3429005262821
 21
17.71909431182641
 31
0.0
  0
LINE
  5
355
330
1F
100
AcDbEntity
  8
0
  6
Continuous
 62
    91
370
    18
100
AcDbLine
 10
-2.657099473717896
 20
18.61909431182639
 30
0.0
 11
22.3429005262821
 21
18.61909431182639
 31
0.0
  0
LINE
  5
356
330
1F
100
AcDbEntity
  8
0
  6
Continuous
 62
    91
370
    18
100
AcDbLine
 10
-2.657099473717896
 20
-55.1809056881736
 30
0.0
 11
22.3429005262821
 21
-55.1809056881736
 31
0.0
  0
LINE
  5
357
330
1F
100
AcDbEntity
  8
0
  6
Continuous
 62
    91
370
    18
100
AcDbLine
 10
13.3429005262821
 20
41.71909431182634
 30
0.0
 11
16.52160064564981
 21
41.71909431182644
 31
0.0
  0
LINE
  5
358
330
1F
100
AcDbEntity
  8
0
  6
Continuous
 62
    91
370
    18
100
AcDbLine
 10
13.3429005262821
 20
-78.28090568817359
 30
0.0
 11
16.52160064564981
 21
-78.28090568817359
 31
0.0
  0
LINE
  5
359
330
1F
100
AcDbEntity
  8
0
  6
Continuous
 62
    91
370
    18
100
AcDbLine
 10
16.52160064564981
 20
41.71909431182644
 30
0.0
 11
16.52160064564981
 21
44.21909431182644
 31
0.0
  0
LINE
  5
35A
330
1F
100
AcDbEntity
  8
0
  6
Continuous
 62
    91
370
    18
100
AcDbLine
 10
16.52160064564981
 20
-78.28090568817359
 30
0.0
 11
16.52160064564981
 21
-80.7809056881736
 31
0.0
  0
LINE
  5
35B
330
1F
100
AcDbEntity
  8
0
  6
Continuous
 62
    91
370
    18
100
AcDbLine
 10
16.52160064564981
 20
-80.7809056881736
 30
0.0
 11
28.02160064564981
 21
-80.7809056881736
 31
0.0
  0
LINE
  5
35C
330
1F
100
AcDbEntity
  8
0
  6
Continuous
 62
    91
370
    18
100
AcDbLine
 10
28.02160064564981
 20
44.21909431182644
 30
0.0
 11
16.52160064564981
 21
44.21909431182644
 31
0.0
  0
LINE
  5
35D
330
1F
100
AcDbEntity
  8
0
  6
Continuous
 62
    91
370
    18
100
AcDbLine
 10
28.02160064564981
 20
44.21909431182644
 30
0.0
 11
28.02160064564981
 21
17.71909431182638
 31
0.0
  0
LINE
  5
35E
330
1F
100
AcDbEntity
  8
0
  6
Continuous
 62
    91
370
    18
100
AcDbLine
 10
28.02160064564981
 20
-80.7809056881736
 30
0.0
 11
28.02160064564981
 21
-54.2809056881736
 31
0.0
  0
LINE
  5
35F
330
1F
100
AcDbEntity
  8
0
  6
Continuous
 62
    91
370
    18
100
AcDbLine
 10
13.3429005262821
 20
27.7190943118264
 30
0.0
 11
28.02160064564981
 21
27.7190943118264
 31
0.0
  0
LINE
  5
360
330
1F
100
AcDbEntity
  8
0
  6
Continuous
 62
    91
370
    18
100
AcDbLine
 10
13.3429005262821
 20
-64.28090568817359
 30
0.0
 11
28.10359852975528
 21
-64.28090568817359
 31
0.0
  0
LINE
  5
361
330
1F
100
AcDbEntity
  8
0
  6
Continuous
 62
    91
370
    18
100
AcDbLine
 10
13.3429005262821
 20
39.01909431182635
 30
0.0
 11
28.02160064564981
 21
39.01909431182635
 31
0.0
  0
LINE
  5
362
330
1F
100
AcDbEntity
  8
0
  6
Continuous
 62
    91
370
    18
100
AcDbLine
 10
13.3429005262821
 20
32.41909431182634
 30
0.0
 11
28.02160064564981
 21
32.41909431182634
 31
0.0
  0
LINE
  5
363
330
1F
100
AcDbEntity
  8
0
  6
Continuous
 62
    91
370
    18
100
AcDbLine
 10
17.3429005262821
 20
60.01909431182634
 30
0.0
 11
31.8429005262821
 21
60.01909431182634
 31
0.0
  0
LINE
  5
364
330
1F
100
AcDbEntity
  8
0
  6
Continuous
 62
    91
370
    18
100
AcDbLine
 10
17.3429005262821
 20
53.41909431182634
 30
0.0
 11
31.8429005262821
 21
53.41909431182634
 31
0.0
  0
LINE
  5
365
330
1F
100
AcDbEntity
  8
0
  6
Continuous
 62
    91
370
    18
100
AcDbLine
 10
-16.6570994737179
 20
62.86909431182633
 30
0.0
 11
-5.657099473717896
 21
62.86909431182633
 31
0.0
  0
LINE
  5
366
330
1F
100
AcDbEntity
  8
0
  6
Continuous
 62
    91
370
    18
100
AcDbLine
 10
-16.6570994737179
 20
50.56909431182635
 30
0.0
 11
-5.657099473717896
 21
50.56909431182635
 31
0.0
  0
LINE
  5
367
330
1F
100
AcDbEntity
  8
0
  6
Continuous
 62
    91
370
    18
100
AcDbLine
 10
27.94290052628213
 20
-90.88090568817363
 30
0.0
 11
31.8429005262821
 21
-90.88090568817363
 31
0.0
  0
LINE
  5
368
330
1F
100
AcDbEntity
  8
0
  6
Continuous
 62
    91
370
    18
100
AcDbLine
 10
27.94290052628213
 20
-95.68090568817361
 30
0.0
 11
31.8429005262821
 21
-95.68090568817361
 31
0.0
  0
LINE
  5
369
330
1F
100
AcDbEntity
  8
0
  6
Continuous
 62
    91
370
    18
100
AcDbLine
 10
-17.1570994737179
 20
-99.18090568817361
 30
0.0
 11
17.3429005262821
 21
-99.18090568817361
 31
0.0
  0
LINE
  5
36A
330
1F
100
AcDbEntity
  8
0
  6
Continuous
 62
    91
370
    18
100
AcDbLine
 10
-17.1570994737179
 20
-87.38090568817361
 30
0.0
 11
17.3429005262821
 21
-87.3809056881736
 31
0.0
  0
LINE
  5
36B
330
1F
100
AcDbEntity
  8
0
  6
Continuous
 62
    91
370
    18
100
AcDbLine
 10
-17.1570994737179
 20
-90.2309056881736
 30
0.0
 11
17.3429005262821
 21
-90.2309056881736
 31
0.0
  0
LINE
  5
36C
330
1F
100
AcDbEntity
  8
0
  6
Continuous
 62
    91
370
    18
100
AcDbLine
 10
-17.1570994737179
 20
-96.3309056881736
 30
0.0
 11
17.3429005262821
 21
-96.3309056881736
 31
0.0
  0
LINE
  5
36D
330
1F
100
AcDbEntity
  8
0
  6
Continuous
 62
    91
370
    18
100
AcDbLine
 10
-20.6570994737179
 20
66.71909431182624
 30
0.0
 11
-31.6570994737179
 21
66.71909431182624
 31
0.0
  0
LINE
  5
36E
330
1F
100
AcDbEntity
  8
0
  6
Continuous
 62
    91
370
    18
100
AcDbLine
 10
-31.6570994737179
 20
66.71909431182624
 30
0.0
 11
-31.6570994737179
 21
64.21909431182624
 31
0.0
  0
LINE
  5
36F
330
1F
100
AcDbEntity
  8
0
  6
Continuous
 62
    91
370
    18
100
AcDbLine
 10
-20.6570994737179
 20
66.71909431182624
 30
0.0
 11
-20.6570994737179
 21
64.21909431182624
 31
0.0
  0
LINE
  5
370
330
1F
100
AcDbEntity
  8
0
  6
Continuous
 62
    91
370
    18
100
AcDbLine
 10
-26.15709947371756
 20
66.71909431182635
 30
0.0
 11
-26.15709947371732
 21
78.88113563114834
 31
0.0
  0
LINE
  5
371
330
1F
100
AcDbEntity
  8
0
  6
Continuous
 62
    91
370
    18
100
AcDbLine
 10
-26.15709947371744
 20
83.78975816552105
 30
0.0
 11
-26.15709947371744
 21
95.24095921174126
 31
0.0
  0
LINE
  5
372
330
1F
100
AcDbEntity
  8
0
  6
Continuous
 62
    91
370
    18
100
AcDbLine
 10
-23.55709947371741
 20
66.71909431182635
 30
0.0
 11
-23.55709947371741
 21
78.88113563114834
 31
0.0
  0
LINE
  5
373
330
1F
100
AcDbEntity
  8
0
  6
Continuous
 62
    91
370
    18
100
AcDbLine
 10
-23.55709947371741
 20
83.78975816552114
 30
0.0
 11
-23.55709947371741
 21
95.24095921174126
 31
0.0
  0
LINE
  5
374
330
1F
100
AcDbEntity
  8
0
  6
Continuous
 62
    91
370
    18
100
AcDbLine
 10
-28.75709947371735
 20
66.71909431182644
 30
0.0
 11
-28.75709947371747
 21
78.88113563114834
 31
0.0
  0
LINE
  5
375
330
1F
100
AcDbEntity
  8
0
  6
Continuous
 62
    91
370
    18
100
AcDbLine
 10
-28.75709947371735
 20
83.78975816552105
 30
0.0
 11
-28.75709947371747
 21
95.24095921174134
 31
0.0
  0
LINE
  5
376
330
1F
100
AcDbEntity
  8
0
  6
Continuous
 62
    91
370
    18
100
AcDbLine
 10
-28.75709947371747
 20
95.24095921174134
 30
0.0
 11
-23.55709947371741
 21
95.24095921174126
 31
0.0
  0
LINE
  5
377
330
1F
100
AcDbEntity
  8
0
  6
Continuous
 62
    91
370
    18
100
AcDbLine
 10
-28.15709947371744
 20
95.24095921174126
 30
0.0
 11
-28.15709947371744
 21
102.2409592117413
 31
0.0
  0
LINE
  5
378
330
1F
100
AcDbEntity
  8
0
  6
Continuous
 62
    91
370
    18
100
AcDbLine
 10
-26.75709947371757
 20
102.2409592117413
 30
0.0
 11
-26.75709947371757
 21
95.24095921174126
 31
0.0
  0
LINE
  5
379
330
1F
100
AcDbEntity
  8
0
  6
Continuous
 62
    91
370
    18
100
AcDbLine
 10
-25.55709947371754
 20
95.24095921174134
 30
0.0
 11
-25.55709947371754
 21
102.2409592117413
 31
0.0
  0
LINE
  5
37A
330
1F
100
AcDbEntity
  8
0
  6
Continuous
 62
    91
370
    18
100
AcDbLine
 10
-24.15709947371756
 20
102.2409592117413
 30
0.0
 11
-24.15709947371744
 21
95.24095921174126
 31
0.0
  0
LINE
  5
37B
330
1F
100
AcDbEntity
  8
0
  6
Continuous
 62
    91
370
    18
100
AcDbLine
 10
-24.15709947371756
 20
102.2409592117413
 30
0.0
 11
-25.55709947371754
 21
102.2409592117413
 31
0.0
  0
LINE
  5
37C
330
1F
100
AcDbEntity
  8
0
  6
Continuous
 62
    91
370
    18
100
AcDbLine
 10
-26.75709947371757
 20
102.2409592117413
 30
0.0
 11
-28.15709947371744
 21
102.2409592117413
 31
0.0
  0
LINE
  5
37D
330
1F
100
AcDbEntity
  8
0
  6
Continuous
 62
    91
370
    18
100
AcDbLine
 10
28.02160064564981
 20
-80.1309056881736
 30
0.0
 11
29.3429005262821
 21
-80.1309056881736
 31
0.0
  0
LINE
  5
37E
330
1F
100
AcDbEntity
  8
0
  6
Continuous
 62
    91
370
    18
100
AcDbLine
 10
-16.6570994737179
 20
-87.2309056881736
 30
0.0
 11
-5.657099473717896
 21
-87.2309056881736
 31
0.0
  0
LINE
  5
37F
330
1F
100
AcDbEntity
  8
0
  6
Continuous
 62
    91
370
    18
100
AcDbLine
 10
-16.6570994737179
 20
-99.33090568817362
 30
0.0
 11
-5.657099473717896
 21
-99.33090568817362
 31
0.0
  0
LINE
  5
380
330
1F
100
AcDbEntity
  8
0
  6
Continuous
 62
    91
370
    18
100
AcDbLine
 10
3.842900526282104
 20
-87.28090568817362
 30
0.0
 11
6.342900526282104
 21
-87.28090568817362
 31
0.0
  0
LINE
  5
381
330
1F
100
AcDbEntity
  8
0
  6
Continuous
 62
    91
370
    18
100
AcDbLine
 10
10.8429005262821
 20
-87.28090568817362
 30
0.0
 11
13.3429005262821
 21
-87.28090568817362
 31
0.0
  0
LINE
  5
382
330
1F
100
AcDbEntity
  8
0
  6
Continuous
 62
    91
370
    18
100
AcDbLine
 10
6.342900526282104
 20
47.71909431182644
 30
0.0
 11
6.342900526282104
 21
21.91909431182638
 31
0.0
  0
LINE
  5
383
330
1F
100
AcDbEntity
  8
0
  6
Continuous
 62
    91
370
    18
100
AcDbLine
 10
6.342900526282104
 20
-58.48090568817359
 30
0.0
 11
6.342900526282104
 21
-87.38090568817361
 31
0.0
  0
LINE
  5
384
330
1F
100
AcDbEntity
  8
0
  6
Continuous
 62
    91
370
    18
100
AcDbLine
 10
7.342900526282104
 20
-84.28090568817359
 30
0.0
 11
7.342900526282104
 21
-55.7809056881736
 31
0.0
  0
LINE
  5
385
330
1F
100
AcDbEntity
  8
0
  6
Continuous
 62
    91
370
    18
100
AcDbLine
 10
7.342900526282104
 20
19.21909431182641
 30
0.0
 11
7.342900526282104
 21
47.71909431182644
 31
0.0
  0
LINE
  5
386
330
1F
100
AcDbEntity
  8
0
  6
Continuous
 62
    91
370
    18
100
AcDbLine
 10
9.842900526282104
 20
-84.28090568817359
 30
0.0
 11
9.842900526282104
 21
-55.7809056881736
 31
0.0
  0
LINE
  5
387
330
1F
100
AcDbEntity
  8
0
  6
Continuous
 62
    91
370
    18
100
AcDbLine
 10
9.842900526282104
 20
19.21909431182641
 30
0.0
 11
9.842900526282104
 21
47.71909431182644
 31
0.0
  0
LINE
  5
388
330
1F
100
AcDbEntity
  8
0
  6
Continuous
 62
    91
370
    18
100
AcDbLine
 10
10.8429005262821
 20
47.71909431182644
 30
0.0
 11
10.8429005262821
 21
21.91909431182638
 31
0.0
  0
LINE
  5
389
330
1F
100
AcDbEntity
  8
0
  6
Continuous
 62
    91
370
    18
100
AcDbLine
 10
10.8429005262821
 20
-58.48090568817359
 30
0.0
 11
10.8429005262821
 21
-87.38090568817361
 31
0.0
  0
LINE
  5
38A
330
1F
100
AcDbEntity
  8
0
  6
Continuous
 62
    91
370
    18
100
AcDbLine
 10
6.342900526282104
 20
-84.28090568817359
 30
0.0
 11
9.842900526282104
 21
-84.28090568817359
 31
0.0
  0
LINE
  5
38B
330
1F
100
AcDbEntity
  8
0
  6
Continuous
 62
    91
370
    18
100
AcDbLine
 10
7.342900526282104
 20
19.21909431182641
 30
0.0
 11
9.842900526282104
 21
19.21909431182641
 31
0.0
  0
LINE
  5
38C
330
1F
100
AcDbEntity
  8
0
  6
Continuous
 62
    91
370
    18
100
AcDbLine
 10
7.342900526282104
 20
-55.7809056881736
 30
0.0
 11
9.842900526282104
 21
-55.7809056881736
 31
0.0
  0
LINE
  5
38D
330
1F
100
AcDbEntity
  8
0
  6
Continuous
 62
    91
370
    18
100
AcDbLine
 10
2.842900526282104
 20
27.7190943118264
 30
0.0
 11
7.342900526282104
 21
27.7190943118264
 31
0.0
  0
LINE
  5
38E
330
1F
100
AcDbEntity
  8
0
  6
Continuous
 62
    91
370
    18
100
AcDbLine
 10
6.342900526282104
 20
-64.28090568817359
 30
0.0
 11
7.342900526282104
 21
-64.28090568817359
 31
0.0
  0
LINE
  5
38F
330
1F
100
AcDbEntity
  8
0
  6
Continuous
 62
    91
370
    18
100
AcDbLine
 10
9.842900526282104
 20
-64.28090568817359
 30
0.0
 11
10.8429005262821
 21
-64.28090568817359
 31
0.0
  0
LINE
  5
390
330
1F
100
AcDbEntity
  8
0
  6
Continuous
 62
    91
370
    18
100
AcDbLine
 10
13.3429005262821
 20
47.71909431182644
 30
0.0
 11
13.3429005262821
 21
21.91909431182638
 31
0.0
  0
LINE
  5
391
330
1F
100
AcDbEntity
  8
0
  6
Continuous
 62
    91
370
    18
100
AcDbLine
 10
13.3429005262821
 20
-58.48090568817359
 30
0.0
 11
13.3429005262821
 21
-87.3809056881736
 31
0.0
  0
LINE
  5
392
330
1F
100
AcDbEntity
  8
0
  6
Continuous
 62
    91
370
    18
100
AcDbLine
 10
9.842900526282104
 20
27.7190943118264
 30
0.0
 11
13.3429005262821
 21
27.7190943118264
 31
0.0
  0
LINE
  5
393
330
1F
100
AcDbEntity
  8
0
  6
Continuous
 62
    91
370
    18
100
AcDbLine
 10
10.8429005262821
 20
-64.28090568817359
 30
0.0
 11
13.3429005262821
 21
-64.28090568817359
 31
0.0
  0
LINE
  5
394
330
1F
100
AcDbEntity
  8
0
  6
Continuous
 62
    91
370
    18
100
AcDbLine
 10
3.842900526282104
 20
47.71909431182644
 30
0.0
 11
3.842900526282104
 21
21.91909431182638
 31
0.0
  0
LINE
  5
395
330
1F
100
AcDbEntity
  8
0
  6
Continuous
 62
    91
370
    18
100
AcDbLine
 10
3.842900526282104
 20
-58.48090568817359
 30
0.0
 11
3.842900526282104
 21
-87.38090568817361
 31
0.0
  0
LINE
  5
396
330
1F
100
AcDbEntity
  8
0
  6
Continuous
 62
    91
370
    18
100
AcDbLine
 10
3.842900526282104
 20
-64.28090568817359
 30
0.0
 11
6.342900526282104
 21
-64.28090568817359
 31
0.0
  0
LINE
  5
397
330
1F
100
AcDbEntity
  8
0
  6
Continuous
 62
    91
370
    18
100
AcDbLine
 10
0.3429005262821043
 20
-84.28090568817359
 30
0.0
 11
0.3429005262821043
 21
-55.7809056881736
 31
0.0
  0
LINE
  5
398
330
1F
100
AcDbEntity
  8
0
  6
Continuous
 62
    91
370
    18
100
AcDbLine
 10
0.3429005262821043
 20
19.21909431182641
 30
0.0
 11
0.3429005262821043
 21
47.71909431182644
 31
0.0
  0
LINE
  5
399
330
1F
100
AcDbEntity
  8
0
  6
Continuous
 62
    91
370
    18
100
AcDbLine
 10
2.842900526282104
 20
-84.28090568817363
 30
0.0
 11
2.842900526282104
 21
-55.7809056881736
 31
0.0
  0
LINE
  5
39A
330
1F
100
AcDbEntity
  8
0
  6
Continuous
 62
    91
370
    18
100
AcDbLine
 10
2.842900526282104
 20
19.21909431182641
 30
0.0
 11
2.842900526282104
 21
47.71909431182644
 31
0.0
  0
LINE
  5
39B
330
1F
100
AcDbEntity
  8
0
  6
Continuous
 62
    91
370
    18
100
AcDbLine
 10
-0.6570994737178957
 20
47.71909431182644
 30
0.0
 11
13.3429005262821
 21
47.71909431182644
 31
0.0
  0
LINE
  5
39C
330
1F
100
AcDbEntity
  8
0
  6
Continuous
 62
    91
370
    18
100
AcDbLine
 10
-0.6570994737178957
 20
-84.28090568817359
 30
0.0
 11
2.842900526282104
 21
-84.28090568817359
 31
0.0
  0
LINE
  5
39D
330
1F
100
AcDbEntity
  8
0
  6
Continuous
 62
    91
370
    18
100
AcDbLine
 10
0.3429005262821043
 20
19.21909431182641
 30
0.0
 11
2.842900526282104
 21
19.21909431182641
 31
0.0
  0
LINE
  5
39E
330
1F
100
AcDbEntity
  8
0
  6
Continuous
 62
    91
370
    18
100
AcDbLine
 10
0.3429005262821043
 20
-55.7809056881736
 30
0.0
 11
2.842900526282104
 21
-55.7809056881736
 31
0.0
  0
LINE
  5
39F
330
1F
100
AcDbEntity
  8
0
  6
Continuous
 62
    91
370
    18
100
AcDbLine
 10
-0.6570994737178957
 20
-64.28090568817359
 30
0.0
 11
0.3429005262821043
 21
-64.28090568817359
 31
0.0
  0
LINE
  5
3A0
330
1F
100
AcDbEntity
  8
0
  6
Continuous
 62
    91
370
    18
100
AcDbLine
 10
2.842900526282104
 20
-64.28090568817359
 30
0.0
 11
3.842900526282104
 21
-64.28090568817359
 31
0.0
  0
LINE
  5
3A1
330
1F
100
AcDbEntity
  8
0
  6
Continuous
 62
    91
370
    18
100
AcDbLine
 10
17.3429005262821
 20
-99.2809056881736
 30
0.0
 11
18.8429005262821
 21
-100.7809056881736
 31
0.0
  0
LINE
  5
3A2
330
1F
100
AcDbEntity
  8
0
  6
Continuous
 62
    91
370
    18
100
AcDbLine
 10
17.3429005262821
 20
62.71909431182644
 30
0.0
 11
18.8429005262821
 21
64.21909431182644
 31
0.0
  0
LINE
  5
3A3
330
1F
100
AcDbEntity
  8
0
  6
Continuous
 62
    91
370
    18
100
AcDbLine
 10
16.3429005262821
 20
-78.28090568817359
 30
0.0
 11
16.3429005262821
 21
-64.28090568817359
 31
0.0
  0
LINE
  5
3A4
330
1F
100
AcDbEntity
  8
0
  6
Continuous
 62
    91
370
    18
100
AcDbLine
 10
-17.1570994737179
 20
-90.28090568817355
 30
0.0
 11
-17.1570994737179
 21
24.81909431182642
 31
0.0
  0
LINE
  5
3A5
330
1F
100
AcDbEntity
  8
0
  6
Continuous
 62
    91
370
    18
100
AcDbLine
 10
-17.1570994737179
 20
24.81909431182642
 30
0.0
 11
-17.1570994737179
 21
53.71909431182644
 31
0.0
  0
CIRCLE
  5
3A6
330
1F
100
AcDbEntity
  8
0
  6
Continuous
 62
    91
370
    18
100
AcDbCircle
 10
180.535479815111
 20
-18.28090568817363
 30
0.0
 40
82.5
  0
CIRCLE
  5
3A7
330
1F
100
AcDbEntity
  8
0
  6
Continuous
 62
    91
370
    18
100
AcDbCircle
 10
245.4873850989439
 20
19.21909431182631
 30
0.0
 40
3.3
  0
CIRCLE
  5
3A8
330
1F
100
AcDbEntity
  8
0
  6
Continuous
 62
    91
370
    18
100
AcDbCircle
 10
245.4873850989439
 20
-55.78090568817368
 30
0.0
 40
3.3
  0
LINE
  5
3A9
330
1F
100
AcDbEntity
  8
0
  6
Continuous
 62
    91
370
    18
100
AcDbLine
 10
192.2287927731784
 20
63.99616543169975
 30
0.0
 11
211.5473092989596
 21
58.81978452964924
 31
0.0
  0
LINE
  5
3AA
330
1F
100
AcDbEntity
  8
0
  6
Continuous
 62
    91
370
    18
100
AcDbLine
 10
212.1425931026955
 20
61.04141393011403
 30
0.0
 11
192.8240765769141
 21
66.21779483216454
 31
0.0
  0
LINE
  5
3AB
330
1F
100
AcDbEntity
  8
0
  6
Continuous
 62
    91
370
    18
100
AcDbLine
 10
192.8240765769141
 20
66.21779483216454
 30
0.0
 11
192.0713523122629
 21
63.40858963239654
 31
0.0
  0
LINE
  5
3AC
330
1F
100
AcDbEntity
  8
0
  6
Continuous
 62
    91
370
    18
100
AcDbLine
 10
211.3898688380444
 20
58.23220873034604
 30
0.0
 11
212.1425931026955
 21
61.04141393011403
 31
0.0
  0
CIRCLE
  5
3AD
330
1F
100
AcDbEntity
  8
0
  6
Continuous
 62
    91
370
    18
100
AcDbCircle
 10
234.535479815111
 20
-18.28090568817363
 30
0.0
 40
3.3
  0
LINE
  5
3AE
330
1F
100
AcDbEntity
  8
0
  6
Continuous
 62
    91
370
    18
100
AcDbLine
 10
210.4386017924357
 20
63.56854938642803
 30
0.0
 11
195.563344067584
 21
67.55436268100684
 31
0.0
  0
LINE
  5
3AF
330
1F
100
AcDbEntity
  8
0
  6
Continuous
 62
    91
370
    18
100
AcDbLine
 10
195.563344067584
 20
67.55436268100684
 30
0.0
 11
195.045705977379
 21
65.62251102842873
 31
0.0
  0
LINE
  5
3B0
330
1F
100
AcDbEntity
  8
0
  6
Continuous
 62
    91
370
    18
100
AcDbLine
 10
210.4386017924357
 20
63.56854938642803
 30
0.0
 11
209.9209637022307
 21
61.63669773384996
 31
0.0
  0
LINE
  5
3B1
330
1F
100
AcDbEntity
  8
0
  6
Continuous
 62
    91
370
    18
100
AcDbLine
 10
196.722455059131
 20
67.24377982688384
 30
0.0
 11
198.6635978973999
 21
74.48822352405185
 31
0.0
  0
LINE
  5
3B2
330
1F
100
AcDbEntity
  8
0
  6
Continuous
 62
    91
370
    18
100
AcDbLine
 10
209.2794908008888
 20
63.87913224055114
 30
0.0
 11
211.2206336391578
 21
71.12357593771915
 31
0.0
  0
LINE
  5
3B3
330
1F
100
AcDbEntity
  8
0
  6
Continuous
 62
    91
370
    18
100
AcDbLine
 10
198.6635978973999
 20
74.48822352405185
 30
0.0
 11
199.6295241137149
 21
74.74704246464725
 31
0.0
  0
LINE
  5
3B4
330
1F
100
AcDbEntity
  8
0
  6
Continuous
 62
    91
370
    18
100
AcDbLine
 10
211.2206336391578
 20
71.12357593771915
 30
0.0
 11
210.5135264679452
 21
71.83068282341276
 31
0.0
  0
LINE
  5
3B5
330
1F
100
AcDbEntity
  8
0
  6
Continuous
 62
    91
370
    18
100
AcDbLine
 10
210.5135264679452
 20
71.83068282341276
 30
0.0
 11
199.6295241137149
 21
74.74704246464725
 31
0.0
  0
LINE
  5
3B6
330
1F
100
AcDbEntity
  8
0
  6
Continuous
 62
    91
370
    18
100
AcDbLine
 10
211.2206336391578
 20
71.12357593771915
 30
0.0
 11
198.6635978973999
 21
74.48822352405185
 31
0.0
  0
CIRCLE
  5
3B7
330
1F
100
AcDbEntity
  8
0
  6
Continuous
 62
    91
370
    18
100
AcDbCircle
 10
126.535479815111
 20
-18.28090568817363
 30
0.0
 40
3.3
  0
CIRCLE
  5
3B8
330
1F
100
AcDbEntity
  8
0
  6
Continuous
 62
    91
370
    18
100
AcDbCircle
 10
115.5835745312781
 20
-55.7809056881735
 30
0.0
 40
3.3
  0
CIRCLE
  5
3B9
330
1F
100
AcDbEntity
  8
0
  6
Continuous
 62
    91
370
    18
100
AcDbCircle
 10
115.5835745312782
 20
19.21909431182651
 30
0.0
 40
3.3
  0
CIRCLE
  5
3BA
330
1F
100
AcDbEntity
  8
0
  6
Continuous
 62
    91
370
    18
100
AcDbCircle
 10
180.535479815111
 20
56.71909431182654
 30
0.0
 40
3.300000000000001
  0
CIRCLE
  5
3BB
330
1F
100
AcDbEntity
  8
0
  6
Continuous
 62
    91
370
    18
100
AcDbCircle
 10
180.535479815111
 20
-93.28090568817373
 30
0.0
 40
3.300000000000001
  0
LINE
  5
3BC
330
1F
100
AcDbEntity
  8
0
  6
Continuous
 62
    91
370
    18
100
AcDbLine
 10
206.3272288650058
 20
72.95239788539675
 30
0.0
 11
207.244559192159
 21
76.37592127365645
 31
0.0
  0
LINE
  5
3BD
330
1F
100
AcDbEntity
  8
0
  6
Continuous
 62
    91
370
    18
100
AcDbLine
 10
203.8158217166543
 20
73.62532740266323
 30
0.0
 11
204.7331520438075
 21
77.04885079092296
 31
0.0
  0
LINE
  5
3BE
330
1F
100
AcDbEntity
  8
0
  6
Continuous
 62
    91
370
    18
100
AcDbLine
 10
205.74477799582
 20
80.82429024208903
 30
0.0
 11
208.6613969125885
 21
91.70926022578595
 31
0.0
  0
LINE
  5
3BF
330
1F
100
AcDbEntity
  8
0
  6
Continuous
 62
    91
370
    18
100
AcDbLine
 10
208.2561851441716
 20
80.15136072482244
 30
0.0
 11
211.1728040609401
 21
91.03633070851936
 31
0.0
  0
LINE
  5
3C0
330
1F
100
AcDbEntity
  8
0
  6
Continuous
 62
    91
370
    18
100
AcDbLine
 10
211.1728040609401
 20
91.03633070851936
 30
0.0
 11
208.6613969125885
 21
91.70926022578595
 31
0.0
  0
LINE
  5
3C1
330
1F
100
AcDbEntity
  8
0
  6
Continuous
 62
    91
370
    18
100
AcDbLine
 10
210.5932485651668
 20
91.19162213558084
 30
0.0
 11
212.4049818808845
 21
97.95310291960433
 31
0.0
  0
LINE
  5
3C2
330
1F
100
AcDbEntity
  8
0
  6
Continuous
 62
    91
370
    18
100
AcDbLine
 10
211.0526857240798
 20
98.31544958274785
 30
0.0
 11
209.2409524083619
 21
91.55396879872436
 31
0.0
  0
LINE
  5
3C3
330
1F
100
AcDbEntity
  8
0
  6
Continuous
 62
    91
370
    18
100
AcDbLine
 10
211.0526857240798
 20
98.31544958274785
 30
0.0
 11
212.4049818808845
 21
97.95310291960433
 31
0.0
  0
CIRCLE
  5
3C4
330
1F
100
AcDbEntity
  8
0
  6
Continuous
 62
     3
370
    18
100
AcDbCircle
 10
-187.4685312261614
 20
-18.28090568817333
 30
0.0
 40
30.0
  0
CIRCLE
  5
3C5
330
1F
100
AcDbEntity
  8
0
  6
Continuous
 62
     3
370
    18
100
AcDbCircle
 10
180.535479815111
 20
-18.28090568817358
 30
0.0
 40
36.0
  0
CIRCLE
  5
3C6
330
1F
100
AcDbEntity
  8
0
  6
Continuous
 62
     3
370
    18
100
AcDbCircle
 10
180.535479815111
 20
-18.28090568817358
 30
0.0
 40
70.0
  0
CIRCLE
  5
3C7
330
1F
100
AcDbEntity
  8
0
  6
Continuous
 62
     3
370
    18
100
AcDbCircle
 10
180.535479815111
 20
-18.2809056881737
 30
0.0
 40
61.85
  0
CIRCLE
  5
3C8
330
1F
100
AcDbEntity
  8
0
  6
Continuous
 62
     3
370
    18
100
AcDbCircle
 10
180.535479815111
 20
-18.2809056881737
 30
0.0
 40
40.2
  0
TEXT
  5
3CA
330
1F
100
AcDbEntity
  8
0
 62
     7
100
AcDbText
 10
-181.2649602917799
 20
-82.1809383088424
 30
0.0
 40
5.0
  1
※
 50
179.9999999999998
 41
0.6151538461538462
  7
dcStyle0
 72
     5
 11
-185.2649602917799
 21
-82.18093830884239
 31
0.0
100
AcDbText
  0
CIRCLE
  5
3CB
330
1F
100
AcDbEntity
  8
0
  6
Continuous
 62
     3
370
    25
100
AcDbCircle
 10
-259.9129681978417
 20
-37.69233407086237
 30
0.0
 40
3.75
  0
CIRCLE
  5
3CC
330
1F
100
AcDbEntity
  8
0
  6
Continuous
 62
     3
370
    25
100
AcDbCircle
 10
-115.0240942544815
 20
1.130522694515719
 30
0.0
 40
3.75
  0
LINE
  5
3CD
330
1F
100
AcDbEntity
  8
0
  6
Continuous
 62
     3
370
    25
100
AcDbLine
 10
-192.4685312261614
 20
1.219094311826666
 30
0.0
 11
-182.4685312261614
 21
1.219094311826666
 31
0.0
  0
LINE
  5
3CE
330
1F
100
AcDbEntity
  8
0
  6
Continuous
 62
     3
370
    25
100
AcDbLine
 10
-182.4685312261614
 20
1.219094311826666
 30
0.0
 11
-182.4685312261614
 21
-3.082221534602695
 31
0.0
  0
LINE
  5
3CF
330
1F
100
AcDbEntity
  8
0
  6
Continuous
 62
     3
370
    25
100
AcDbLine
 10
-192.4685312261614
 20
1.219094311826666
 30
0.0
 11
-192.4685312261614
 21
-3.082221534602695
 31
0.0
  0
ARC
  5
3D0
330
1F
100
AcDbEntity
  8
0
  6
Continuous
 62
     3
370
    25
100
AcDbCircle
 10
-187.4685312261614
 20
-18.28090568817333
 30
0.0
 40
16.0
100
AcDbArc
 50
108.209956864283
 51
71.79004313571703
  0
LINE
  5
3D1
330
1F
100
AcDbEntity
  8
0
  6
Continuous
 62
     3
370
    25
100
AcDbLine
 10
175.535479815111
 20
1.219094311826296
 30
0.0
 11
185.535479815111
 21
1.219094311826296
 31
0.0
  0
LINE
  5
3D2
330
1F
100
AcDbEntity
  8
0
  6
Continuous
 62
     3
370
    25
100
AcDbLine
 10
185.535479815111
 20
1.219094311826296
 30
0.0
 11
185.535479815111
 21
-3.082221534603065
 31
0.0
  0
LINE
  5
3D3
330
1F
100
AcDbEntity
  8
0
  6
Continuous
 62
     3
370
    25
100
AcDbLine
 10
175.535479815111
 20
1.219094311826296
 30
0.0
 11
175.535479815111
 21
-3.082221534603065
 31
0.0
  0
ARC
  5
3D4
330
1F
100
AcDbEntity
  8
0
  6
Continuous
 62
     3
370
    25
100
AcDbCircle
 10
180.535479815111
 20
-18.2809056881737
 30
0.0
 40
16.0
100
AcDbArc
 50
108.209956864283
 51
71.79004313571703
  0
LINE
  5
3D5
330
1F
100
AcDbEntity
  8
0
  6
Continuous
 62
     3
370
    25
100
AcDbLine
 10
-2.657099473717892
 20
1.219094311826296
 30
0.0
 11
42.3429005262821
 21
1.219094311826296
 31
0.0
  0
LINE
  5
3D6
330
1F
100
AcDbEntity
  8
0
  6
Continuous
 62
     3
370
    25
100
AcDbLine
 10
-2.657099473717892
 20
-3.082221534603036
 30
0.0
 11
42.3429005262821
 21
-3.082221534603036
 31
0.0
  0
LINE
  5
3D7
330
1F
100
AcDbEntity
  8
0
  6
Continuous
 62
     3
370
    25
100
AcDbLine
 10
-2.657099473717892
 20
-34.2809056881737
 30
0.0
 11
42.3429005262821
 21
-34.2809056881737
 31
0.0
  0
INSERT
  5
3D8
330
1F
100
AcDbEntity
  8
0
  6
Continuous
100
AcDbBlockReference
  2
DC_GROUP_ESB-165標準_1
 10
0.0
 20
0.0
 30
0.0
  0
INSERT
  5
3D9
330
1F
100
AcDbEntity
  8
0
  6
Continuous
100
AcDbBlockReference
  2
DC_GROUP_ESB-165標準_2
 10
0.0
 20
0.0
 30
0.0
  0
INSERT
  5
3DA
330
1F
100
AcDbEntity
  8
0
  6
Continuous
100
AcDbBlockReference
  2
DC_GROUP_ESB-165標準_3
 10
0.0
 20
0.0
 30
0.0
  0
INSERT
  5
3DB
330
1F
100
AcDbEntity
  8
0
  6
Continuous
100
AcDbBlockReference
  2
DC_GROUP_ESB-165標準_4
 10
0.0
 20
0.0
 30
0.0
  0
INSERT
  5
3DC
330
1F
100
AcDbEntity
  8
0
  6
Continuous
100
AcDbBlockReference
  2
DC_GROUP_ESB-165標準_5
 10
0.0
 20
0.0
 30
0.0
  0
INSERT
  5
3DD
330
1F
100
AcDbEntity
  8
0
  6
Continuous
100
AcDbBlockReference
  2
DC_GROUP_ESB-165標準_6
 10
0.0
 20
0.0
 30
0.0
  0
INSERT
  5
3DE
330
1F
100
AcDbEntity
  8
0
  6
Continuous
100
AcDbBlockReference
  2
DC_GROUP_ESB-165標準_7
 10
0.0
 20
0.0
 30
0.0
  0
INSERT
  5
3DF
330
1F
100
AcDbEntity
  8
0
  6
Continuous
100
AcDbBlockReference
  2
DC_GROUP_ESB-165標準_8
 10
0.0
 20
0.0
 30
0.0
  0
INSERT
  5
3E0
330
1F
100
AcDbEntity
  8
0
  6
Continuous
100
AcDbBlockReference
  2
DC_GROUP_ESB-165標準_9
 10
0.0
 20
0.0
 30
0.0
  0
INSERT
  5
3E1
330
1F
100
AcDbEntity
  8
0
  6
Continuous
100
AcDbBlockReference
  2
DC_GROUP_ESB-165標準_10
 10
0.0
 20
0.0
 30
0.0
  0
INSERT
  5
3E2
330
1F
100
AcDbEntity
  8
0
  6
Continuous
100
AcDbBlockReference
  2
DC_GROUP_ESB-165標準_11
 10
0.0
 20
0.0
 30
0.0
  0
INSERT
  5
3E3
330
1F
100
AcDbEntity
  8
0
  6
Continuous
100
AcDbBlockReference
  2
DC_GROUP_ESB-165標準_12
 10
0.0
 20
0.0
 30
0.0
  0
INSERT
  5
3E4
330
1F
100
AcDbEntity
  8
0
  6
Continuous
100
AcDbBlockReference
  2
DC_GROUP_ESB-165標準_13
 10
0.0
 20
0.0
 30
0.0
  0
INSERT
  5
3E5
330
1F
100
AcDbEntity
  8
0
  6
Continuous
100
AcDbBlockReference
  2
DC_GROUP_ESB-165標準_14
 10
0.0
 20
0.0
 30
0.0
  0
INSERT
  5
3E6
330
1F
100
AcDbEntity
  8
0
  6
Continuous
100
AcDbBlockReference
  2
DC_GROUP_ESB-165標準_15
 10
0.0
 20
0.0
 30
0.0
  0
INSERT
  5
3E7
330
1F
100
AcDbEntity
  8
0
  6
Continuous
100
AcDbBlockReference
  2
DC_GROUP_ESB-165標準_16
 10
0.0
 20
0.0
 30
0.0
  0
INSERT
  5
3E8
330
1F
100
AcDbEntity
  8
0
  6
Continuous
100
AcDbBlockReference
  2
DC_GROUP_ESB-165標準_17
 10
0.0
 20
0.0
 30
0.0
  0
INSERT
  5
3E9
330
1F
100
AcDbEntity
  8
0
  6
Continuous
100
AcDbBlockReference
  2
DC_GROUP_ESB-165標準_18
 10
0.0
 20
0.0
 30
0.0
  0
INSERT
  5
3EA
330
1F
100
AcDbEntity
  8
0
  6
Continuous
100
AcDbBlockReference
  2
DC_GROUP_ESB-165標準_19
 10
0.0
 20
0.0
 30
0.0
  0
INSERT
  5
3EB
330
1F
100
AcDbEntity
  8
0
  6
Continuous
100
AcDbBlockReference
  2
DC_GROUP_ESB-165標準_20
 10
0.0
 20
0.0
 30
0.0
  0
INSERT
  5
3EC
330
1F
100
AcDbEntity
  8
0
  6
Continuous
100
AcDbBlockReference
  2
DC_GROUP_ESB-165標準_21
 10
0.0
 20
0.0
 30
0.0
  0
INSERT
  5
3ED
330
1F
100
AcDbEntity
  8
0
  6
Continuous
100
AcDbBlockReference
  2
DC_GROUP_ESB-165標準_22
 10
0.0
 20
0.0
 30
0.0
  0
INSERT
  5
3EE
330
1F
100
AcDbEntity
  8
0
  6
Continuous
100
AcDbBlockReference
  2
DC_GROUP_ESB-165標準_23
 10
0.0
 20
0.0
 30
0.0
  0
INSERT
  5
3EF
330
1F
100
AcDbEntity
  8
0
  6
Continuous
100
AcDbBlockReference
  2
DC_GROUP_ESB-165標準_24
 10
0.0
 20
0.0
 30
0.0
  0
INSERT
  5
3F0
330
1F
100
AcDbEntity
  8
0
  6
Continuous
100
AcDbBlockReference
  2
DC_GROUP_ESB-165標準_25
 10
0.0
 20
0.0
 30
0.0
  0
INSERT
  5
3F1
330
1F
100
AcDbEntity
  8
0
  6
Continuous
100
AcDbBlockReference
  2
DC_GROUP_ESB-165標準_26
 10
0.0
 20
0.0
 30
0.0
  0
INSERT
  5
3F2
330
1F
100
AcDbEntity
  8
0
  6
Continuous
100
AcDbBlockReference
  2
DC_GROUP_ESB-165標準_27
 10
0.0
 20
0.0
 30
0.0
  0
INSERT
  5
3F3
330
1F
100
AcDbEntity
  8
0
  6
Continuous
100
AcDbBlockReference
  2
DC_GROUP_ESB-165標準_28
 10
0.0
 20
0.0
 30
0.0
  0
INSERT
  5
3F4
330
1F
100
AcDbEntity
  8
0
  6
Continuous
100
AcDbBlockReference
  2
DC_GROUP_ESB-165標準_29
 10
0.0
 20
0.0
 30
0.0
  0
INSERT
  5
3F5
330
1F
100
AcDbEntity
  8
0
  6
Continuous
100
AcDbBlockReference
  2
DC_GROUP_ESB-165標準_30
 10
0.0
 20
0.0
 30
0.0
  0
INSERT
  5
3F6
330
1F
100
AcDbEntity
  8
0
  6
Continuous
100
AcDbBlockReference
  2
DC_GROUP_ESB-165標準_31
 10
0.0
 20
0.0
 30
0.0
  0
INSERT
  5
3F7
330
1F
100
AcDbEntity
  8
0
  6
Continuous
100
AcDbBlockReference
  2
DC_GROUP_ESB-165標準_32
 10
0.0
 20
0.0
 30
0.0
  0
INSERT
  5
3F8
330
1F
100
AcDbEntity
  8
0
  6
Continuous
100
AcDbBlockReference
  2
DC_GROUP_ESB-165標準_33
 10
0.0
 20
0.0
 30
0.0
  0
INSERT
  5
3F9
330
1F
100
AcDbEntity
  8
0
  6
Continuous
100
AcDbBlockReference
  2
DC_GROUP_ESB-165標準_34
 10
0.0
 20
0.0
 30
0.0
  0
INSERT
  5
3FA
330
1F
100
AcDbEntity
  8
0
  6
Continuous
100
AcDbBlockReference
  2
DC_GROUP_ESB-165標準_35
 10
0.0
 20
0.0
 30
0.0
  0
INSERT
  5
3FB
330
1F
100
AcDbEntity
  8
0
  6
Continuous
100
AcDbBlockReference
  2
DC_GROUP_ESB-165標準_36
 10
0.0
 20
0.0
 30
0.0
  0
INSERT
  5
3FC
330
1F
100
AcDbEntity
  8
0
  6
Continuous
100
AcDbBlockReference
  2
DC_GROUP_ESB-165標準_37
 10
0.0
 20
0.0
 30
0.0
  0
INSERT
  5
3FD
330
1F
100
AcDbEntity
  8
0
  6
Continuous
100
AcDbBlockReference
  2
DC_GROUP_ESB-165標準_38
 10
0.0
 20
0.0
 30
0.0
  0
INSERT
  5
3FE
330
1F
100
AcDbEntity
  8
0
  6
Continuous
100
AcDbBlockReference
  2
DC_GROUP_ESB-165標準_39
 10
0.0
 20
0.0
 30
0.0
  0
INSERT
  5
3FF
330
1F
100
AcDbEntity
  8
0
  6
Continuous
100
AcDbBlockReference
  2
DC_GROUP_ESB-165標準_40
 10
0.0
 20
0.0
 30
0.0
  0
INSERT
  5
400
330
1F
100
AcDbEntity
  8
0
  6
Continuous
100
AcDbBlockReference
  2
DC_GROUP_ESB-165標準_41
 10
0.0
 20
0.0
 30
0.0
  0
ARC
  5
401
330
1F
100
AcDbEntity
  8
0
  6
Continuous
 62
     4
370
    25
100
AcDbCircle
 10
-187.4685312261614
 20
-18.28090568817333
 30
0.0
 40
16.0
100
AcDbArc
 50
71.790043135717
 51
90.0
  0
VIEWPORT
  5
B1
330
1B
100
AcDbEntity
 67
     1
  8
0
100
AcDbViewport
 10
0.0
 20
0.0
 30
0.0
 40
1652.134047752897
 41
629.3344287514408
 68
     1
 69
     1
 12
0.0
 22
0.0
 13
0.0
 23
0.0
 14
0.5
 24
0.5
 15
0.0
 25
0.0
 16
0.0
 26
0.0
 36
1.0
 17
0.0
 27
0.0
 37
0.0
 42
50.0
 43
0.0
 44
0.0
 45
629.3344287514408
 50
0.0
 51
0.0
 72
   100
 90
   557152
  1

281
     0
 71
     1
 74
     0
110
0.0
120
0.0
130
0.0
111
1.0
121
0.0
131
0.0
112
0.0
122
1.0
132
0.0
 79
     0
146
0.0
170
     0
 61
     5
348
2F
292
     1
282
     1
141
0.0
142
0.0
 63
   256
  0
ENDSEC
  0
SECTION
  2
OBJECTS
  0
DICTIONARY
  5
C
330
0
100
AcDbDictionary
281
     1
  3
ACAD_DETAILVIEWSTYLE
350
439
  3
ACAD_GROUP
350
D
  3
ACAD_LAYOUT
350
1A
  3
ACAD_MATERIAL
350
43
  3
ACAD_MLEADERSTYLE
350
6B
  3
ACAD_MLINESTYLE
350
17
  3
ACAD_PLOTSETTINGS
350
19
  3
ACAD_PLOTSTYLENAME
350
E
  3
ACAD_SCALELIST
350
47
  3
ACAD_SECTIONVIEWSTYLE
350
43A
  3
ACAD_TABLESTYLE
350
69
  3
ACAD_VISUALSTYLE
350
2A
  3
ACDB_RECOMPOSE_DATA
350
436
  3
AcDbVariableDictionary
350
402
  0
SUN
  5
6D
330
29
100
AcDbSun
 90
        1
290
     0
 63
     7
421
 16777215
 40
1.0
291
     1
 91
  2455826
 92
 54000000
292
     0
 70
     2
 71
   256
280
     1
  0
DICTIONARY
  5
439
102
{ACAD_REACTORS
330
C
102
}
330
C
100
AcDbDictionary
281
     1
  0
DICTIONARY
  5
D
102
{ACAD_REACTORS
330
C
102
}
330
C
100
AcDbDictionary
281
     1
  0
DICTIONARY
  5
1A
102
{ACAD_REACTORS
330
C
102
}
330
C
100
AcDbDictionary
281
     1
  3
Layout1
350
1E
  3
Layout2
350
26
  3
Model
350
22
  0
DICTIONARY
  5
43
102
{ACAD_REACTORS
330
C
102
}
330
C
100
AcDbDictionary
281
     1
  3
ByBlock
350
45
  3
ByLayer
350
44
  3
Global
350
46
  0
DICTIONARY
  5
6B
102
{ACAD_REACTORS
330
C
102
}
330
C
100
AcDbDictionary
281
     1
  3
Standard
350
6C
  0
DICTIONARY
  5
17
102
{ACAD_REACTORS
330
C
102
}
330
C
100
AcDbDictionary
281
     1
  3
Standard
350
18
  0
DICTIONARY
  5
19
102
{ACAD_REACTORS
330
C
102
}
330
C
100
AcDbDictionary
281
     1
  0
ACDBDICTIONARYWDFLT
  5
E
102
{ACAD_REACTORS
330
C
102
}
330
C
100
AcDbDictionary
281
     1
  3
Normal
350
F
100
AcDbDictionaryWithDefault
340
F
  0
DICTIONARY
  5
47
102
{ACAD_REACTORS
330
C
102
}
330
C
100
AcDbDictionary
281
     1
  3
A0
350
48
  3
A1
350
49
  3
A2
350
4A
  3
A3
350
4B
  3
A4
350
4C
  3
A5
350
4D
  3
A6
350
4E
  3
A7
350
4F
  3
A8
350
50
  3
A9
350
51
  3
B0
350
52
  3
B1
350
53
  3
B2
350
54
  3
B3
350
55
  3
B4
350
56
  3
B5
350
57
  3
B6
350
58
  3
B7
350
59
  3
B8
350
5A
  3
B9
350
5B
  3
C0
350
5C
  3
C1
350
5D
  3
C2
350
5E
  3
C3
350
5F
  3
C4
350
60
  3
C5
350
61
  3
C6
350
62
  3
C7
350
63
  3
C8
350
64
  3
C9
350
65
  3
D0
350
66
  3
D1
350
67
  3
D2
350
68
  0
DICTIONARY
  5
43A
102
{ACAD_REACTORS
330
C
102
}
330
C
100
AcDbDictionary
281
     1
  0
DICTIONARY
  5
69
102
{ACAD_REACTORS
330
C
102
}
330
C
100
AcDbDictionary
281
     1
  3
Standard
350
6A
  0
DICTIONARY
  5
2A
102
{ACAD_REACTORS
330
C
102
}
330
C
100
AcDbDictionary
281
     1
  3
2dWireframe
350
2F
  3
Basic
350
32
  3
Brighten
350
36
  3
ColorChange
350
3A
  3
Conceptual
350
34
  3
Dim
350
35
  3
EdgeColorOff
350
3D
  3
Facepattern
350
39
  3
Flat
350
2B
  3
FlatWithEdges
350
2C
  3
Gouraud
350
2D
  3
GouraudWithEdges
350
2E
  3
Hidden
350
31
  3
JitterOff
350
3B
  3
Linepattern
350
38
  3
OverhangOff
350
3C
  3
Realistic
350
33
  3
Shaded
350
42
  3
Shaded with edges
350
41
  3
Shades of Gray
350
3E
  3
Sketchy
350
3F
  3
Thicken
350
37
  3
Wireframe
350
30
  3
X-Ray
350
40
  0
XRECORD
  5
436
102
{ACAD_REACTORS
330
C
102
}
330
C
100
AcDbXrecord
280
     1
 90
        1
330
6A
  0
DICTIONARY
  5
402
102
{ACAD_REACTORS
330
C
102
}
330
C
100
AcDbDictionary
281
     1
  3
CANNOSCALE
350
403
  3
CMLEADERSTYLE
350
438
  3
CTABLESTYLE
350
437
  0
LAYOUT
  5
1E
102
{ACAD_REACTORS
330
1A
102
}
330
1A
100
AcDbPlotSettings
  1

  2
none_device
  4

  6

 40
0.0
 41
0.0
 42
0.0
 43
0.0
 44
0.0
 45
0.0
 46
0.0
 47
0.0
 48
0.0
 49
0.0
140
0.0
141
0.0
142
1.0
143
1.0
 70
   688
 72
     0
 73
     0
 74
     5
  7

 75
    16
 76
     0
 77
     2
 78
   300
147
1.0
148
0.0
149
0.0
100
AcDbLayout
  1
Layout1
 70
     0
 71
     1
 10
0.0
 20
0.0
 11
12.0
 21
9.0
 12
0.0
 22
0.0
 32
0.0
 14
1.000000000000000E+20
 24
1.000000000000000E+20
 34
1.000000000000000E+20
 15
-1.000000000000000E+20
 25
-1.000000000000000E+20
 35
-1.000000000000000E+20
146
0.0
 13
0.0
 23
0.0
 33
0.0
 16
1.0
 26
0.0
 36
0.0
 17
0.0
 27
1.0
 37
0.0
 76
     0
330
1B
331
B1
  0
LAYOUT
  5
26
102
{ACAD_REACTORS
330
1A
102
}
330
1A
100
AcDbPlotSettings
  1

  2
none_device
  4

  6

 40
0.0
 41
0.0
 42
0.0
 43
0.0
 44
0.0
 45
0.0
 46
0.0
 47
0.0
 48
0.0
 49
0.0
140
0.0
141
0.0
142
1.0
143
1.0
 70
   688
 72
     0
 73
     0
 74
     5
  7

 75
    16
 76
     0
 77
     2
 78
   300
147
1.0
148
0.0
149
0.0
100
AcDbLayout
  1
Layout2
 70
     1
 71
     2
 10
0.0
 20
0.0
 11
0.0
 21
0.0
 12
0.0
 22
0.0
 32
0.0
 14
0.0
 24
0.0
 34
0.0
 15
0.0
 25
0.0
 35
0.0
146
0.0
 13
0.0
 23
0.0
 33
0.0
 16
1.0
 26
0.0
 36
0.0
 17
0.0
 27
1.0
 37
0.0
 76
     0
330
23
  0
LAYOUT
  5
22
102
{ACAD_REACTORS
330
1A
102
}
330
1A
100
AcDbPlotSettings
  1

  2
DWG to PDF.pc3
  4
ISO_A0_(841.00_x_1189.00_MM)
  6

 40
5.0
 41
17.0
 42
5.0
 43
17.0
 44
841.0
 45
1189.0
 46
0.0
 47
0.0
 48
0.0
 49
0.0
140
0.0
141
0.0
142
1.0
143
0.5
 70
  1712
 72
     1
 73
     1
 74
     1
  7

 75
    28
 76
     0
 77
     2
 78
   300
147
2.0
148
0.0
149
0.0
100
AcDbLayout
  1
Model
 70
     1
 71
     0
 10
-297.25
 20
-210.25
 11
297.25
 21
210.25
 12
0.0
 22
0.0
 32
0.0
 14
-826.0670238764485
 24
-314.6672143757204
 34
0.0
 15
826.0670238764485
 25
314.6672143757204
 35
0.0
146
0.0
 13
0.0
 23
0.0
 33
0.0
 16
1.0
 26
0.0
 36
0.0
 17
0.0
 27
1.0
 37
0.0
 76
     0
330
1F
331
29
  0
MATERIAL
  5
45
102
{ACAD_REACTORS
330
43
102
}
330
43
100
AcDbMaterial
  1
ByBlock
 72
     1
 94
      127
  0
MATERIAL
  5
44
102
{ACAD_REACTORS
330
43
102
}
330
43
100
AcDbMaterial
  1
ByLayer
 72
     1
 94
      127
  0
MATERIAL
  5
46
102
{ACAD_REACTORS
330
43
102
}
330
43
100
AcDbMaterial
  1
Global
 72
     1
 94
      127
  0
MLEADERSTYLE
  5
6C
102
{ACAD_REACTORS
330
6B
102
}
330
6B
100
AcDbMLeaderStyle
179
     2
170
     2
171
     1
172
     0
 90
        2
 40
0.0
 41
0.0
173
     1
 91
-1056964608
340
14
 92
       -2
290
     1
 42
0.09
291
     1
 43
0.36
  3
Standard
341
0
 44
0.18
300

342
11
174
     1
178
     6
175
     1
176
     0
 93
-1056964608
 45
0.18
292
     0
297
     0
 46
0.18
343
0
 94
-1056964608
 47
1.0
 49
1.0
140
1.0
293
     1
141
0.0
294
     1
177
     0
142
1.0
295
     0
296
     0
143
0.125
271
     0
272
     9
273
     9
  0
MLINESTYLE
  5
18
102
{ACAD_REACTORS
330
17
102
}
330
17
100
AcDbMlineStyle
  2
Standard
 70
     0
  3

 62
   256
 51
90.0
 52
90.0
 71
     2
 49
0.5
 62
   256
  6
BYLAYER
 49
-0.5
 62
   256
  6
BYLAYER
  0
ACDBPLACEHOLDER
  5
F
102
{ACAD_REACTORS
330
E
102
}
330
E
  0
SCALE
  5
48
102
{ACAD_REACTORS
330
47
102
}
330
47
100
AcDbScale
 70
     0
300
1:1
140
1.0
141
1.0
290
     1
  0
SCALE
  5
49
102
{ACAD_REACTORS
330
47
102
}
330
47
100
AcDbScale
 70
     0
300
1:2
140
1.0
141
2.0
290
     0
  0
SCALE
  5
4A
102
{ACAD_REACTORS
330
47
102
}
330
47
100
AcDbScale
 70
     0
300
1:4
140
1.0
141
4.0
290
     0
  0
SCALE
  5
4B
102
{ACAD_REACTORS
330
47
102
}
330
47
100
AcDbScale
 70
     0
300
1:5
140
1.0
141
5.0
290
     0
  0
SCALE
  5
4C
102
{ACAD_REACTORS
330
47
102
}
330
47
100
AcDbScale
 70
     0
300
1:8
140
1.0
141
8.0
290
     0
  0
SCALE
  5
4D
102
{ACAD_REACTORS
330
47
102
}
330
47
100
AcDbScale
 70
     0
300
1:10
140
1.0
141
10.0
290
     0
  0
SCALE
  5
4E
102
{ACAD_REACTORS
330
47
102
}
330
47
100
AcDbScale
 70
     0
300
1:16
140
1.0
141
16.0
290
     0
  0
SCALE
  5
4F
102
{ACAD_REACTORS
330
47
102
}
330
47
100
AcDbScale
 70
     0
300
1:20
140
1.0
141
20.0
290
     0
  0
SCALE
  5
50
102
{ACAD_REACTORS
330
47
102
}
330
47
100
AcDbScale
 70
     0
300
1:30
140
1.0
141
30.0
290
     0
  0
SCALE
  5
51
102
{ACAD_REACTORS
330
47
102
}
330
47
100
AcDbScale
 70
     0
300
1:40
140
1.0
141
40.0
290
     0
  0
SCALE
  5
52
102
{ACAD_REACTORS
330
47
102
}
330
47
100
AcDbScale
 70
     0
300
1:50
140
1.0
141
50.0
290
     0
  0
SCALE
  5
53
102
{ACAD_REACTORS
330
47
102
}
330
47
100
AcDbScale
 70
     0
300
1:100
140
1.0
141
100.0
290
     0
  0
SCALE
  5
54
102
{ACAD_REACTORS
330
47
102
}
330
47
100
AcDbScale
 70
     0
300
2:1
140
2.0
141
1.0
290
     0
  0
SCALE
  5
55
102
{ACAD_REACTORS
330
47
102
}
330
47
100
AcDbScale
 70
     0
300
4:1
140
4.0
141
1.0
290
     0
  0
SCALE
  5
56
102
{ACAD_REACTORS
330
47
102
}
330
47
100
AcDbScale
 70
     0
300
8:1
140
8.0
141
1.0
290
     0
  0
SCALE
  5
57
102
{ACAD_REACTORS
330
47
102
}
330
47
100
AcDbScale
 70
     0
300
10:1
140
10.0
141
1.0
290
     0
  0
SCALE
  5
58
102
{ACAD_REACTORS
330
47
102
}
330
47
100
AcDbScale
 70
     0
300
100:1
140
100.0
141
1.0
290
     0
  0
SCALE
  5
59
102
{ACAD_REACTORS
330
47
102
}
330
47
100
AcDbScale
 70
     0
300
1/128" = 1'-0"
140
0.0078125
141
12.0
290
     0
  0
SCALE
  5
5A
102
{ACAD_REACTORS
330
47
102
}
330
47
100
AcDbScale
 70
     0
300
1/64" = 1'-0"
140
0.015625
141
12.0
290
     0
  0
SCALE
  5
5B
102
{ACAD_REACTORS
330
47
102
}
330
47
100
AcDbScale
 70
     0
300
1/32" = 1'-0"
140
0.03125
141
12.0
290
     0
  0
SCALE
  5
5C
102
{ACAD_REACTORS
330
47
102
}
330
47
100
AcDbScale
 70
     0
300
1/16" = 1'-0"
140
0.0625
141
12.0
290
     0
  0
SCALE
  5
5D
102
{ACAD_REACTORS
330
47
102
}
330
47
100
AcDbScale
 70
     0
300
3/32" = 1'-0"
140
0.09375
141
12.0
290
     0
  0
SCALE
  5
5E
102
{ACAD_REACTORS
330
47
102
}
330
47
100
AcDbScale
 70
     0
300
1/8" = 1'-0"
140
0.125
141
12.0
290
     0
  0
SCALE
  5
5F
102
{ACAD_REACTORS
330
47
102
}
330
47
100
AcDbScale
 70
     0
300
3/16" = 1'-0"
140
0.1875
141
12.0
290
     0
  0
SCALE
  5
60
102
{ACAD_REACTORS
330
47
102
}
330
47
100
AcDbScale
 70
     0
300
1/4" = 1'-0"
140
0.25
141
12.0
290
     0
  0
SCALE
  5
61
102
{ACAD_REACTORS
330
47
102
}
330
47
100
AcDbScale
 70
     0
300
3/8" = 1'-0"
140
0.375
141
12.0
290
     0
  0
SCALE
  5
62
102
{ACAD_REACTORS
330
47
102
}
330
47
100
AcDbScale
 70
     0
300
1/2" = 1'-0"
140
0.5
141
12.0
290
     0
  0
SCALE
  5
63
102
{ACAD_REACTORS
330
47
102
}
330
47
100
AcDbScale
 70
     0
300
3/4" = 1'-0"
140
0.75
141
12.0
290
     0
  0
SCALE
  5
64
102
{ACAD_REACTORS
330
47
102
}
330
47
100
AcDbScale
 70
     0
300
1" = 1'-0"
140
1.0
141
12.0
290
     0
  0
SCALE
  5
65
102
{ACAD_REACTORS
330
47
102
}
330
47
100
AcDbScale
 70
     0
300
1-1/2" = 1'-0"
140
1.5
141
12.0
290
     0
  0
SCALE
  5
66
102
{ACAD_REACTORS
330
47
102
}
330
47
100
AcDbScale
 70
     0
300
3" = 1'-0"
140
3.0
141
12.0
290
     0
  0
SCALE
  5
67
102
{ACAD_REACTORS
330
47
102
}
330
47
100
AcDbScale
 70
     0
300
6" = 1'-0"
140
6.0
141
12.0
290
     0
  0
SCALE
  5
68
102
{ACAD_REACTORS
330
47
102
}
330
47
100
AcDbScale
 70
     0
300
1'-0" = 1'-0"
140
12.0
141
12.0
290
     0
  0
TABLESTYLE
  5
6A
102
{ACAD_REACTORS
330
69
102
}
102
{ACAD_XDICTIONARY
360
434
102
}
330
69
100
AcDbTableStyle
  3
Standard
 70
     0
 71
     0
 40
0.06
 41
0.06
280
     0
281
     0
  7
Standard
140
0.18
170
     2
 62
     0
 63
   257
283
     0
 90
        4
 91
        0
  1

274
    -2
284
     1
 64
     0
275
    -2
285
     1
 65
     0
276
    -2
286
     1
 66
     0
277
    -2
287
     1
 67
     0
278
    -2
288
     1
 68
     0
279
    -2
289
     1
 69
     0
  7
Standard
140
0.25
170
     5
 62
     0
 63
   257
283
     0
 90
        4
 91
        0
  1

274
    -2
284
     1
 64
     0
275
    -2
285
     1
 65
     0
276
    -2
286
     1
 66
     0
277
    -2
287
     1
 67
     0
278
    -2
288
     1
 68
     0
279
    -2
289
     1
 69
     0
  7
Standard
140
0.18
170
     5
 62
     0
 63
   257
283
     0
 90
        4
 91
        0
  1

274
    -2
284
     1
 64
     0
275
    -2
285
     1
 65
     0
276
    -2
286
     1
 66
     0
277
    -2
287
     1
 67
     0
278
    -2
288
     1
 68
     0
279
    -2
289
     1
 69
     0
  0
VISUALSTYLE
  5
2F
102
{ACAD_REACTORS
330
2A
102
}
102
{ACAD_XDICTIONARY
360
40C
102
}
330
2A
100
AcDbVisualStyle
  2
2dWireframe
 70
     4
177
     2
291
     0
 71
     0
176
     1
 72
     2
176
     1
 73
     0
176
     1
 90
        0
176
     1
 40
0.6
176
     1
 41
30.0
176
     1
 62
     5
 63
     7
421
 16777215
176
     1
 74
     1
176
     1
 91
        4
176
     1
 64
     7
176
     1
 65
   257
176
     1
 75
     1
176
     1
175
     1
176
     1
 42
1.0
176
     1
 92
        0
176
     1
 66
   257
176
     1
 43
1.0
176
     1
 76
     1
176
     1
 77
     6
176
     1
 78
     2
176
     1
 67
     7
176
     1
 79
     5
176
     1
170
     0
176
     1
171
     0
176
     1
290
     0
176
     1
 93
        1
176
     1
 44
0.0
176
     1
173
     0
176
     1
  0
VISUALSTYLE
  5
32
102
{ACAD_REACTORS
330
2A
102
}
102
{ACAD_XDICTIONARY
360
412
102
}
330
2A
100
AcDbVisualStyle
  2
Basic
 70
     7
177
     2
291
     1
 71
     1
176
     1
 72
     0
176
     1
 73
     1
176
     1
 90
        0
176
     1
 40
0.6
176
     1
 41
30.0
176
     1
 62
     5
 63
     7
421
 16777215
176
     1
 74
     0
176
     1
 91
        4
176
     1
 64
     7
176
     1
 65
   257
176
     1
 75
     1
176
     1
175
     1
176
     1
 42
1.0
176
     1
 92
        8
176
     1
 66
     7
176
     1
 43
1.0
176
     1
 76
     1
176
     1
 77
     6
176
     1
 78
     2
176
     1
 67
     7
176
     1
 79
     5
176
     1
170
     0
176
     1
171
     0
176
     1
290
     0
176
     1
 93
        1
176
     1
 44
0.0
176
     1
173
     0
176
     1
  0
VISUALSTYLE
  5
36
102
{ACAD_REACTORS
330
2A
102
}
102
{ACAD_XDICTIONARY
360
41A
102
}
330
2A
100
AcDbVisualStyle
  2
Brighten
 70
    12
177
     2
291
     1
 71
     2
176
     1
 72
     2
176
     1
 73
     0
176
     1
 90
        0
176
     1
 40
0.6
176
     1
 41
30.0
176
     1
 62
     5
 63
     7
421
 16777215
176
     1
 74
     1
176
     1
 91
        4
176
     1
 64
     7
176
     1
 65
   257
176
     1
 75
     1
176
     1
175
     1
176
     1
 42
1.0
176
     1
 92
        8
176
     1
 66
     7
176
     1
 43
1.0
176
     1
 76
     1
176
     1
 77
     6
176
     1
 78
     2
176
     1
 67
     7
176
     1
 79
     5
176
     1
170
     0
176
     1
171
     0
176
     1
290
     0
176
     1
 93
        1
176
     1
 44
50.0
176
     1
173
     0
176
     1
  0
VISUALSTYLE
  5
3A
102
{ACAD_REACTORS
330
2A
102
}
102
{ACAD_XDICTIONARY
360
422
102
}
330
2A
100
AcDbVisualStyle
  2
ColorChange
 70
    16
177
     2
291
     1
 71
     2
176
     1
 72
     2
176
     1
 73
     3
176
     1
 90
        0
176
     1
 40
0.6
176
     1
 41
30.0
176
     1
 62
     5
 63
     8
421
  8421504
176
     1
 74
     1
176
     1
 91
        4
176
     1
 64
     7
176
     1
 65
   257
176
     1
 75
     1
176
     1
175
     1
176
     1
 42
1.0
176
     1
 92
        8
176
     1
 66
     8
424
  8421504
176
     1
 43
1.0
176
     1
 76
     1
176
     1
 77
     6
176
     1
 78
     2
176
     1
 67
     7
176
     1
 79
     5
176
     1
170
     0
176
     1
171
     0
176
     1
290
     0
176
     1
 93
        1
176
     1
 44
0.0
176
     1
173
     0
176
     1
  0
VISUALSTYLE
  5
34
102
{ACAD_REACTORS
330
2A
102
}
102
{ACAD_XDICTIONARY
360
416
102
}
330
2A
100
AcDbVisualStyle
  2
Conceptual
 70
     9
177
     2
291
     0
 71
     3
176
     1
 72
     2
176
     1
 73
     0
176
     1
 90
        0
176
     1
 40
0.6
176
     1
 41
30.0
176
     1
 62
     5
 63
     7
421
 16777215
176
     1
 74
     2
176
     1
 91
        2
176
     1
 64
     7
176
     1
 65
   257
176
     1
 75
     1
176
     1
175
     1
176
     1
 42
179.0
176
     1
 92
        8
176
     1
 66
     7
176
     1
 43
1.0
176
     1
 76
     1
176
     1
 77
     6
176
     1
 78
     2
176
     1
 67
     7
176
     1
 79
     3
176
     1
170
     0
176
     1
171
     0
176
     1
290
     0
176
     1
 93
        1
176
     1
 44
0.0
176
     1
173
     0
176
     1
  0
VISUALSTYLE
  5
35
102
{ACAD_REACTORS
330
2A
102
}
102
{ACAD_XDICTIONARY
360
418
102
}
330
2A
100
AcDbVisualStyle
  2
Dim
 70
    11
177
     2
291
     1
 71
     2
176
     1
 72
     2
176
     1
 73
     0
176
     1
 90
        0
176
     1
 40
0.6
176
     1
 41
30.0
176
     1
 62
     5
 63
     7
421
 16777215
176
     1
 74
     1
176
     1
 91
        4
176
     1
 64
     7
176
     1
 65
   257
176
     1
 75
     1
176
     1
175
     1
176
     1
 42
1.0
176
     1
 92
        8
176
     1
 66
     7
176
     1
 43
1.0
176
     1
 76
     1
176
     1
 77
     6
176
     1
 78
     2
176
     1
 67
     7
176
     1
 79
     5
176
     1
170
     0
176
     1
171
     0
176
     1
290
     0
176
     1
 93
        1
176
     1
 44
-50.0
176
     1
173
     0
176
     1
  0
VISUALSTYLE
  5
3D
102
{ACAD_REACTORS
330
2A
102
}
102
{ACAD_XDICTIONARY
360
428
102
}
330
2A
100
AcDbVisualStyle
  2
EdgeColorOff
 70
    22
177
     2
291
     1
 71
     2
176
     0
 72
     2
176
     0
 73
     0
176
     0
 90
        0
176
     0
 40
0.6
176
     0
 41
30.0
176
     0
 62
     5
 63
     7
421
 16777215
176
     0
 74
     1
176
     0
 91
        4
176
     0
 64
     7
176
     0
 65
   257
176
     0
 75
     1
176
     0
175
     1
176
     0
 42
1.0
176
     0
 92
        8
176
     2
 66
     7
176
     0
 43
1.0
176
     0
 76
     1
176
     0
 77
     6
176
     0
 78
     2
176
     0
 67
     7
176
     0
 79
     5
176
     0
170
     0
176
     0
171
     0
176
     0
290
     0
176
     0
 93
        1
176
     0
 44
0.0
176
     0
173
     0
176
     0
  0
VISUALSTYLE
  5
39
102
{ACAD_REACTORS
330
2A
102
}
102
{ACAD_XDICTIONARY
360
420
102
}
330
2A
100
AcDbVisualStyle
  2
Facepattern
 70
    15
177
     2
291
     1
 71
     2
176
     1
 72
     2
176
     1
 73
     0
176
     1
 90
        0
176
     1
 40
0.6
176
     1
 41
30.0
176
     1
 62
     5
 63
     7
421
 16777215
176
     1
 74
     1
176
     1
 91
        4
176
     1
 64
     7
176
     1
 65
   257
176
     1
 75
     1
176
     1
175
     1
176
     1
 42
1.0
176
     1
 92
        8
176
     1
 66
     7
176
     1
 43
1.0
176
     1
 76
     1
176
     1
 77
     6
176
     1
 78
     2
176
     1
 67
     7
176
     1
 79
     5
176
     1
170
     0
176
     1
171
     0
176
     1
290
     0
176
     1
 93
        1
176
     1
 44
0.0
176
     1
173
     0
176
     1
  0
VISUALSTYLE
  5
2B
102
{ACAD_REACTORS
330
2A
102
}
102
{ACAD_XDICTIONARY
360
404
102
}
330
2A
100
AcDbVisualStyle
  2
Flat
 70
     0
177
     2
291
     1
 71
     2
176
     1
 72
     1
176
     1
 73
     1
176
     1
 90
        2
176
     1
 40
0.6
176
     1
 41
30.0
176
     1
 62
     5
 63
     7
421
 16777215
176
     1
 74
     0
176
     1
 91
        0
176
     1
 64
     7
176
     1
 65
   257
176
     1
 75
     1
176
     1
175
     1
176
     1
 42
1.0
176
     1
 92
        8
176
     1
 66
     7
176
     1
 43
1.0
176
     1
 76
     1
176
     1
 77
     6
176
     1
 78
     2
176
     1
 67
     7
176
     1
 79
     5
176
     1
170
     0
176
     1
171
     0
176
     1
290
     0
176
     1
 93
       13
176
     1
 44
0.0
176
     1
173
     0
176
     1
  0
VISUALSTYLE
  5
2C
102
{ACAD_REACTORS
330
2A
102
}
102
{ACAD_XDICTIONARY
360
406
102
}
330
2A
100
AcDbVisualStyle
  2
FlatWithEdges
 70
     1
177
     2
291
     1
 71
     2
176
     1
 72
     1
176
     1
 73
     1
176
     1
 90
        2
176
     1
 40
0.6
176
     1
 41
30.0
176
     1
 62
     5
 63
     7
421
 16777215
176
     1
 74
     1
176
     1
 91
        0
176
     1
 64
     7
176
     1
 65
   257
176
     1
 75
     1
176
     1
175
     1
176
     1
 42
1.0
176
     1
 92
        0
176
     1
 66
   257
176
     1
 43
1.0
176
     1
 76
     1
176
     1
 77
     6
176
     1
 78
     2
176
     1
 67
     7
176
     1
 79
     5
176
     1
170
     0
176
     1
171
     0
176
     1
290
     0
176
     1
 93
       13
176
     1
 44
0.0
176
     1
173
     0
176
     1
  0
VISUALSTYLE
  5
2D
102
{ACAD_REACTORS
330
2A
102
}
102
{ACAD_XDICTIONARY
360
408
102
}
330
2A
100
AcDbVisualStyle
  2
Gouraud
 70
     2
177
     2
291
     1
 71
     2
176
     1
 72
     2
176
     1
 73
     1
176
     1
 90
        2
176
     1
 40
0.6
176
     1
 41
30.0
176
     1
 62
     5
 63
     7
421
 16777215
176
     1
 74
     0
176
     1
 91
        0
176
     1
 64
     7
176
     1
 65
   257
176
     1
 75
     1
176
     1
175
     1
176
     1
 42
1.0
176
     1
 92
        0
176
     1
 66
     7
176
     1
 43
1.0
176
     1
 76
     1
176
     1
 77
     6
176
     1
 78
     2
176
     1
 67
     7
176
     1
 79
     5
176
     1
170
     0
176
     1
171
     0
176
     1
290
     0
176
     1
 93
       13
176
     1
 44
0.0
176
     1
173
     0
176
     1
  0
VISUALSTYLE
  5
2E
102
{ACAD_REACTORS
330
2A
102
}
102
{ACAD_XDICTIONARY
360
40A
102
}
330
2A
100
AcDbVisualStyle
  2
GouraudWithEdges
 70
     3
177
     2
291
     1
 71
     2
176
     1
 72
     2
176
     1
 73
     1
176
     1
 90
        2
176
     1
 40
0.6
176
     1
 41
30.0
176
     1
 62
     5
 63
     7
421
 16777215
176
     1
 74
     1
176
     1
 91
        0
176
     1
 64
     7
176
     1
 65
   257
176
     1
 75
     1
176
     1
175
     1
176
     1
 42
1.0
176
     1
 92
        0
176
     1
 66
   257
176
     1
 43
1.0
176
     1
 76
     1
176
     1
 77
     6
176
     1
 78
     2
176
     1
 67
     7
176
     1
 79
     5
176
     1
170
     0
176
     1
171
     0
176
     1
290
     0
176
     1
 93
       13
176
     1
 44
0.0
176
     1
173
     0
176
     1
  0
VISUALSTYLE
  5
31
102
{ACAD_REACTORS
330
2A
102
}
102
{ACAD_XDICTIONARY
360
410
102
}
330
2A
100
AcDbVisualStyle
  2
Hidden
 70
     6
177
     2
291
     0
 71
     1
176
     1
 72
     2
176
     1
 73
     2
176
     1
 90
        0
176
     1
 40
0.6
176
     1
 41
30.0
176
     1
 62
     5
 63
     7
421
 16777215
176
     1
 74
     2
176
     1
 91
        2
176
     1
 64
     7
176
     1
 65
   257
176
     1
 75
     2
176
     1
175
     1
176
     1
 42
40.0
176
     1
 92
        0
176
     1
 66
   257
176
     1
 43
1.0
176
     1
 76
     1
176
     1
 77
     6
176
     1
 78
     2
176
     1
 67
     7
176
     1
 79
     3
176
     1
170
     0
176
     1
171
     0
176
     1
290
     0
176
     1
 93
        1
176
     1
 44
0.0
176
     1
173
     0
176
     1
  0
VISUALSTYLE
  5
3B
102
{ACAD_REACTORS
330
2A
102
}
102
{ACAD_XDICTIONARY
360
424
102
}
330
2A
100
AcDbVisualStyle
  2
JitterOff
 70
    20
177
     2
291
     1
 71
     2
176
     0
 72
     2
176
     0
 73
     0
176
     0
 90
        0
176
     0
 40
0.6
176
     0
 41
30.0
176
     0
 62
     5
 63
     7
421
 16777215
176
     0
 74
     1
176
     0
 91
        4
176
     0
 64
     7
176
     0
 65
   257
176
     0
 75
     1
176
     0
175
     1
176
     0
 42
1.0
176
     0
 92
       10
176
     2
 66
     7
176
     0
 43
1.0
176
     0
 76
     1
176
     0
 77
     6
176
     0
 78
     2
176
     0
 67
     7
176
     0
 79
     5
176
     0
170
     0
176
     0
171
     0
176
     0
290
     0
176
     0
 93
        1
176
     0
 44
0.0
176
     0
173
     0
176
     0
  0
VISUALSTYLE
  5
38
102
{ACAD_REACTORS
330
2A
102
}
102
{ACAD_XDICTIONARY
360
41E
102
}
330
2A
100
AcDbVisualStyle
  2
Linepattern
 70
    14
177
     2
291
     1
 71
     2
176
     1
 72
     2
176
     1
 73
     0
176
     1
 90
        0
176
     1
 40
0.6
176
     1
 41
30.0
176
     1
 62
     5
 63
     7
421
 16777215
176
     1
 74
     1
176
     1
 91
        4
176
     1
 64
     7
176
     1
 65
   257
176
     1
 75
     7
176
     1
175
     7
176
     1
 42
1.0
176
     1
 92
        8
176
     1
 66
     7
176
     1
 43
1.0
176
     1
 76
     1
176
     1
 77
     6
176
     1
 78
     2
176
     1
 67
     7
176
     1
 79
     5
176
     1
170
     0
176
     1
171
     0
176
     1
290
     0
176
     1
 93
        1
176
     1
 44
0.0
176
     1
173
     0
176
     1
  0
VISUALSTYLE
  5
3C
102
{ACAD_REACTORS
330
2A
102
}
102
{ACAD_XDICTIONARY
360
426
102
}
330
2A
100
AcDbVisualStyle
  2
OverhangOff
 70
    21
177
     2
291
     1
 71
     2
176
     0
 72
     2
176
     0
 73
     0
176
     0
 90
        0
176
     0
 40
0.6
176
     0
 41
30.0
176
     0
 62
     5
 63
     7
421
 16777215
176
     0
 74
     1
176
     0
 91
        4
176
     0
 64
     7
176
     0
 65
   257
176
     0
 75
     1
176
     0
175
     1
176
     0
 42
1.0
176
     0
 92
        9
176
     2
 66
     7
176
     0
 43
1.0
176
     0
 76
     1
176
     0
 77
     6
176
     0
 78
     2
176
     0
 67
     7
176
     0
 79
     5
176
     0
170
     0
176
     0
171
     0
176
     0
290
     0
176
     0
 93
        1
176
     0
 44
0.0
176
     0
173
     0
176
     0
  0
VISUALSTYLE
  5
33
102
{ACAD_REACTORS
330
2A
102
}
102
{ACAD_XDICTIONARY
360
414
102
}
330
2A
100
AcDbVisualStyle
  2
Realistic
 70
     8
177
     2
291
     0
 71
     2
176
     1
 72
     3
176
     1
 73
     0
176
     1
 90
        2
176
     1
 40
0.6
176
     1
 41
30.0
176
     1
 62
     5
 63
     7
421
 16777215
176
     1
 74
     0
176
     1
 91
        0
176
     1
 64
     7
176
     1
 65
   257
176
     1
 75
     1
176
     1
175
     1
176
     1
 42
1.0
176
     1
 92
        8
176
     1
 66
   257
176
     1
 43
1.0
176
     1
 76
     1
176
     1
 77
     6
176
     1
 78
     2
176
     1
 67
     7
176
     1
 79
     3
176
     1
170
     0
176
     1
171
     0
176
     1
290
     0
176
     1
 93
       13
176
     1
 44
0.0
176
     1
173
     0
176
     1
  0
VISUALSTYLE
  5
42
102
{ACAD_REACTORS
330
2A
102
}
102
{ACAD_XDICTIONARY
360
432
102
}
330
2A
100
AcDbVisualStyle
  2
Shaded
 70
    27
177
     2
291
     0
 71
     2
176
     1
 72
     2
176
     1
 73
     1
176
     1
 90
        2
176
     1
 40
0.6
176
     1
 41
30.0
176
     1
 62
     5
 63
     7
421
 16777215
176
     1
 74
     0
176
     1
 91
        4
176
     1
 64
     7
176
     1
 65
   257
176
     1
 75
     1
176
     1
175
     1
176
     1
 42
1.0
176
     1
 92
        8
176
     1
 66
   257
176
     1
 43
1.0
176
     1
 76
     1
176
     1
 77
     6
176
     1
 78
     2
176
     1
 67
     8
425
  7895160
176
     1
 79
     3
176
     1
170
     0
176
     1
171
     0
176
     1
290
     0
176
     1
 93
        5
176
     1
 44
0.0
176
     1
173
     0
176
     1
  0
VISUALSTYLE
  5
41
102
{ACAD_REACTORS
330
2A
102
}
102
{ACAD_XDICTIONARY
360
430
102
}
330
2A
100
AcDbVisualStyle
  2
Shaded with edges
 70
    26
177
     2
291
     0
 71
     2
176
     1
 72
     2
176
     1
 73
     1
176
     1
 90
        2
176
     1
 40
0.6
176
     1
 41
30.0
176
     1
 62
     5
 63
     7
421
 16777215
176
     1
 74
     1
176
     1
 91
       10
176
     1
 64
     7
176
     1
 65
   257
176
     1
 75
     2
176
     1
175
     1
176
     1
 42
1.0
176
     1
 92
        8
176
     1
 66
   257
176
     1
 43
1.0
176
     1
 76
     1
176
     1
 77
     6
176
     1
 78
     2
176
     1
 67
     7
176
     1
 79
     3
176
     1
170
     0
176
     1
171
     0
176
     1
290
     0
176
     1
 93
        5
176
     1
 44
0.0
176
     1
173
     0
176
     1
  0
VISUALSTYLE
  5
3E
102
{ACAD_REACTORS
330
2A
102
}
102
{ACAD_XDICTIONARY
360
42A
102
}
330
2A
100
AcDbVisualStyle
  2
Shades of Gray
 70
    23
177
     2
291
     0
 71
     2
176
     1
 72
     2
176
     1
 73
     3
176
     1
 90
        0
176
     1
 40
0.6
176
     1
 41
30.0
176
     1
 62
     5
 63
     7
421
 16777215
176
     1
 74
     2
176
     1
 91
        2
176
     1
 64
     7
176
     1
 65
     7
176
     1
 75
     1
176
     1
175
     1
176
     1
 42
40.0
176
     1
 92
        8
176
     1
 66
     7
176
     1
 43
1.0
176
     1
 76
     1
176
     1
 77
     6
176
     1
 78
     2
176
     1
 67
     7
176
     1
 79
     3
176
     1
170
     0
176
     1
171
     0
176
     1
290
     0
176
     1
 93
        1
176
     1
 44
0.0
176
     1
173
     0
176
     1
  0
VISUALSTYLE
  5
3F
102
{ACAD_REACTORS
330
2A
102
}
102
{ACAD_XDICTIONARY
360
42C
102
}
330
2A
100
AcDbVisualStyle
  2
Sketchy
 70
    24
177
     2
291
     0
 71
     1
176
     1
 72
     2
176
     1
 73
     2
176
     1
 90
        0
176
     1
 40
0.6
176
     1
 41
30.0
176
     1
 62
     5
 63
     7
421
 16777215
176
     1
 74
     2
176
     1
 91
        2
176
     1
 64
     7
176
     1
 65
     7
176
     1
 75
     1
176
     1
175
     1
176
     1
 42
40.0
176
     1
 92
       11
176
     1
 66
     7
176
     1
 43
1.0
176
     1
 76
     1
176
     1
 77
     6
176
     1
 78
     2
176
     1
 67
     7
176
     1
 79
     6
176
     1
170
     0
176
     1
171
     0
176
     1
290
     0
176
     1
 93
        1
176
     1
 44
0.0
176
     1
173
     0
176
     1
  0
VISUALSTYLE
  5
37
102
{ACAD_REACTORS
330
2A
102
}
102
{ACAD_XDICTIONARY
360
41C
102
}
330
2A
100
AcDbVisualStyle
  2
Thicken
 70
    13
177
     2
291
     1
 71
     2
176
     1
 72
     2
176
     1
 73
     0
176
     1
 90
        0
176
     1
 40
0.6
176
     1
 41
30.0
176
     1
 62
     5
 63
     7
421
 16777215
176
     1
 74
     1
176
     1
 91
        4
176
     1
 64
     7
176
     1
 65
   257
176
     1
 75
     1
176
     1
175
     1
176
     1
 42
1.0
176
     1
 92
       12
176
     1
 66
     7
176
     1
 43
1.0
176
     1
 76
     1
176
     1
 77
     6
176
     1
 78
     2
176
     1
 67
     7
176
     1
 79
     5
176
     1
170
     0
176
     1
171
     0
176
     1
290
     0
176
     1
 93
        1
176
     1
 44
0.0
176
     1
173
     0
176
     1
  0
VISUALSTYLE
  5
30
102
{ACAD_REACTORS
330
2A
102
}
102
{ACAD_XDICTIONARY
360
40E
102
}
330
2A
100
AcDbVisualStyle
  2
Wireframe
 70
     5
177
     2
291
     0
 71
     0
176
     1
 72
     2
176
     1
 73
     0
176
     1
 90
        0
176
     1
 40
0.6
176
     1
 41
30.0
176
     1
 62
     5
 63
     7
421
 16777215
176
     1
 74
     1
176
     1
 91
        4
176
     1
 64
     7
176
     1
 65
   257
176
     1
 75
     1
176
     1
175
     1
176
     1
 42
1.0
176
     1
 92
        0
176
     1
 66
   257
176
     1
 43
1.0
176
     1
 76
     1
176
     1
 77
     6
176
     1
 78
     2
176
     1
 67
     7
176
     1
 79
     3
176
     1
170
     0
176
     1
171
     0
176
     1
290
     0
176
     1
 93
        1
176
     1
 44
0.0
176
     1
173
     0
176
     1
  0
VISUALSTYLE
  5
40
102
{ACAD_REACTORS
330
2A
102
}
102
{ACAD_XDICTIONARY
360
42E
102
}
330
2A
100
AcDbVisualStyle
  2
X-Ray
 70
    25
177
     2
291
     0
 71
     2
176
     1
 72
     2
176
     1
 73
     1
176
     1
 90
        1
176
     1
 40
0.5
176
     1
 41
30.0
176
     1
 62
     5
 63
     7
421
 16777215
176
     1
 74
     1
176
     1
 91
        0
176
     1
 64
     7
176
     1
 65
   257
176
     1
 75
     1
176
     1
175
     1
176
     1
 42
1.0
176
     1
 92
        8
176
     1
 66
     7
176
     1
 43
1.0
176
     1
 76
     1
176
     1
 77
     6
176
     1
 78
     2
176
     1
 67
     7
176
     1
 79
     3
176
     1
170
     0
176
     1
171
     0
176
     1
290
     0
176
     1
 93
       13
176
     1
 44
0.0
176
     1
173
     0
176
     1
  0
DICTIONARYVAR
  5
403
102
{ACAD_REACTORS
330
402
102
}
330
402
100
DictionaryVariables
280
     0
  1
1:1
  0
DICTIONARYVAR
  5
438
102
{ACAD_REACTORS
330
402
102
}
330
402
100
DictionaryVariables
280
     0
  1
Standard
  0
DICTIONARYVAR
  5
437
102
{ACAD_REACTORS
330
402
102
}
330
402
100
DictionaryVariables
280
     0
  1
Standard
  0
DICTIONARY
  5
434
330
6A
100
AcDbDictionary
280
     1
281
     1
  3
ACAD_ROUNDTRIP_2008_TABLESTYLE_CELLSTYLEMAP
360
435
  0
DICTIONARY
  5
40C
330
2F
100
AcDbDictionary
280
     1
281
     1
  3
ACAD_XREC_ROUNDTRIP
360
40D
  0
DICTIONARY
  5
412
330
32
100
AcDbDictionary
280
     1
281
     1
  3
ACAD_XREC_ROUNDTRIP
360
413
  0
DICTIONARY
  5
41A
330
36
100
AcDbDictionary
280
     1
281
     1
  3
ACAD_XREC_ROUNDTRIP
360
41B
  0
DICTIONARY
  5
422
330
3A
100
AcDbDictionary
280
     1
281
     1
  3
ACAD_XREC_ROUNDTRIP
360
423
  0
DICTIONARY
  5
416
330
34
100
AcDbDictionary
280
     1
281
     1
  3
ACAD_XREC_ROUNDTRIP
360
417
  0
DICTIONARY
  5
418
330
35
100
AcDbDictionary
280
     1
281
     1
  3
ACAD_XREC_ROUNDTRIP
360
419
  0
DICTIONARY
  5
428
330
3D
100
AcDbDictionary
280
     1
281
     1
  3
ACAD_XREC_ROUNDTRIP
360
429
  0
DICTIONARY
  5
420
330
39
100
AcDbDictionary
280
     1
281
     1
  3
ACAD_XREC_ROUNDTRIP
360
421
  0
DICTIONARY
  5
404
330
2B
100
AcDbDictionary
280
     1
281
     1
  3
ACAD_XREC_ROUNDTRIP
360
405
  0
DICTIONARY
  5
406
330
2C
100
AcDbDictionary
280
     1
281
     1
  3
ACAD_XREC_ROUNDTRIP
360
407
  0
DICTIONARY
  5
408
330
2D
100
AcDbDictionary
280
     1
281
     1
  3
ACAD_XREC_ROUNDTRIP
360
409
  0
DICTIONARY
  5
40A
330
2E
100
AcDbDictionary
280
     1
281
     1
  3
ACAD_XREC_ROUNDTRIP
360
40B
  0
DICTIONARY
  5
410
330
31
100
AcDbDictionary
280
     1
281
     1
  3
ACAD_XREC_ROUNDTRIP
360
411
  0
DICTIONARY
  5
424
330
3B
100
AcDbDictionary
280
     1
281
     1
  3
ACAD_XREC_ROUNDTRIP
360
425
  0
DICTIONARY
  5
41E
330
38
100
AcDbDictionary
280
     1
281
     1
  3
ACAD_XREC_ROUNDTRIP
360
41F
  0
DICTIONARY
  5
426
330
3C
100
AcDbDictionary
280
     1
281
     1
  3
ACAD_XREC_ROUNDTRIP
360
427
  0
DICTIONARY
  5
414
330
33
100
AcDbDictionary
280
     1
281
     1
  3
ACAD_XREC_ROUNDTRIP
360
415
  0
DICTIONARY
  5
432
330
42
100
AcDbDictionary
280
     1
281
     1
  3
ACAD_XREC_ROUNDTRIP
360
433
  0
DICTIONARY
  5
430
330
41
100
AcDbDictionary
280
     1
281
     1
  3
ACAD_XREC_ROUNDTRIP
360
431
  0
DICTIONARY
  5
42A
330
3E
100
AcDbDictionary
280
     1
281
     1
  3
ACAD_XREC_ROUNDTRIP
360
42B
  0
DICTIONARY
  5
42C
330
3F
100
AcDbDictionary
280
     1
281
     1
  3
ACAD_XREC_ROUNDTRIP
360
42D
  0
DICTIONARY
  5
41C
330
37
100
AcDbDictionary
280
     1
281
     1
  3
ACAD_XREC_ROUNDTRIP
360
41D
  0
DICTIONARY
  5
40E
330
30
100
AcDbDictionary
280
     1
281
     1
  3
ACAD_XREC_ROUNDTRIP
360
40F
  0
DICTIONARY
  5
42E
330
40
100
AcDbDictionary
280
     1
281
     1
  3
ACAD_XREC_ROUNDTRIP
360
42F
  0
CELLSTYLEMAP
  5
435
102
{ACAD_REACTORS
330
434
102
}
330
434
100
AcDbCellStyleMap
 90
        3
300
CELLSTYLE
  1
TABLEFORMAT_BEGIN
 90
        5
170
     1
 91
        0
 92
    32768
 62
   257
 93
        1
300
CONTENTFORMAT
  1
CONTENTFORMAT_BEGIN
 90
        0
 91
        0
 92
        4
 93
        0
300

 40
0.0
140
1.0
 94
        5
 62
     0
340
11
144
0.25
309
CONTENTFORMAT_END
171
     1
301
MARGIN
  1
CELLMARGIN_BEGIN
 40
0.06
 40
0.06
 40
0.06
 40
0.06
 40
0.06
 40
0.06
309
CELLMARGIN_END
 94
        6
 95
        1
302
GRIDFORMAT
  1
GRIDFORMAT_BEGIN
 90
        0
 91
        1
 62
     0
 92
       -2
340
14
 93
        0
 40
0.045
309
GRIDFORMAT_END
 95
        2
302
GRIDFORMAT
  1
GRIDFORMAT_BEGIN
 90
        0
 91
        1
 62
     0
 92
       -2
340
14
 93
        0
 40
0.045
309
GRIDFORMAT_END
 95
        4
302
GRIDFORMAT
  1
GRIDFORMAT_BEGIN
 90
        0
 91
        1
 62
     0
 92
       -2
340
14
 93
        0
 40
0.045
309
GRIDFORMAT_END
 95
        8
302
GRIDFORMAT
  1
GRIDFORMAT_BEGIN
 90
        0
 91
        1
 62
     0
 92
       -2
340
14
 93
        0
 40
0.045
309
GRIDFORMAT_END
 95
       16
302
GRIDFORMAT
  1
GRIDFORMAT_BEGIN
 90
        0
 91
        1
 62
     0
 92
       -2
340
14
 93
        0
 40
0.045
309
GRIDFORMAT_END
 95
       32
302
GRIDFORMAT
  1
GRIDFORMAT_BEGIN
 90
        0
 91
        1
 62
     0
 92
       -2
340
14
 93
        0
 40
0.045
309
GRIDFORMAT_END
309
TABLEFORMAT_END
  1
CELLSTYLE_BEGIN
 90
        1
 91
        1
300
_TITLE
309
CELLSTYLE_END
300
CELLSTYLE
  1
TABLEFORMAT_BEGIN
 90
        5
170
     1
 91
        0
 92
        0
 62
   257
 93
        1
300
CONTENTFORMAT
  1
CONTENTFORMAT_BEGIN
 90
        0
 91
        0
 92
        4
 93
        0
300

 40
0.0
140
1.0
 94
        5
 62
     0
340
11
144
0.18
309
CONTENTFORMAT_END
171
     1
301
MARGIN
  1
CELLMARGIN_BEGIN
 40
0.06
 40
0.06
 40
0.06
 40
0.06
 40
0.06
 40
0.06
309
CELLMARGIN_END
 94
        6
 95
        1
302
GRIDFORMAT
  1
GRIDFORMAT_BEGIN
 90
        0
 91
        1
 62
     0
 92
       -2
340
14
 93
        0
 40
0.045
309
GRIDFORMAT_END
 95
        2
302
GRIDFORMAT
  1
GRIDFORMAT_BEGIN
 90
        0
 91
        1
 62
     0
 92
       -2
340
14
 93
        0
 40
0.045
309
GRIDFORMAT_END
 95
        4
302
GRIDFORMAT
  1
GRIDFORMAT_BEGIN
 90
        0
 91
        1
 62
     0
 92
       -2
340
14
 93
        0
 40
0.045
309
GRIDFORMAT_END
 95
        8
302
GRIDFORMAT
  1
GRIDFORMAT_BEGIN
 90
        0
 91
        1
 62
     0
 92
       -2
340
14
 93
        0
 40
0.045
309
GRIDFORMAT_END
 95
       16
302
GRIDFORMAT
  1
GRIDFORMAT_BEGIN
 90
        0
 91
        1
 62
     0
 92
       -2
340
14
 93
        0
 40
0.045
309
GRIDFORMAT_END
 95
       32
302
GRIDFORMAT
  1
GRIDFORMAT_BEGIN
 90
        0
 91
        1
 62
     0
 92
       -2
340
14
 93
        0
 40
0.045
309
GRIDFORMAT_END
309
TABLEFORMAT_END
  1
CELLSTYLE_BEGIN
 90
        2
 91
        1
300
_HEADER
309
CELLSTYLE_END
300
CELLSTYLE
  1
TABLEFORMAT_BEGIN
 90
        5
170
     1
 91
        0
 92
        0
 62
   257
 93
        1
300
CONTENTFORMAT
  1
CONTENTFORMAT_BEGIN
 90
        0
 91
        0
 92
        4
 93
        0
300

 40
0.0
140
1.0
 94
        2
 62
     0
340
11
144
0.18
309
CONTENTFORMAT_END
171
     1
301
MARGIN
  1
CELLMARGIN_BEGIN
 40
0.06
 40
0.06
 40
0.06
 40
0.06
 40
0.06
 40
0.06
309
CELLMARGIN_END
 94
        6
 95
        1
302
GRIDFORMAT
  1
GRIDFORMAT_BEGIN
 90
        0
 91
        1
 62
     0
 92
       -2
340
14
 93
        0
 40
0.045
309
GRIDFORMAT_END
 95
        2
302
GRIDFORMAT
  1
GRIDFORMAT_BEGIN
 90
        0
 91
        1
 62
     0
 92
       -2
340
14
 93
        0
 40
0.045
309
GRIDFORMAT_END
 95
        4
302
GRIDFORMAT
  1
GRIDFORMAT_BEGIN
 90
        0
 91
        1
 62
     0
 92
       -2
340
14
 93
        0
 40
0.045
309
GRIDFORMAT_END
 95
        8
302
GRIDFORMAT
  1
GRIDFORMAT_BEGIN
 90
        0
 91
        1
 62
     0
 92
       -2
340
14
 93
        0
 40
0.045
309
GRIDFORMAT_END
 95
       16
302
GRIDFORMAT
  1
GRIDFORMAT_BEGIN
 90
        0
 91
        1
 62
     0
 92
       -2
340
14
 93
        0
 40
0.045
309
GRIDFORMAT_END
 95
       32
302
GRIDFORMAT
  1
GRIDFORMAT_BEGIN
 90
        0
 91
        1
 62
     0
 92
       -2
340
14
 93
        0
 40
0.045
309
GRIDFORMAT_END
309
TABLEFORMAT_END
  1
CELLSTYLE_BEGIN
 90
        3
 91
        2
300
_DATA
309
CELLSTYLE_END
  0
XRECORD
  5
40D
102
{ACAD_REACTORS
330
40C
102
}
330
40C
100
AcDbXrecord
280
     1
102
RTVSPost2010Prop28
280
     1
102
RTVSPost2010PropOp28
 70
     1
102
RTVSPost2010Prop29
280
     1
102
RTVSPost2010PropOp29
 70
     1
102
RTVSPost2010Prop30
280
     0
102
RTVSPost2010PropOp30
 70
     1
102
RTVSPost2010Prop31
280
     0
102
RTVSPost2010PropOp31
 70
     1
102
RTVSPost2010Prop32
280
     0
102
RTVSPost2010PropOp32
 70
     1
102
RTVSPost2010Prop33
280
     0
102
RTVSPost2010PropOp33
 70
     1
102
RTVSPost2010Prop34
280
     0
102
RTVSPost2010PropOp34
 70
     1
102
RTVSPost2010Prop35
280
     0
102
RTVSPost2010PropOp35
 70
     1
102
RTVSPost2010Prop36
280
     0
102
RTVSPost2010PropOp36
 70
     1
102
RTVSPost2010Prop37
 90
       50
102
RTVSPost2010PropOp37
 70
     1
102
RTVSPost2010Prop38
140
0.0
102
RTVSPost2010PropOp38
 70
     1
102
RTVSPost2010Prop39
140
1.0
102
RTVSPost2010PropOp39
 70
     1
102
RTVSPost2010Prop40
 90
        0
102
RTVSPost2010PropOp40
 70
     1
102
RTVSPost2010Prop41ColorIndex
 90
       18
102
RTVSPost2010Prop41ColorRGB
 90
        0
102
RTVSPost2010PropOp41
 70
     1
102
RTVSPost2010Prop42
 90
       50
102
RTVSPost2010PropOp42
 70
     1
102
RTVSPost2010Prop43
 90
        3
102
RTVSPost2010PropOp43
 70
     1
102
RTVSPost2010Prop44ColorIndex
 90
        5
102
RTVSPost2010Prop44ColorRGB
 90
      255
102
RTVSPost2010PropOp44
 70
     1
102
RTVSPost2010Prop45
280
     0
102
RTVSPost2010PropOp45
 70
     1
102
RTVSPost2010Prop46
 90
       50
102
RTVSPost2010PropOp46
 70
     1
102
RTVSPost2010Prop47
 90
       50
102
RTVSPost2010PropOp47
 70
     1
102
RTVSPost2010Prop48
 90
       50
102
RTVSPost2010PropOp48
 70
     1
102
RTVSPost2010Prop49
280
     0
102
RTVSPost2010PropOp49
 70
     1
102
RTVSPost2010Prop50
 90
       50
102
RTVSPost2010PropOp50
 70
     1
102
RTVSPost2010Prop51ColorIndex
 90
      256
102
RTVSPost2010Prop51ColorRGB
 90
-16777216
102
RTVSPost2010PropOp51
 70
     0
102
RTVSPost2010Prop52
140
1.0
102
RTVSPost2010PropOp52
 70
     0
102
RTVSPost2010Prop53
 90
        2
102
RTVSPost2010PropOp53
 70
     1
102
RTVSPost2010Prop54
  1
strokes_ogs.tif
102
RTVSPost2010PropOp54
 70
     1
102
RTVSPost2010Prop55
280
     0
102
RTVSPost2010PropOp55
 70
     1
102
RTVSPost2010Prop56
140
1.0
102
RTVSPost2010PropOp56
 70
     1
102
RTVSPost2010Prop57
140
1.0
102
RTVSPost2010PropOp57
 70
     1
  0
XRECORD
  5
413
102
{ACAD_REACTORS
330
412
102
}
330
412
100
AcDbXrecord
280
     1
102
RTVSPost2010Prop28
280
     0
102
RTVSPost2010PropOp28
 70
     1
102
RTVSPost2010Prop29
280
     1
102
RTVSPost2010PropOp29
 70
     1
102
RTVSPost2010Prop30
280
     1
102
RTVSPost2010PropOp30
 70
     1
102
RTVSPost2010Prop31
280
     0
102
RTVSPost2010PropOp31
 70
     1
102
RTVSPost2010Prop32
280
     0
102
RTVSPost2010PropOp32
 70
     1
102
RTVSPost2010Prop33
280
     0
102
RTVSPost2010PropOp33
 70
     1
102
RTVSPost2010Prop34
280
     0
102
RTVSPost2010PropOp34
 70
     1
102
RTVSPost2010Prop35
280
     0
102
RTVSPost2010PropOp35
 70
     1
102
RTVSPost2010Prop36
280
     0
102
RTVSPost2010PropOp36
 70
     1
102
RTVSPost2010Prop37
 90
       50
102
RTVSPost2010PropOp37
 70
     1
102
RTVSPost2010Prop38
140
0.0
102
RTVSPost2010PropOp38
 70
     1
102
RTVSPost2010Prop39
140
1.0
102
RTVSPost2010PropOp39
 70
     1
102
RTVSPost2010Prop40
 90
        0
102
RTVSPost2010PropOp40
 70
     1
102
RTVSPost2010Prop41ColorIndex
 90
       18
102
RTVSPost2010Prop41ColorRGB
 90
        0
102
RTVSPost2010PropOp41
 70
     1
102
RTVSPost2010Prop42
 90
       50
102
RTVSPost2010PropOp42
 70
     1
102
RTVSPost2010Prop43
 90
        3
102
RTVSPost2010PropOp43
 70
     1
102
RTVSPost2010Prop44ColorIndex
 90
        5
102
RTVSPost2010Prop44ColorRGB
 90
      255
102
RTVSPost2010PropOp44
 70
     1
102
RTVSPost2010Prop45
280
     0
102
RTVSPost2010PropOp45
 70
     1
102
RTVSPost2010Prop46
 90
       50
102
RTVSPost2010PropOp46
 70
     1
102
RTVSPost2010Prop47
 90
       50
102
RTVSPost2010PropOp47
 70
     1
102
RTVSPost2010Prop48
 90
       50
102
RTVSPost2010PropOp48
 70
     1
102
RTVSPost2010Prop49
280
     0
102
RTVSPost2010PropOp49
 70
     1
102
RTVSPost2010Prop50
 90
       50
102
RTVSPost2010PropOp50
 70
     1
102
RTVSPost2010Prop51ColorIndex
 90
      256
102
RTVSPost2010Prop51ColorRGB
 90
-16777216
102
RTVSPost2010PropOp51
 70
     0
102
RTVSPost2010Prop52
140
1.0
102
RTVSPost2010PropOp52
 70
     0
102
RTVSPost2010Prop53
 90
        2
102
RTVSPost2010PropOp53
 70
     1
102
RTVSPost2010Prop54
  1
strokes_ogs.tif
102
RTVSPost2010PropOp54
 70
     1
102
RTVSPost2010Prop55
280
     0
102
RTVSPost2010PropOp55
 70
     1
102
RTVSPost2010Prop56
140
1.0
102
RTVSPost2010PropOp56
 70
     1
102
RTVSPost2010Prop57
140
1.0
102
RTVSPost2010PropOp57
 70
     1
  0
XRECORD
  5
41B
102
{ACAD_REACTORS
330
41A
102
}
330
41A
100
AcDbXrecord
280
     1
102
RTVSPost2010Prop28
280
     0
102
RTVSPost2010PropOp28
 70
     1
102
RTVSPost2010Prop29
280
     1
102
RTVSPost2010PropOp29
 70
     1
102
RTVSPost2010Prop30
280
     1
102
RTVSPost2010PropOp30
 70
     1
102
RTVSPost2010Prop31
280
     0
102
RTVSPost2010PropOp31
 70
     1
102
RTVSPost2010Prop32
280
     0
102
RTVSPost2010PropOp32
 70
     1
102
RTVSPost2010Prop33
280
     0
102
RTVSPost2010PropOp33
 70
     1
102
RTVSPost2010Prop34
280
     0
102
RTVSPost2010PropOp34
 70
     1
102
RTVSPost2010Prop35
280
     0
102
RTVSPost2010PropOp35
 70
     1
102
RTVSPost2010Prop36
280
     0
102
RTVSPost2010PropOp36
 70
     1
102
RTVSPost2010Prop37
 90
       50
102
RTVSPost2010PropOp37
 70
     1
102
RTVSPost2010Prop38
140
0.0
102
RTVSPost2010PropOp38
 70
     1
102
RTVSPost2010Prop39
140
1.0
102
RTVSPost2010PropOp39
 70
     1
102
RTVSPost2010Prop40
 90
        0
102
RTVSPost2010PropOp40
 70
     1
102
RTVSPost2010Prop41ColorIndex
 90
       18
102
RTVSPost2010Prop41ColorRGB
 90
        0
102
RTVSPost2010PropOp41
 70
     1
102
RTVSPost2010Prop42
 90
       50
102
RTVSPost2010PropOp42
 70
     1
102
RTVSPost2010Prop43
 90
        3
102
RTVSPost2010PropOp43
 70
     1
102
RTVSPost2010Prop44ColorIndex
 90
        5
102
RTVSPost2010Prop44ColorRGB
 90
      255
102
RTVSPost2010PropOp44
 70
     1
102
RTVSPost2010Prop45
280
     0
102
RTVSPost2010PropOp45
 70
     1
102
RTVSPost2010Prop46
 90
       50
102
RTVSPost2010PropOp46
 70
     1
102
RTVSPost2010Prop47
 90
       50
102
RTVSPost2010PropOp47
 70
     1
102
RTVSPost2010Prop48
 90
       50
102
RTVSPost2010PropOp48
 70
     1
102
RTVSPost2010Prop49
280
     0
102
RTVSPost2010PropOp49
 70
     1
102
RTVSPost2010Prop50
 90
       50
102
RTVSPost2010PropOp50
 70
     1
102
RTVSPost2010Prop51ColorIndex
 90
      256
102
RTVSPost2010Prop51ColorRGB
 90
-16777216
102
RTVSPost2010PropOp51
 70
     0
102
RTVSPost2010Prop52
140
1.0
102
RTVSPost2010PropOp52
 70
     0
102
RTVSPost2010Prop53
 90
        2
102
RTVSPost2010PropOp53
 70
     1
102
RTVSPost2010Prop54
  1
strokes_ogs.tif
102
RTVSPost2010PropOp54
 70
     1
102
RTVSPost2010Prop55
280
     0
102
RTVSPost2010PropOp55
 70
     1
102
RTVSPost2010Prop56
140
1.0
102
RTVSPost2010PropOp56
 70
     1
102
RTVSPost2010Prop57
140
1.0
102
RTVSPost2010PropOp57
 70
     1
  0
XRECORD
  5
423
102
{ACAD_REACTORS
330
422
102
}
330
422
100
AcDbXrecord
280
     1
102
RTVSPost2010Prop28
280
     0
102
RTVSPost2010PropOp28
 70
     1
102
RTVSPost2010Prop29
280
     1
102
RTVSPost2010PropOp29
 70
     1
102
RTVSPost2010Prop30
280
     1
102
RTVSPost2010PropOp30
 70
     1
102
RTVSPost2010Prop31
280
     0
102
RTVSPost2010PropOp31
 70
     1
102
RTVSPost2010Prop32
280
     0
102
RTVSPost2010PropOp32
 70
     1
102
RTVSPost2010Prop33
280
     0
102
RTVSPost2010PropOp33
 70
     1
102
RTVSPost2010Prop34
280
     0
102
RTVSPost2010PropOp34
 70
     1
102
RTVSPost2010Prop35
280
     0
102
RTVSPost2010PropOp35
 70
     1
102
RTVSPost2010Prop36
280
     0
102
RTVSPost2010PropOp36
 70
     1
102
RTVSPost2010Prop37
 90
       50
102
RTVSPost2010PropOp37
 70
     1
102
RTVSPost2010Prop38
140
0.0
102
RTVSPost2010PropOp38
 70
     1
102
RTVSPost2010Prop39
140
1.0
102
RTVSPost2010PropOp39
 70
     1
102
RTVSPost2010Prop40
 90
        0
102
RTVSPost2010PropOp40
 70
     1
102
RTVSPost2010Prop41ColorIndex
 90
       18
102
RTVSPost2010Prop41ColorRGB
 90
        0
102
RTVSPost2010PropOp41
 70
     1
102
RTVSPost2010Prop42
 90
       50
102
RTVSPost2010PropOp42
 70
     1
102
RTVSPost2010Prop43
 90
        3
102
RTVSPost2010PropOp43
 70
     1
102
RTVSPost2010Prop44ColorIndex
 90
        5
102
RTVSPost2010Prop44ColorRGB
 90
      255
102
RTVSPost2010PropOp44
 70
     1
102
RTVSPost2010Prop45
280
     0
102
RTVSPost2010PropOp45
 70
     1
102
RTVSPost2010Prop46
 90
       50
102
RTVSPost2010PropOp46
 70
     1
102
RTVSPost2010Prop47
 90
       50
102
RTVSPost2010PropOp47
 70
     1
102
RTVSPost2010Prop48
 90
       50
102
RTVSPost2010PropOp48
 70
     1
102
RTVSPost2010Prop49
280
     0
102
RTVSPost2010PropOp49
 70
     1
102
RTVSPost2010Prop50
 90
       50
102
RTVSPost2010PropOp50
 70
     1
102
RTVSPost2010Prop51ColorIndex
 90
      256
102
RTVSPost2010Prop51ColorRGB
 90
-16777216
102
RTVSPost2010PropOp51
 70
     0
102
RTVSPost2010Prop52
140
1.0
102
RTVSPost2010PropOp52
 70
     0
102
RTVSPost2010Prop53
 90
        2
102
RTVSPost2010PropOp53
 70
     1
102
RTVSPost2010Prop54
  1
strokes_ogs.tif
102
RTVSPost2010PropOp54
 70
     1
102
RTVSPost2010Prop55
280
     0
102
RTVSPost2010PropOp55
 70
     1
102
RTVSPost2010Prop56
140
1.0
102
RTVSPost2010PropOp56
 70
     1
102
RTVSPost2010Prop57
140
1.0
102
RTVSPost2010PropOp57
 70
     1
  0
XRECORD
  5
417
102
{ACAD_REACTORS
330
416
102
}
330
416
100
AcDbXrecord
280
     1
102
RTVSPost2010Prop28
280
     0
102
RTVSPost2010PropOp28
 70
     1
102
RTVSPost2010Prop29
280
     1
102
RTVSPost2010PropOp29
 70
     1
102
RTVSPost2010Prop30
280
     1
102
RTVSPost2010PropOp30
 70
     1
102
RTVSPost2010Prop31
280
     0
102
RTVSPost2010PropOp31
 70
     1
102
RTVSPost2010Prop32
280
     0
102
RTVSPost2010PropOp32
 70
     1
102
RTVSPost2010Prop33
280
     0
102
RTVSPost2010PropOp33
 70
     1
102
RTVSPost2010Prop34
280
     0
102
RTVSPost2010PropOp34
 70
     1
102
RTVSPost2010Prop35
280
     0
102
RTVSPost2010PropOp35
 70
     1
102
RTVSPost2010Prop36
280
     0
102
RTVSPost2010PropOp36
 70
     1
102
RTVSPost2010Prop37
 90
       50
102
RTVSPost2010PropOp37
 70
     1
102
RTVSPost2010Prop38
140
0.0
102
RTVSPost2010PropOp38
 70
     1
102
RTVSPost2010Prop39
140
1.0
102
RTVSPost2010PropOp39
 70
     1
102
RTVSPost2010Prop40
 90
        0
102
RTVSPost2010PropOp40
 70
     1
102
RTVSPost2010Prop41ColorIndex
 90
       18
102
RTVSPost2010Prop41ColorRGB
 90
        0
102
RTVSPost2010PropOp41
 70
     1
102
RTVSPost2010Prop42
 90
       50
102
RTVSPost2010PropOp42
 70
     1
102
RTVSPost2010Prop43
 90
        3
102
RTVSPost2010PropOp43
 70
     1
102
RTVSPost2010Prop44ColorIndex
 90
        5
102
RTVSPost2010Prop44ColorRGB
 90
      255
102
RTVSPost2010PropOp44
 70
     1
102
RTVSPost2010Prop45
280
     0
102
RTVSPost2010PropOp45
 70
     1
102
RTVSPost2010Prop46
 90
       50
102
RTVSPost2010PropOp46
 70
     1
102
RTVSPost2010Prop47
 90
       50
102
RTVSPost2010PropOp47
 70
     1
102
RTVSPost2010Prop48
 90
       50
102
RTVSPost2010PropOp48
 70
     1
102
RTVSPost2010Prop49
280
     0
102
RTVSPost2010PropOp49
 70
     1
102
RTVSPost2010Prop50
 90
       50
102
RTVSPost2010PropOp50
 70
     1
102
RTVSPost2010Prop51ColorIndex
 90
      256
102
RTVSPost2010Prop51ColorRGB
 90
-16777216
102
RTVSPost2010PropOp51
 70
     0
102
RTVSPost2010Prop52
140
1.0
102
RTVSPost2010PropOp52
 70
     0
102
RTVSPost2010Prop53
 90
        2
102
RTVSPost2010PropOp53
 70
     1
102
RTVSPost2010Prop54
  1
strokes_ogs.tif
102
RTVSPost2010PropOp54
 70
     1
102
RTVSPost2010Prop55
280
     0
102
RTVSPost2010PropOp55
 70
     1
102
RTVSPost2010Prop56
140
1.0
102
RTVSPost2010PropOp56
 70
     1
102
RTVSPost2010Prop57
140
1.0
102
RTVSPost2010PropOp57
 70
     1
  0
XRECORD
  5
419
102
{ACAD_REACTORS
330
418
102
}
330
418
100
AcDbXrecord
280
     1
102
RTVSPost2010Prop28
280
     0
102
RTVSPost2010PropOp28
 70
     1
102
RTVSPost2010Prop29
280
     1
102
RTVSPost2010PropOp29
 70
     1
102
RTVSPost2010Prop30
280
     1
102
RTVSPost2010PropOp30
 70
     1
102
RTVSPost2010Prop31
280
     0
102
RTVSPost2010PropOp31
 70
     1
102
RTVSPost2010Prop32
280
     0
102
RTVSPost2010PropOp32
 70
     1
102
RTVSPost2010Prop33
280
     0
102
RTVSPost2010PropOp33
 70
     1
102
RTVSPost2010Prop34
280
     0
102
RTVSPost2010PropOp34
 70
     1
102
RTVSPost2010Prop35
280
     0
102
RTVSPost2010PropOp35
 70
     1
102
RTVSPost2010Prop36
280
     0
102
RTVSPost2010PropOp36
 70
     1
102
RTVSPost2010Prop37
 90
       50
102
RTVSPost2010PropOp37
 70
     1
102
RTVSPost2010Prop38
140
0.0
102
RTVSPost2010PropOp38
 70
     1
102
RTVSPost2010Prop39
140
1.0
102
RTVSPost2010PropOp39
 70
     1
102
RTVSPost2010Prop40
 90
        0
102
RTVSPost2010PropOp40
 70
     1
102
RTVSPost2010Prop41ColorIndex
 90
       18
102
RTVSPost2010Prop41ColorRGB
 90
        0
102
RTVSPost2010PropOp41
 70
     1
102
RTVSPost2010Prop42
 90
       50
102
RTVSPost2010PropOp42
 70
     1
102
RTVSPost2010Prop43
 90
        3
102
RTVSPost2010PropOp43
 70
     1
102
RTVSPost2010Prop44ColorIndex
 90
        5
102
RTVSPost2010Prop44ColorRGB
 90
      255
102
RTVSPost2010PropOp44
 70
     1
102
RTVSPost2010Prop45
280
     0
102
RTVSPost2010PropOp45
 70
     1
102
RTVSPost2010Prop46
 90
       50
102
RTVSPost2010PropOp46
 70
     1
102
RTVSPost2010Prop47
 90
       50
102
RTVSPost2010PropOp47
 70
     1
102
RTVSPost2010Prop48
 90
       50
102
RTVSPost2010PropOp48
 70
     1
102
RTVSPost2010Prop49
280
     0
102
RTVSPost2010PropOp49
 70
     1
102
RTVSPost2010Prop50
 90
       50
102
RTVSPost2010PropOp50
 70
     1
102
RTVSPost2010Prop51ColorIndex
 90
      256
102
RTVSPost2010Prop51ColorRGB
 90
-16777216
102
RTVSPost2010PropOp51
 70
     0
102
RTVSPost2010Prop52
140
1.0
102
RTVSPost2010PropOp52
 70
     0
102
RTVSPost2010Prop53
 90
        2
102
RTVSPost2010PropOp53
 70
     1
102
RTVSPost2010Prop54
  1
strokes_ogs.tif
102
RTVSPost2010PropOp54
 70
     1
102
RTVSPost2010Prop55
280
     0
102
RTVSPost2010PropOp55
 70
     1
102
RTVSPost2010Prop56
140
1.0
102
RTVSPost2010PropOp56
 70
     1
102
RTVSPost2010Prop57
140
1.0
102
RTVSPost2010PropOp57
 70
     1
  0
XRECORD
  5
429
102
{ACAD_REACTORS
330
428
102
}
330
428
100
AcDbXrecord
280
     1
102
RTVSPost2010Prop28
280
     0
102
RTVSPost2010PropOp28
 70
     0
102
RTVSPost2010Prop29
280
     1
102
RTVSPost2010PropOp29
 70
     0
102
RTVSPost2010Prop30
280
     1
102
RTVSPost2010PropOp30
 70
     0
102
RTVSPost2010Prop31
280
     0
102
RTVSPost2010PropOp31
 70
     0
102
RTVSPost2010Prop32
280
     0
102
RTVSPost2010PropOp32
 70
     0
102
RTVSPost2010Prop33
280
     0
102
RTVSPost2010PropOp33
 70
     0
102
RTVSPost2010Prop34
280
     0
102
RTVSPost2010PropOp34
 70
     0
102
RTVSPost2010Prop35
280
     0
102
RTVSPost2010PropOp35
 70
     0
102
RTVSPost2010Prop36
280
     0
102
RTVSPost2010PropOp36
 70
     0
102
RTVSPost2010Prop37
 90
       50
102
RTVSPost2010PropOp37
 70
     0
102
RTVSPost2010Prop38
140
0.0
102
RTVSPost2010PropOp38
 70
     0
102
RTVSPost2010Prop39
140
1.0
102
RTVSPost2010PropOp39
 70
     0
102
RTVSPost2010Prop40
 90
        0
102
RTVSPost2010PropOp40
 70
     0
102
RTVSPost2010Prop41ColorIndex
 90
       18
102
RTVSPost2010Prop41ColorRGB
 90
        0
102
RTVSPost2010PropOp41
 70
     0
102
RTVSPost2010Prop42
 90
       50
102
RTVSPost2010PropOp42
 70
     0
102
RTVSPost2010Prop43
 90
        3
102
RTVSPost2010PropOp43
 70
     0
102
RTVSPost2010Prop44ColorIndex
 90
        5
102
RTVSPost2010Prop44ColorRGB
 90
      255
102
RTVSPost2010PropOp44
 70
     0
102
RTVSPost2010Prop45
280
     0
102
RTVSPost2010PropOp45
 70
     0
102
RTVSPost2010Prop46
 90
       50
102
RTVSPost2010PropOp46
 70
     0
102
RTVSPost2010Prop47
 90
       50
102
RTVSPost2010PropOp47
 70
     0
102
RTVSPost2010Prop48
 90
       50
102
RTVSPost2010PropOp48
 70
     0
102
RTVSPost2010Prop49
280
     0
102
RTVSPost2010PropOp49
 70
     0
102
RTVSPost2010Prop50
 90
       50
102
RTVSPost2010PropOp50
 70
     0
102
RTVSPost2010Prop51ColorIndex
 90
      256
102
RTVSPost2010Prop51ColorRGB
 90
-16777216
102
RTVSPost2010PropOp51
 70
     0
102
RTVSPost2010Prop52
140
1.0
102
RTVSPost2010PropOp52
 70
     0
102
RTVSPost2010Prop53
 90
        2
102
RTVSPost2010PropOp53
 70
     0
102
RTVSPost2010Prop54
  1
strokes_ogs.tif
102
RTVSPost2010PropOp54
 70
     0
102
RTVSPost2010Prop55
280
     0
102
RTVSPost2010PropOp55
 70
     0
102
RTVSPost2010Prop56
140
1.0
102
RTVSPost2010PropOp56
 70
     0
102
RTVSPost2010Prop57
140
1.0
102
RTVSPost2010PropOp57
 70
     0
  0
XRECORD
  5
421
102
{ACAD_REACTORS
330
420
102
}
330
420
100
AcDbXrecord
280
     1
102
RTVSPost2010Prop28
280
     0
102
RTVSPost2010PropOp28
 70
     1
102
RTVSPost2010Prop29
280
     1
102
RTVSPost2010PropOp29
 70
     1
102
RTVSPost2010Prop30
280
     1
102
RTVSPost2010PropOp30
 70
     1
102
RTVSPost2010Prop31
280
     0
102
RTVSPost2010PropOp31
 70
     1
102
RTVSPost2010Prop32
280
     0
102
RTVSPost2010PropOp32
 70
     1
102
RTVSPost2010Prop33
280
     0
102
RTVSPost2010PropOp33
 70
     1
102
RTVSPost2010Prop34
280
     0
102
RTVSPost2010PropOp34
 70
     1
102
RTVSPost2010Prop35
280
     0
102
RTVSPost2010PropOp35
 70
     1
102
RTVSPost2010Prop36
280
     0
102
RTVSPost2010PropOp36
 70
     1
102
RTVSPost2010Prop37
 90
       50
102
RTVSPost2010PropOp37
 70
     1
102
RTVSPost2010Prop38
140
0.0
102
RTVSPost2010PropOp38
 70
     1
102
RTVSPost2010Prop39
140
1.0
102
RTVSPost2010PropOp39
 70
     1
102
RTVSPost2010Prop40
 90
        0
102
RTVSPost2010PropOp40
 70
     1
102
RTVSPost2010Prop41ColorIndex
 90
       18
102
RTVSPost2010Prop41ColorRGB
 90
        0
102
RTVSPost2010PropOp41
 70
     1
102
RTVSPost2010Prop42
 90
       50
102
RTVSPost2010PropOp42
 70
     1
102
RTVSPost2010Prop43
 90
        3
102
RTVSPost2010PropOp43
 70
     1
102
RTVSPost2010Prop44ColorIndex
 90
        5
102
RTVSPost2010Prop44ColorRGB
 90
      255
102
RTVSPost2010PropOp44
 70
     1
102
RTVSPost2010Prop45
280
     0
102
RTVSPost2010PropOp45
 70
     1
102
RTVSPost2010Prop46
 90
       50
102
RTVSPost2010PropOp46
 70
     1
102
RTVSPost2010Prop47
 90
       50
102
RTVSPost2010PropOp47
 70
     1
102
RTVSPost2010Prop48
 90
       50
102
RTVSPost2010PropOp48
 70
     1
102
RTVSPost2010Prop49
280
     0
102
RTVSPost2010PropOp49
 70
     1
102
RTVSPost2010Prop50
 90
       50
102
RTVSPost2010PropOp50
 70
     1
102
RTVSPost2010Prop51ColorIndex
 90
      256
102
RTVSPost2010Prop51ColorRGB
 90
-16777216
102
RTVSPost2010PropOp51
 70
     0
102
RTVSPost2010Prop52
140
1.0
102
RTVSPost2010PropOp52
 70
     0
102
RTVSPost2010Prop53
 90
        2
102
RTVSPost2010PropOp53
 70
     1
102
RTVSPost2010Prop54
  1
strokes_ogs.tif
102
RTVSPost2010PropOp54
 70
     1
102
RTVSPost2010Prop55
280
     0
102
RTVSPost2010PropOp55
 70
     1
102
RTVSPost2010Prop56
140
1.0
102
RTVSPost2010PropOp56
 70
     1
102
RTVSPost2010Prop57
140
1.0
102
RTVSPost2010PropOp57
 70
     1
  0
XRECORD
  5
405
102
{ACAD_REACTORS
330
404
102
}
330
404
100
AcDbXrecord
280
     1
102
RTVSPost2010Prop28
280
     0
102
RTVSPost2010PropOp28
 70
     1
102
RTVSPost2010Prop29
280
     1
102
RTVSPost2010PropOp29
 70
     1
102
RTVSPost2010Prop30
280
     1
102
RTVSPost2010PropOp30
 70
     1
102
RTVSPost2010Prop31
280
     0
102
RTVSPost2010PropOp31
 70
     1
102
RTVSPost2010Prop32
280
     0
102
RTVSPost2010PropOp32
 70
     1
102
RTVSPost2010Prop33
280
     0
102
RTVSPost2010PropOp33
 70
     1
102
RTVSPost2010Prop34
280
     0
102
RTVSPost2010PropOp34
 70
     1
102
RTVSPost2010Prop35
280
     0
102
RTVSPost2010PropOp35
 70
     1
102
RTVSPost2010Prop36
280
     0
102
RTVSPost2010PropOp36
 70
     1
102
RTVSPost2010Prop37
 90
       50
102
RTVSPost2010PropOp37
 70
     1
102
RTVSPost2010Prop38
140
0.0
102
RTVSPost2010PropOp38
 70
     1
102
RTVSPost2010Prop39
140
1.0
102
RTVSPost2010PropOp39
 70
     1
102
RTVSPost2010Prop40
 90
        0
102
RTVSPost2010PropOp40
 70
     1
102
RTVSPost2010Prop41ColorIndex
 90
       18
102
RTVSPost2010Prop41ColorRGB
 90
        0
102
RTVSPost2010PropOp41
 70
     1
102
RTVSPost2010Prop42
 90
       50
102
RTVSPost2010PropOp42
 70
     1
102
RTVSPost2010Prop43
 90
        3
102
RTVSPost2010PropOp43
 70
     1
102
RTVSPost2010Prop44ColorIndex
 90
        5
102
RTVSPost2010Prop44ColorRGB
 90
      255
102
RTVSPost2010PropOp44
 70
     1
102
RTVSPost2010Prop45
280
     0
102
RTVSPost2010PropOp45
 70
     1
102
RTVSPost2010Prop46
 90
       50
102
RTVSPost2010PropOp46
 70
     1
102
RTVSPost2010Prop47
 90
       50
102
RTVSPost2010PropOp47
 70
     1
102
RTVSPost2010Prop48
 90
       50
102
RTVSPost2010PropOp48
 70
     1
102
RTVSPost2010Prop49
280
     0
102
RTVSPost2010PropOp49
 70
     1
102
RTVSPost2010Prop50
 90
       50
102
RTVSPost2010PropOp50
 70
     1
102
RTVSPost2010Prop51ColorIndex
 90
      256
102
RTVSPost2010Prop51ColorRGB
 90
-16777216
102
RTVSPost2010PropOp51
 70
     0
102
RTVSPost2010Prop52
140
1.0
102
RTVSPost2010PropOp52
 70
     0
102
RTVSPost2010Prop53
 90
        2
102
RTVSPost2010PropOp53
 70
     1
102
RTVSPost2010Prop54
  1
strokes_ogs.tif
102
RTVSPost2010PropOp54
 70
     1
102
RTVSPost2010Prop55
280
     0
102
RTVSPost2010PropOp55
 70
     1
102
RTVSPost2010Prop56
140
1.0
102
RTVSPost2010PropOp56
 70
     1
102
RTVSPost2010Prop57
140
1.0
102
RTVSPost2010PropOp57
 70
     1
  0
XRECORD
  5
407
102
{ACAD_REACTORS
330
406
102
}
330
406
100
AcDbXrecord
280
     1
102
RTVSPost2010Prop28
280
     0
102
RTVSPost2010PropOp28
 70
     1
102
RTVSPost2010Prop29
280
     1
102
RTVSPost2010PropOp29
 70
     1
102
RTVSPost2010Prop30
280
     1
102
RTVSPost2010PropOp30
 70
     1
102
RTVSPost2010Prop31
280
     0
102
RTVSPost2010PropOp31
 70
     1
102
RTVSPost2010Prop32
280
     0
102
RTVSPost2010PropOp32
 70
     1
102
RTVSPost2010Prop33
280
     0
102
RTVSPost2010PropOp33
 70
     1
102
RTVSPost2010Prop34
280
     0
102
RTVSPost2010PropOp34
 70
     1
102
RTVSPost2010Prop35
280
     0
102
RTVSPost2010PropOp35
 70
     1
102
RTVSPost2010Prop36
280
     0
102
RTVSPost2010PropOp36
 70
     1
102
RTVSPost2010Prop37
 90
       50
102
RTVSPost2010PropOp37
 70
     1
102
RTVSPost2010Prop38
140
0.0
102
RTVSPost2010PropOp38
 70
     1
102
RTVSPost2010Prop39
140
1.0
102
RTVSPost2010PropOp39
 70
     1
102
RTVSPost2010Prop40
 90
        0
102
RTVSPost2010PropOp40
 70
     1
102
RTVSPost2010Prop41ColorIndex
 90
       18
102
RTVSPost2010Prop41ColorRGB
 90
        0
102
RTVSPost2010PropOp41
 70
     1
102
RTVSPost2010Prop42
 90
       50
102
RTVSPost2010PropOp42
 70
     1
102
RTVSPost2010Prop43
 90
        3
102
RTVSPost2010PropOp43
 70
     1
102
RTVSPost2010Prop44ColorIndex
 90
        5
102
RTVSPost2010Prop44ColorRGB
 90
      255
102
RTVSPost2010PropOp44
 70
     1
102
RTVSPost2010Prop45
280
     0
102
RTVSPost2010PropOp45
 70
     1
102
RTVSPost2010Prop46
 90
       50
102
RTVSPost2010PropOp46
 70
     1
102
RTVSPost2010Prop47
 90
       50
102
RTVSPost2010PropOp47
 70
     1
102
RTVSPost2010Prop48
 90
       50
102
RTVSPost2010PropOp48
 70
     1
102
RTVSPost2010Prop49
280
     0
102
RTVSPost2010PropOp49
 70
     1
102
RTVSPost2010Prop50
 90
       50
102
RTVSPost2010PropOp50
 70
     1
102
RTVSPost2010Prop51ColorIndex
 90
      256
102
RTVSPost2010Prop51ColorRGB
 90
-16777216
102
RTVSPost2010PropOp51
 70
     0
102
RTVSPost2010Prop52
140
1.0
102
RTVSPost2010PropOp52
 70
     0
102
RTVSPost2010Prop53
 90
        2
102
RTVSPost2010PropOp53
 70
     1
102
RTVSPost2010Prop54
  1
strokes_ogs.tif
102
RTVSPost2010PropOp54
 70
     1
102
RTVSPost2010Prop55
280
     0
102
RTVSPost2010PropOp55
 70
     1
102
RTVSPost2010Prop56
140
1.0
102
RTVSPost2010PropOp56
 70
     1
102
RTVSPost2010Prop57
140
1.0
102
RTVSPost2010PropOp57
 70
     1
  0
XRECORD
  5
409
102
{ACAD_REACTORS
330
408
102
}
330
408
100
AcDbXrecord
280
     1
102
RTVSPost2010Prop28
280
     0
102
RTVSPost2010PropOp28
 70
     1
102
RTVSPost2010Prop29
280
     1
102
RTVSPost2010PropOp29
 70
     1
102
RTVSPost2010Prop30
280
     1
102
RTVSPost2010PropOp30
 70
     1
102
RTVSPost2010Prop31
280
     0
102
RTVSPost2010PropOp31
 70
     1
102
RTVSPost2010Prop32
280
     0
102
RTVSPost2010PropOp32
 70
     1
102
RTVSPost2010Prop33
280
     0
102
RTVSPost2010PropOp33
 70
     1
102
RTVSPost2010Prop34
280
     0
102
RTVSPost2010PropOp34
 70
     1
102
RTVSPost2010Prop35
280
     0
102
RTVSPost2010PropOp35
 70
     1
102
RTVSPost2010Prop36
280
     0
102
RTVSPost2010PropOp36
 70
     1
102
RTVSPost2010Prop37
 90
       50
102
RTVSPost2010PropOp37
 70
     1
102
RTVSPost2010Prop38
140
0.0
102
RTVSPost2010PropOp38
 70
     1
102
RTVSPost2010Prop39
140
1.0
102
RTVSPost2010PropOp39
 70
     1
102
RTVSPost2010Prop40
 90
        0
102
RTVSPost2010PropOp40
 70
     1
102
RTVSPost2010Prop41ColorIndex
 90
       18
102
RTVSPost2010Prop41ColorRGB
 90
        0
102
RTVSPost2010PropOp41
 70
     1
102
RTVSPost2010Prop42
 90
       50
102
RTVSPost2010PropOp42
 70
     1
102
RTVSPost2010Prop43
 90
        3
102
RTVSPost2010PropOp43
 70
     1
102
RTVSPost2010Prop44ColorIndex
 90
        5
102
RTVSPost2010Prop44ColorRGB
 90
      255
102
RTVSPost2010PropOp44
 70
     1
102
RTVSPost2010Prop45
280
     0
102
RTVSPost2010PropOp45
 70
     1
102
RTVSPost2010Prop46
 90
       50
102
RTVSPost2010PropOp46
 70
     1
102
RTVSPost2010Prop47
 90
       50
102
RTVSPost2010PropOp47
 70
     1
102
RTVSPost2010Prop48
 90
       50
102
RTVSPost2010PropOp48
 70
     1
102
RTVSPost2010Prop49
280
     0
102
RTVSPost2010PropOp49
 70
     1
102
RTVSPost2010Prop50
 90
       50
102
RTVSPost2010PropOp50
 70
     1
102
RTVSPost2010Prop51ColorIndex
 90
      256
102
RTVSPost2010Prop51ColorRGB
 90
-16777216
102
RTVSPost2010PropOp51
 70
     0
102
RTVSPost2010Prop52
140
1.0
102
RTVSPost2010PropOp52
 70
     0
102
RTVSPost2010Prop53
 90
        2
102
RTVSPost2010PropOp53
 70
     1
102
RTVSPost2010Prop54
  1
strokes_ogs.tif
102
RTVSPost2010PropOp54
 70
     1
102
RTVSPost2010Prop55
280
     0
102
RTVSPost2010PropOp55
 70
     1
102
RTVSPost2010Prop56
140
1.0
102
RTVSPost2010PropOp56
 70
     1
102
RTVSPost2010Prop57
140
1.0
102
RTVSPost2010PropOp57
 70
     1
  0
XRECORD
  5
40B
102
{ACAD_REACTORS
330
40A
102
}
330
40A
100
AcDbXrecord
280
     1
102
RTVSPost2010Prop28
280
     0
102
RTVSPost2010PropOp28
 70
     1
102
RTVSPost2010Prop29
280
     1
102
RTVSPost2010PropOp29
 70
     1
102
RTVSPost2010Prop30
280
     1
102
RTVSPost2010PropOp30
 70
     1
102
RTVSPost2010Prop31
280
     0
102
RTVSPost2010PropOp31
 70
     1
102
RTVSPost2010Prop32
280
     0
102
RTVSPost2010PropOp32
 70
     1
102
RTVSPost2010Prop33
280
     0
102
RTVSPost2010PropOp33
 70
     1
102
RTVSPost2010Prop34
280
     0
102
RTVSPost2010PropOp34
 70
     1
102
RTVSPost2010Prop35
280
     0
102
RTVSPost2010PropOp35
 70
     1
102
RTVSPost2010Prop36
280
     0
102
RTVSPost2010PropOp36
 70
     1
102
RTVSPost2010Prop37
 90
       50
102
RTVSPost2010PropOp37
 70
     1
102
RTVSPost2010Prop38
140
0.0
102
RTVSPost2010PropOp38
 70
     1
102
RTVSPost2010Prop39
140
1.0
102
RTVSPost2010PropOp39
 70
     1
102
RTVSPost2010Prop40
 90
        0
102
RTVSPost2010PropOp40
 70
     1
102
RTVSPost2010Prop41ColorIndex
 90
       18
102
RTVSPost2010Prop41ColorRGB
 90
        0
102
RTVSPost2010PropOp41
 70
     1
102
RTVSPost2010Prop42
 90
       50
102
RTVSPost2010PropOp42
 70
     1
102
RTVSPost2010Prop43
 90
        3
102
RTVSPost2010PropOp43
 70
     1
102
RTVSPost2010Prop44ColorIndex
 90
        5
102
RTVSPost2010Prop44ColorRGB
 90
      255
102
RTVSPost2010PropOp44
 70
     1
102
RTVSPost2010Prop45
280
     0
102
RTVSPost2010PropOp45
 70
     1
102
RTVSPost2010Prop46
 90
       50
102
RTVSPost2010PropOp46
 70
     1
102
RTVSPost2010Prop47
 90
       50
102
RTVSPost2010PropOp47
 70
     1
102
RTVSPost2010Prop48
 90
       50
102
RTVSPost2010PropOp48
 70
     1
102
RTVSPost2010Prop49
280
     0
102
RTVSPost2010PropOp49
 70
     1
102
RTVSPost2010Prop50
 90
       50
102
RTVSPost2010PropOp50
 70
     1
102
RTVSPost2010Prop51ColorIndex
 90
      256
102
RTVSPost2010Prop51ColorRGB
 90
-16777216
102
RTVSPost2010PropOp51
 70
     0
102
RTVSPost2010Prop52
140
1.0
102
RTVSPost2010PropOp52
 70
     0
102
RTVSPost2010Prop53
 90
        2
102
RTVSPost2010PropOp53
 70
     1
102
RTVSPost2010Prop54
  1
strokes_ogs.tif
102
RTVSPost2010PropOp54
 70
     1
102
RTVSPost2010Prop55
280
     0
102
RTVSPost2010PropOp55
 70
     1
102
RTVSPost2010Prop56
140
1.0
102
RTVSPost2010PropOp56
 70
     1
102
RTVSPost2010Prop57
140
1.0
102
RTVSPost2010PropOp57
 70
     1
  0
XRECORD
  5
411
102
{ACAD_REACTORS
330
410
102
}
330
410
100
AcDbXrecord
280
     1
102
RTVSPost2010Prop28
280
     0
102
RTVSPost2010PropOp28
 70
     1
102
RTVSPost2010Prop29
280
     1
102
RTVSPost2010PropOp29
 70
     1
102
RTVSPost2010Prop30
280
     1
102
RTVSPost2010PropOp30
 70
     1
102
RTVSPost2010Prop31
280
     0
102
RTVSPost2010PropOp31
 70
     1
102
RTVSPost2010Prop32
280
     0
102
RTVSPost2010PropOp32
 70
     1
102
RTVSPost2010Prop33
280
     0
102
RTVSPost2010PropOp33
 70
     1
102
RTVSPost2010Prop34
280
     0
102
RTVSPost2010PropOp34
 70
     1
102
RTVSPost2010Prop35
280
     0
102
RTVSPost2010PropOp35
 70
     1
102
RTVSPost2010Prop36
280
     0
102
RTVSPost2010PropOp36
 70
     1
102
RTVSPost2010Prop37
 90
       50
102
RTVSPost2010PropOp37
 70
     1
102
RTVSPost2010Prop38
140
0.0
102
RTVSPost2010PropOp38
 70
     1
102
RTVSPost2010Prop39
140
1.0
102
RTVSPost2010PropOp39
 70
     1
102
RTVSPost2010Prop40
 90
        0
102
RTVSPost2010PropOp40
 70
     1
102
RTVSPost2010Prop41ColorIndex
 90
       18
102
RTVSPost2010Prop41ColorRGB
 90
        0
102
RTVSPost2010PropOp41
 70
     1
102
RTVSPost2010Prop42
 90
       50
102
RTVSPost2010PropOp42
 70
     1
102
RTVSPost2010Prop43
 90
        3
102
RTVSPost2010PropOp43
 70
     1
102
RTVSPost2010Prop44ColorIndex
 90
        5
102
RTVSPost2010Prop44ColorRGB
 90
      255
102
RTVSPost2010PropOp44
 70
     1
102
RTVSPost2010Prop45
280
     0
102
RTVSPost2010PropOp45
 70
     1
102
RTVSPost2010Prop46
 90
       50
102
RTVSPost2010PropOp46
 70
     1
102
RTVSPost2010Prop47
 90
       50
102
RTVSPost2010PropOp47
 70
     1
102
RTVSPost2010Prop48
 90
       50
102
RTVSPost2010PropOp48
 70
     1
102
RTVSPost2010Prop49
280
     0
102
RTVSPost2010PropOp49
 70
     1
102
RTVSPost2010Prop50
 90
       50
102
RTVSPost2010PropOp50
 70
     1
102
RTVSPost2010Prop51ColorIndex
 90
      256
102
RTVSPost2010Prop51ColorRGB
 90
-16777216
102
RTVSPost2010PropOp51
 70
     0
102
RTVSPost2010Prop52
140
1.0
102
RTVSPost2010PropOp52
 70
     0
102
RTVSPost2010Prop53
 90
        2
102
RTVSPost2010PropOp53
 70
     1
102
RTVSPost2010Prop54
  1
strokes_ogs.tif
102
RTVSPost2010PropOp54
 70
     1
102
RTVSPost2010Prop55
280
     0
102
RTVSPost2010PropOp55
 70
     1
102
RTVSPost2010Prop56
140
1.0
102
RTVSPost2010PropOp56
 70
     1
102
RTVSPost2010Prop57
140
1.0
102
RTVSPost2010PropOp57
 70
     1
  0
XRECORD
  5
425
102
{ACAD_REACTORS
330
424
102
}
330
424
100
AcDbXrecord
280
     1
102
RTVSPost2010Prop28
280
     0
102
RTVSPost2010PropOp28
 70
     0
102
RTVSPost2010Prop29
280
     1
102
RTVSPost2010PropOp29
 70
     0
102
RTVSPost2010Prop30
280
     1
102
RTVSPost2010PropOp30
 70
     0
102
RTVSPost2010Prop31
280
     0
102
RTVSPost2010PropOp31
 70
     0
102
RTVSPost2010Prop32
280
     0
102
RTVSPost2010PropOp32
 70
     0
102
RTVSPost2010Prop33
280
     0
102
RTVSPost2010PropOp33
 70
     0
102
RTVSPost2010Prop34
280
     0
102
RTVSPost2010PropOp34
 70
     0
102
RTVSPost2010Prop35
280
     0
102
RTVSPost2010PropOp35
 70
     0
102
RTVSPost2010Prop36
280
     0
102
RTVSPost2010PropOp36
 70
     0
102
RTVSPost2010Prop37
 90
       50
102
RTVSPost2010PropOp37
 70
     0
102
RTVSPost2010Prop38
140
0.0
102
RTVSPost2010PropOp38
 70
     0
102
RTVSPost2010Prop39
140
1.0
102
RTVSPost2010PropOp39
 70
     0
102
RTVSPost2010Prop40
 90
        0
102
RTVSPost2010PropOp40
 70
     0
102
RTVSPost2010Prop41ColorIndex
 90
       18
102
RTVSPost2010Prop41ColorRGB
 90
        0
102
RTVSPost2010PropOp41
 70
     0
102
RTVSPost2010Prop42
 90
       50
102
RTVSPost2010PropOp42
 70
     0
102
RTVSPost2010Prop43
 90
        3
102
RTVSPost2010PropOp43
 70
     0
102
RTVSPost2010Prop44ColorIndex
 90
        5
102
RTVSPost2010Prop44ColorRGB
 90
      255
102
RTVSPost2010PropOp44
 70
     0
102
RTVSPost2010Prop45
280
     0
102
RTVSPost2010PropOp45
 70
     0
102
RTVSPost2010Prop46
 90
       50
102
RTVSPost2010PropOp46
 70
     0
102
RTVSPost2010Prop47
 90
       50
102
RTVSPost2010PropOp47
 70
     0
102
RTVSPost2010Prop48
 90
       50
102
RTVSPost2010PropOp48
 70
     0
102
RTVSPost2010Prop49
280
     0
102
RTVSPost2010PropOp49
 70
     0
102
RTVSPost2010Prop50
 90
       50
102
RTVSPost2010PropOp50
 70
     0
102
RTVSPost2010Prop51ColorIndex
 90
      256
102
RTVSPost2010Prop51ColorRGB
 90
-16777216
102
RTVSPost2010PropOp51
 70
     0
102
RTVSPost2010Prop52
140
1.0
102
RTVSPost2010PropOp52
 70
     0
102
RTVSPost2010Prop53
 90
        2
102
RTVSPost2010PropOp53
 70
     0
102
RTVSPost2010Prop54
  1
strokes_ogs.tif
102
RTVSPost2010PropOp54
 70
     0
102
RTVSPost2010Prop55
280
     0
102
RTVSPost2010PropOp55
 70
     0
102
RTVSPost2010Prop56
140
1.0
102
RTVSPost2010PropOp56
 70
     0
102
RTVSPost2010Prop57
140
1.0
102
RTVSPost2010PropOp57
 70
     0
  0
XRECORD
  5
41F
102
{ACAD_REACTORS
330
41E
102
}
330
41E
100
AcDbXrecord
280
     1
102
RTVSPost2010Prop28
280
     0
102
RTVSPost2010PropOp28
 70
     1
102
RTVSPost2010Prop29
280
     1
102
RTVSPost2010PropOp29
 70
     1
102
RTVSPost2010Prop30
280
     1
102
RTVSPost2010PropOp30
 70
     1
102
RTVSPost2010Prop31
280
     0
102
RTVSPost2010PropOp31
 70
     1
102
RTVSPost2010Prop32
280
     0
102
RTVSPost2010PropOp32
 70
     1
102
RTVSPost2010Prop33
280
     0
102
RTVSPost2010PropOp33
 70
     1
102
RTVSPost2010Prop34
280
     0
102
RTVSPost2010PropOp34
 70
     1
102
RTVSPost2010Prop35
280
     0
102
RTVSPost2010PropOp35
 70
     1
102
RTVSPost2010Prop36
280
     0
102
RTVSPost2010PropOp36
 70
     1
102
RTVSPost2010Prop37
 90
       50
102
RTVSPost2010PropOp37
 70
     1
102
RTVSPost2010Prop38
140
0.0
102
RTVSPost2010PropOp38
 70
     1
102
RTVSPost2010Prop39
140
1.0
102
RTVSPost2010PropOp39
 70
     1
102
RTVSPost2010Prop40
 90
        0
102
RTVSPost2010PropOp40
 70
     1
102
RTVSPost2010Prop41ColorIndex
 90
       18
102
RTVSPost2010Prop41ColorRGB
 90
        0
102
RTVSPost2010PropOp41
 70
     1
102
RTVSPost2010Prop42
 90
       50
102
RTVSPost2010PropOp42
 70
     1
102
RTVSPost2010Prop43
 90
        3
102
RTVSPost2010PropOp43
 70
     1
102
RTVSPost2010Prop44ColorIndex
 90
        5
102
RTVSPost2010Prop44ColorRGB
 90
      255
102
RTVSPost2010PropOp44
 70
     1
102
RTVSPost2010Prop45
280
     0
102
RTVSPost2010PropOp45
 70
     1
102
RTVSPost2010Prop46
 90
       50
102
RTVSPost2010PropOp46
 70
     1
102
RTVSPost2010Prop47
 90
       50
102
RTVSPost2010PropOp47
 70
     1
102
RTVSPost2010Prop48
 90
       50
102
RTVSPost2010PropOp48
 70
     1
102
RTVSPost2010Prop49
280
     0
102
RTVSPost2010PropOp49
 70
     1
102
RTVSPost2010Prop50
 90
       50
102
RTVSPost2010PropOp50
 70
     1
102
RTVSPost2010Prop51ColorIndex
 90
      256
102
RTVSPost2010Prop51ColorRGB
 90
-16777216
102
RTVSPost2010PropOp51
 70
     0
102
RTVSPost2010Prop52
140
1.0
102
RTVSPost2010PropOp52
 70
     0
102
RTVSPost2010Prop53
 90
        2
102
RTVSPost2010PropOp53
 70
     1
102
RTVSPost2010Prop54
  1
strokes_ogs.tif
102
RTVSPost2010PropOp54
 70
     1
102
RTVSPost2010Prop55
280
     0
102
RTVSPost2010PropOp55
 70
     1
102
RTVSPost2010Prop56
140
1.0
102
RTVSPost2010PropOp56
 70
     1
102
RTVSPost2010Prop57
140
1.0
102
RTVSPost2010PropOp57
 70
     1
  0
XRECORD
  5
427
102
{ACAD_REACTORS
330
426
102
}
330
426
100
AcDbXrecord
280
     1
102
RTVSPost2010Prop28
280
     0
102
RTVSPost2010PropOp28
 70
     0
102
RTVSPost2010Prop29
280
     1
102
RTVSPost2010PropOp29
 70
     0
102
RTVSPost2010Prop30
280
     1
102
RTVSPost2010PropOp30
 70
     0
102
RTVSPost2010Prop31
280
     0
102
RTVSPost2010PropOp31
 70
     0
102
RTVSPost2010Prop32
280
     0
102
RTVSPost2010PropOp32
 70
     0
102
RTVSPost2010Prop33
280
     0
102
RTVSPost2010PropOp33
 70
     0
102
RTVSPost2010Prop34
280
     0
102
RTVSPost2010PropOp34
 70
     0
102
RTVSPost2010Prop35
280
     0
102
RTVSPost2010PropOp35
 70
     0
102
RTVSPost2010Prop36
280
     0
102
RTVSPost2010PropOp36
 70
     0
102
RTVSPost2010Prop37
 90
       50
102
RTVSPost2010PropOp37
 70
     0
102
RTVSPost2010Prop38
140
0.0
102
RTVSPost2010PropOp38
 70
     0
102
RTVSPost2010Prop39
140
1.0
102
RTVSPost2010PropOp39
 70
     0
102
RTVSPost2010Prop40
 90
        0
102
RTVSPost2010PropOp40
 70
     0
102
RTVSPost2010Prop41ColorIndex
 90
       18
102
RTVSPost2010Prop41ColorRGB
 90
        0
102
RTVSPost2010PropOp41
 70
     0
102
RTVSPost2010Prop42
 90
       50
102
RTVSPost2010PropOp42
 70
     0
102
RTVSPost2010Prop43
 90
        3
102
RTVSPost2010PropOp43
 70
     0
102
RTVSPost2010Prop44ColorIndex
 90
        5
102
RTVSPost2010Prop44ColorRGB
 90
      255
102
RTVSPost2010PropOp44
 70
     0
102
RTVSPost2010Prop45
280
     0
102
RTVSPost2010PropOp45
 70
     0
102
RTVSPost2010Prop46
 90
       50
102
RTVSPost2010PropOp46
 70
     0
102
RTVSPost2010Prop47
 90
       50
102
RTVSPost2010PropOp47
 70
     0
102
RTVSPost2010Prop48
 90
       50
102
RTVSPost2010PropOp48
 70
     0
102
RTVSPost2010Prop49
280
     0
102
RTVSPost2010PropOp49
 70
     0
102
RTVSPost2010Prop50
 90
       50
102
RTVSPost2010PropOp50
 70
     0
102
RTVSPost2010Prop51ColorIndex
 90
      256
102
RTVSPost2010Prop51ColorRGB
 90
-16777216
102
RTVSPost2010PropOp51
 70
     0
102
RTVSPost2010Prop52
140
1.0
102
RTVSPost2010PropOp52
 70
     0
102
RTVSPost2010Prop53
 90
        2
102
RTVSPost2010PropOp53
 70
     0
102
RTVSPost2010Prop54
  1
strokes_ogs.tif
102
RTVSPost2010PropOp54
 70
     0
102
RTVSPost2010Prop55
280
     0
102
RTVSPost2010PropOp55
 70
     0
102
RTVSPost2010Prop56
140
1.0
102
RTVSPost2010PropOp56
 70
     0
102
RTVSPost2010Prop57
140
1.0
102
RTVSPost2010PropOp57
 70
     0
  0
XRECORD
  5
415
102
{ACAD_REACTORS
330
414
102
}
330
414
100
AcDbXrecord
280
     1
102
RTVSPost2010Prop28
280
     0
102
RTVSPost2010PropOp28
 70
     1
102
RTVSPost2010Prop29
280
     1
102
RTVSPost2010PropOp29
 70
     1
102
RTVSPost2010Prop30
280
     1
102
RTVSPost2010PropOp30
 70
     1
102
RTVSPost2010Prop31
280
     0
102
RTVSPost2010PropOp31
 70
     1
102
RTVSPost2010Prop32
280
     0
102
RTVSPost2010PropOp32
 70
     1
102
RTVSPost2010Prop33
280
     0
102
RTVSPost2010PropOp33
 70
     1
102
RTVSPost2010Prop34
280
     0
102
RTVSPost2010PropOp34
 70
     1
102
RTVSPost2010Prop35
280
     0
102
RTVSPost2010PropOp35
 70
     1
102
RTVSPost2010Prop36
280
     0
102
RTVSPost2010PropOp36
 70
     1
102
RTVSPost2010Prop37
 90
       50
102
RTVSPost2010PropOp37
 70
     1
102
RTVSPost2010Prop38
140
0.0
102
RTVSPost2010PropOp38
 70
     1
102
RTVSPost2010Prop39
140
1.0
102
RTVSPost2010PropOp39
 70
     1
102
RTVSPost2010Prop40
 90
        0
102
RTVSPost2010PropOp40
 70
     1
102
RTVSPost2010Prop41ColorIndex
 90
       18
102
RTVSPost2010Prop41ColorRGB
 90
        0
102
RTVSPost2010PropOp41
 70
     1
102
RTVSPost2010Prop42
 90
       50
102
RTVSPost2010PropOp42
 70
     1
102
RTVSPost2010Prop43
 90
        3
102
RTVSPost2010PropOp43
 70
     1
102
RTVSPost2010Prop44ColorIndex
 90
        5
102
RTVSPost2010Prop44ColorRGB
 90
      255
102
RTVSPost2010PropOp44
 70
     1
102
RTVSPost2010Prop45
280
     0
102
RTVSPost2010PropOp45
 70
     1
102
RTVSPost2010Prop46
 90
       50
102
RTVSPost2010PropOp46
 70
     1
102
RTVSPost2010Prop47
 90
       50
102
RTVSPost2010PropOp47
 70
     1
102
RTVSPost2010Prop48
 90
       50
102
RTVSPost2010PropOp48
 70
     1
102
RTVSPost2010Prop49
280
     0
102
RTVSPost2010PropOp49
 70
     1
102
RTVSPost2010Prop50
 90
       50
102
RTVSPost2010PropOp50
 70
     1
102
RTVSPost2010Prop51ColorIndex
 90
      256
102
RTVSPost2010Prop51ColorRGB
 90
-16777216
102
RTVSPost2010PropOp51
 70
     0
102
RTVSPost2010Prop52
140
1.0
102
RTVSPost2010PropOp52
 70
     0
102
RTVSPost2010Prop53
 90
        2
102
RTVSPost2010PropOp53
 70
     1
102
RTVSPost2010Prop54
  1
strokes_ogs.tif
102
RTVSPost2010PropOp54
 70
     1
102
RTVSPost2010Prop55
280
     0
102
RTVSPost2010PropOp55
 70
     1
102
RTVSPost2010Prop56
140
1.0
102
RTVSPost2010PropOp56
 70
     1
102
RTVSPost2010Prop57
140
1.0
102
RTVSPost2010PropOp57
 70
     1
  0
XRECORD
  5
433
102
{ACAD_REACTORS
330
432
102
}
330
432
100
AcDbXrecord
280
     1
102
RTVSPost2010Prop28
280
     0
102
RTVSPost2010PropOp28
 70
     1
102
RTVSPost2010Prop29
280
     1
102
RTVSPost2010PropOp29
 70
     1
102
RTVSPost2010Prop30
280
     1
102
RTVSPost2010PropOp30
 70
     1
102
RTVSPost2010Prop31
280
     0
102
RTVSPost2010PropOp31
 70
     1
102
RTVSPost2010Prop32
280
     0
102
RTVSPost2010PropOp32
 70
     1
102
RTVSPost2010Prop33
280
     0
102
RTVSPost2010PropOp33
 70
     1
102
RTVSPost2010Prop34
280
     0
102
RTVSPost2010PropOp34
 70
     1
102
RTVSPost2010Prop35
280
     0
102
RTVSPost2010PropOp35
 70
     1
102
RTVSPost2010Prop36
280
     0
102
RTVSPost2010PropOp36
 70
     1
102
RTVSPost2010Prop37
 90
       50
102
RTVSPost2010PropOp37
 70
     1
102
RTVSPost2010Prop38
140
0.0
102
RTVSPost2010PropOp38
 70
     1
102
RTVSPost2010Prop39
140
1.0
102
RTVSPost2010PropOp39
 70
     1
102
RTVSPost2010Prop40
 90
        0
102
RTVSPost2010PropOp40
 70
     1
102
RTVSPost2010Prop41ColorIndex
 90
       18
102
RTVSPost2010Prop41ColorRGB
 90
        0
102
RTVSPost2010PropOp41
 70
     1
102
RTVSPost2010Prop42
 90
       50
102
RTVSPost2010PropOp42
 70
     1
102
RTVSPost2010Prop43
 90
        3
102
RTVSPost2010PropOp43
 70
     1
102
RTVSPost2010Prop44ColorIndex
 90
        5
102
RTVSPost2010Prop44ColorRGB
 90
      255
102
RTVSPost2010PropOp44
 70
     1
102
RTVSPost2010Prop45
280
     0
102
RTVSPost2010PropOp45
 70
     1
102
RTVSPost2010Prop46
 90
       50
102
RTVSPost2010PropOp46
 70
     1
102
RTVSPost2010Prop47
 90
       50
102
RTVSPost2010PropOp47
 70
     1
102
RTVSPost2010Prop48
 90
       50
102
RTVSPost2010PropOp48
 70
     1
102
RTVSPost2010Prop49
280
     0
102
RTVSPost2010PropOp49
 70
     1
102
RTVSPost2010Prop50
 90
       50
102
RTVSPost2010PropOp50
 70
     1
102
RTVSPost2010Prop51ColorIndex
 90
      256
102
RTVSPost2010Prop51ColorRGB
 90
-16777216
102
RTVSPost2010PropOp51
 70
     0
102
RTVSPost2010Prop52
140
1.0
102
RTVSPost2010PropOp52
 70
     0
102
RTVSPost2010Prop53
 90
        2
102
RTVSPost2010PropOp53
 70
     1
102
RTVSPost2010Prop54
  1
strokes_ogs.tif
102
RTVSPost2010PropOp54
 70
     1
102
RTVSPost2010Prop55
280
     0
102
RTVSPost2010PropOp55
 70
     1
102
RTVSPost2010Prop56
140
1.0
102
RTVSPost2010PropOp56
 70
     1
102
RTVSPost2010Prop57
140
1.0
102
RTVSPost2010PropOp57
 70
     1
  0
XRECORD
  5
431
102
{ACAD_REACTORS
330
430
102
}
330
430
100
AcDbXrecord
280
     1
102
RTVSPost2010Prop28
280
     0
102
RTVSPost2010PropOp28
 70
     1
102
RTVSPost2010Prop29
280
     1
102
RTVSPost2010PropOp29
 70
     1
102
RTVSPost2010Prop30
280
     1
102
RTVSPost2010PropOp30
 70
     1
102
RTVSPost2010Prop31
280
     0
102
RTVSPost2010PropOp31
 70
     1
102
RTVSPost2010Prop32
280
     0
102
RTVSPost2010PropOp32
 70
     1
102
RTVSPost2010Prop33
280
     0
102
RTVSPost2010PropOp33
 70
     1
102
RTVSPost2010Prop34
280
     0
102
RTVSPost2010PropOp34
 70
     1
102
RTVSPost2010Prop35
280
     0
102
RTVSPost2010PropOp35
 70
     1
102
RTVSPost2010Prop36
280
     0
102
RTVSPost2010PropOp36
 70
     1
102
RTVSPost2010Prop37
 90
       50
102
RTVSPost2010PropOp37
 70
     1
102
RTVSPost2010Prop38
140
0.0
102
RTVSPost2010PropOp38
 70
     1
102
RTVSPost2010Prop39
140
1.0
102
RTVSPost2010PropOp39
 70
     1
102
RTVSPost2010Prop40
 90
        0
102
RTVSPost2010PropOp40
 70
     1
102
RTVSPost2010Prop41ColorIndex
 90
       18
102
RTVSPost2010Prop41ColorRGB
 90
        0
102
RTVSPost2010PropOp41
 70
     1
102
RTVSPost2010Prop42
 90
       50
102
RTVSPost2010PropOp42
 70
     1
102
RTVSPost2010Prop43
 90
        3
102
RTVSPost2010PropOp43
 70
     1
102
RTVSPost2010Prop44ColorIndex
 90
        5
102
RTVSPost2010Prop44ColorRGB
 90
      255
102
RTVSPost2010PropOp44
 70
     1
102
RTVSPost2010Prop45
280
     0
102
RTVSPost2010PropOp45
 70
     1
102
RTVSPost2010Prop46
 90
       50
102
RTVSPost2010PropOp46
 70
     1
102
RTVSPost2010Prop47
 90
       50
102
RTVSPost2010PropOp47
 70
     1
102
RTVSPost2010Prop48
 90
       50
102
RTVSPost2010PropOp48
 70
     1
102
RTVSPost2010Prop49
280
     0
102
RTVSPost2010PropOp49
 70
     1
102
RTVSPost2010Prop50
 90
       50
102
RTVSPost2010PropOp50
 70
     1
102
RTVSPost2010Prop51ColorIndex
 90
      256
102
RTVSPost2010Prop51ColorRGB
 90
-16777216
102
RTVSPost2010PropOp51
 70
     0
102
RTVSPost2010Prop52
140
1.0
102
RTVSPost2010PropOp52
 70
     0
102
RTVSPost2010Prop53
 90
        2
102
RTVSPost2010PropOp53
 70
     1
102
RTVSPost2010Prop54
  1
strokes_ogs.tif
102
RTVSPost2010PropOp54
 70
     1
102
RTVSPost2010Prop55
280
     0
102
RTVSPost2010PropOp55
 70
     1
102
RTVSPost2010Prop56
140
1.0
102
RTVSPost2010PropOp56
 70
     1
102
RTVSPost2010Prop57
140
1.0
102
RTVSPost2010PropOp57
 70
     1
  0
XRECORD
  5
42B
102
{ACAD_REACTORS
330
42A
102
}
330
42A
100
AcDbXrecord
280
     1
102
RTVSPost2010Prop28
280
     0
102
RTVSPost2010PropOp28
 70
     1
102
RTVSPost2010Prop29
280
     1
102
RTVSPost2010PropOp29
 70
     1
102
RTVSPost2010Prop30
280
     1
102
RTVSPost2010PropOp30
 70
     1
102
RTVSPost2010Prop31
280
     0
102
RTVSPost2010PropOp31
 70
     1
102
RTVSPost2010Prop32
280
     0
102
RTVSPost2010PropOp32
 70
     1
102
RTVSPost2010Prop33
280
     0
102
RTVSPost2010PropOp33
 70
     1
102
RTVSPost2010Prop34
280
     0
102
RTVSPost2010PropOp34
 70
     1
102
RTVSPost2010Prop35
280
     0
102
RTVSPost2010PropOp35
 70
     1
102
RTVSPost2010Prop36
280
     0
102
RTVSPost2010PropOp36
 70
     1
102
RTVSPost2010Prop37
 90
       50
102
RTVSPost2010PropOp37
 70
     1
102
RTVSPost2010Prop38
140
0.0
102
RTVSPost2010PropOp38
 70
     1
102
RTVSPost2010Prop39
140
1.0
102
RTVSPost2010PropOp39
 70
     1
102
RTVSPost2010Prop40
 90
        0
102
RTVSPost2010PropOp40
 70
     1
102
RTVSPost2010Prop41ColorIndex
 90
       18
102
RTVSPost2010Prop41ColorRGB
 90
        0
102
RTVSPost2010PropOp41
 70
     1
102
RTVSPost2010Prop42
 90
       50
102
RTVSPost2010PropOp42
 70
     1
102
RTVSPost2010Prop43
 90
        3
102
RTVSPost2010PropOp43
 70
     1
102
RTVSPost2010Prop44ColorIndex
 90
        5
102
RTVSPost2010Prop44ColorRGB
 90
      255
102
RTVSPost2010PropOp44
 70
     1
102
RTVSPost2010Prop45
280
     0
102
RTVSPost2010PropOp45
 70
     1
102
RTVSPost2010Prop46
 90
       50
102
RTVSPost2010PropOp46
 70
     1
102
RTVSPost2010Prop47
 90
       50
102
RTVSPost2010PropOp47
 70
     1
102
RTVSPost2010Prop48
 90
       50
102
RTVSPost2010PropOp48
 70
     1
102
RTVSPost2010Prop49
280
     0
102
RTVSPost2010PropOp49
 70
     1
102
RTVSPost2010Prop50
 90
       50
102
RTVSPost2010PropOp50
 70
     1
102
RTVSPost2010Prop51ColorIndex
 90
      256
102
RTVSPost2010Prop51ColorRGB
 90
-16777216
102
RTVSPost2010PropOp51
 70
     0
102
RTVSPost2010Prop52
140
1.0
102
RTVSPost2010PropOp52
 70
     0
102
RTVSPost2010Prop53
 90
        2
102
RTVSPost2010PropOp53
 70
     1
102
RTVSPost2010Prop54
  1
strokes_ogs.tif
102
RTVSPost2010PropOp54
 70
     1
102
RTVSPost2010Prop55
280
     0
102
RTVSPost2010PropOp55
 70
     1
102
RTVSPost2010Prop56
140
1.0
102
RTVSPost2010PropOp56
 70
     1
102
RTVSPost2010Prop57
140
1.0
102
RTVSPost2010PropOp57
 70
     1
  0
XRECORD
  5
42D
102
{ACAD_REACTORS
330
42C
102
}
330
42C
100
AcDbXrecord
280
     1
102
RTVSPost2010Prop28
280
     0
102
RTVSPost2010PropOp28
 70
     1
102
RTVSPost2010Prop29
280
     1
102
RTVSPost2010PropOp29
 70
     1
102
RTVSPost2010Prop30
280
     1
102
RTVSPost2010PropOp30
 70
     1
102
RTVSPost2010Prop31
280
     0
102
RTVSPost2010PropOp31
 70
     1
102
RTVSPost2010Prop32
280
     0
102
RTVSPost2010PropOp32
 70
     1
102
RTVSPost2010Prop33
280
     0
102
RTVSPost2010PropOp33
 70
     1
102
RTVSPost2010Prop34
280
     0
102
RTVSPost2010PropOp34
 70
     1
102
RTVSPost2010Prop35
280
     0
102
RTVSPost2010PropOp35
 70
     1
102
RTVSPost2010Prop36
280
     0
102
RTVSPost2010PropOp36
 70
     1
102
RTVSPost2010Prop37
 90
       50
102
RTVSPost2010PropOp37
 70
     1
102
RTVSPost2010Prop38
140
0.0
102
RTVSPost2010PropOp38
 70
     1
102
RTVSPost2010Prop39
140
1.0
102
RTVSPost2010PropOp39
 70
     1
102
RTVSPost2010Prop40
 90
        0
102
RTVSPost2010PropOp40
 70
     1
102
RTVSPost2010Prop41ColorIndex
 90
       18
102
RTVSPost2010Prop41ColorRGB
 90
        0
102
RTVSPost2010PropOp41
 70
     1
102
RTVSPost2010Prop42
 90
       50
102
RTVSPost2010PropOp42
 70
     1
102
RTVSPost2010Prop43
 90
        3
102
RTVSPost2010PropOp43
 70
     1
102
RTVSPost2010Prop44ColorIndex
 90
        5
102
RTVSPost2010Prop44ColorRGB
 90
      255
102
RTVSPost2010PropOp44
 70
     1
102
RTVSPost2010Prop45
280
     0
102
RTVSPost2010PropOp45
 70
     1
102
RTVSPost2010Prop46
 90
       50
102
RTVSPost2010PropOp46
 70
     1
102
RTVSPost2010Prop47
 90
       50
102
RTVSPost2010PropOp47
 70
     1
102
RTVSPost2010Prop48
 90
       50
102
RTVSPost2010PropOp48
 70
     1
102
RTVSPost2010Prop49
280
     0
102
RTVSPost2010PropOp49
 70
     1
102
RTVSPost2010Prop50
 90
       50
102
RTVSPost2010PropOp50
 70
     1
102
RTVSPost2010Prop51ColorIndex
 90
      256
102
RTVSPost2010Prop51ColorRGB
 90
-16777216
102
RTVSPost2010PropOp51
 70
     0
102
RTVSPost2010Prop52
140
1.0
102
RTVSPost2010PropOp52
 70
     0
102
RTVSPost2010Prop53
 90
        2
102
RTVSPost2010PropOp53
 70
     1
102
RTVSPost2010Prop54
  1
strokes_ogs.tif
102
RTVSPost2010PropOp54
 70
     1
102
RTVSPost2010Prop55
280
     0
102
RTVSPost2010PropOp55
 70
     1
102
RTVSPost2010Prop56
140
1.0
102
RTVSPost2010PropOp56
 70
     1
102
RTVSPost2010Prop57
140
1.0
102
RTVSPost2010PropOp57
 70
     1
  0
XRECORD
  5
41D
102
{ACAD_REACTORS
330
41C
102
}
330
41C
100
AcDbXrecord
280
     1
102
RTVSPost2010Prop28
280
     0
102
RTVSPost2010PropOp28
 70
     1
102
RTVSPost2010Prop29
280
     1
102
RTVSPost2010PropOp29
 70
     1
102
RTVSPost2010Prop30
280
     1
102
RTVSPost2010PropOp30
 70
     1
102
RTVSPost2010Prop31
280
     0
102
RTVSPost2010PropOp31
 70
     1
102
RTVSPost2010Prop32
280
     0
102
RTVSPost2010PropOp32
 70
     1
102
RTVSPost2010Prop33
280
     0
102
RTVSPost2010PropOp33
 70
     1
102
RTVSPost2010Prop34
280
     0
102
RTVSPost2010PropOp34
 70
     1
102
RTVSPost2010Prop35
280
     0
102
RTVSPost2010PropOp35
 70
     1
102
RTVSPost2010Prop36
280
     0
102
RTVSPost2010PropOp36
 70
     1
102
RTVSPost2010Prop37
 90
       50
102
RTVSPost2010PropOp37
 70
     1
102
RTVSPost2010Prop38
140
0.0
102
RTVSPost2010PropOp38
 70
     1
102
RTVSPost2010Prop39
140
1.0
102
RTVSPost2010PropOp39
 70
     1
102
RTVSPost2010Prop40
 90
        0
102
RTVSPost2010PropOp40
 70
     1
102
RTVSPost2010Prop41ColorIndex
 90
       18
102
RTVSPost2010Prop41ColorRGB
 90
        0
102
RTVSPost2010PropOp41
 70
     1
102
RTVSPost2010Prop42
 90
       50
102
RTVSPost2010PropOp42
 70
     1
102
RTVSPost2010Prop43
 90
        3
102
RTVSPost2010PropOp43
 70
     1
102
RTVSPost2010Prop44ColorIndex
 90
        5
102
RTVSPost2010Prop44ColorRGB
 90
      255
102
RTVSPost2010PropOp44
 70
     1
102
RTVSPost2010Prop45
280
     0
102
RTVSPost2010PropOp45
 70
     1
102
RTVSPost2010Prop46
 90
       50
102
RTVSPost2010PropOp46
 70
     1
102
RTVSPost2010Prop47
 90
       50
102
RTVSPost2010PropOp47
 70
     1
102
RTVSPost2010Prop48
 90
       50
102
RTVSPost2010PropOp48
 70
     1
102
RTVSPost2010Prop49
280
     0
102
RTVSPost2010PropOp49
 70
     1
102
RTVSPost2010Prop50
 90
       50
102
RTVSPost2010PropOp50
 70
     1
102
RTVSPost2010Prop51ColorIndex
 90
      256
102
RTVSPost2010Prop51ColorRGB
 90
-16777216
102
RTVSPost2010PropOp51
 70
     0
102
RTVSPost2010Prop52
140
1.0
102
RTVSPost2010PropOp52
 70
     0
102
RTVSPost2010Prop53
 90
        2
102
RTVSPost2010PropOp53
 70
     1
102
RTVSPost2010Prop54
  1
strokes_ogs.tif
102
RTVSPost2010PropOp54
 70
     1
102
RTVSPost2010Prop55
280
     0
102
RTVSPost2010PropOp55
 70
     1
102
RTVSPost2010Prop56
140
1.0
102
RTVSPost2010PropOp56
 70
     1
102
RTVSPost2010Prop57
140
1.0
102
RTVSPost2010PropOp57
 70
     1
  0
XRECORD
  5
40F
102
{ACAD_REACTORS
330
40E
102
}
330
40E
100
AcDbXrecord
280
     1
102
RTVSPost2010Prop28
280
     0
102
RTVSPost2010PropOp28
 70
     1
102
RTVSPost2010Prop29
280
     1
102
RTVSPost2010PropOp29
 70
     1
102
RTVSPost2010Prop30
280
     1
102
RTVSPost2010PropOp30
 70
     1
102
RTVSPost2010Prop31
280
     0
102
RTVSPost2010PropOp31
 70
     1
102
RTVSPost2010Prop32
280
     0
102
RTVSPost2010PropOp32
 70
     1
102
RTVSPost2010Prop33
280
     0
102
RTVSPost2010PropOp33
 70
     1
102
RTVSPost2010Prop34
280
     0
102
RTVSPost2010PropOp34
 70
     1
102
RTVSPost2010Prop35
280
     0
102
RTVSPost2010PropOp35
 70
     1
102
RTVSPost2010Prop36
280
     0
102
RTVSPost2010PropOp36
 70
     1
102
RTVSPost2010Prop37
 90
       50
102
RTVSPost2010PropOp37
 70
     1
102
RTVSPost2010Prop38
140
0.0
102
RTVSPost2010PropOp38
 70
     1
102
RTVSPost2010Prop39
140
1.0
102
RTVSPost2010PropOp39
 70
     1
102
RTVSPost2010Prop40
 90
        0
102
RTVSPost2010PropOp40
 70
     1
102
RTVSPost2010Prop41ColorIndex
 90
       18
102
RTVSPost2010Prop41ColorRGB
 90
        0
102
RTVSPost2010PropOp41
 70
     1
102
RTVSPost2010Prop42
 90
       50
102
RTVSPost2010PropOp42
 70
     1
102
RTVSPost2010Prop43
 90
        3
102
RTVSPost2010PropOp43
 70
     1
102
RTVSPost2010Prop44ColorIndex
 90
        5
102
RTVSPost2010Prop44ColorRGB
 90
      255
102
RTVSPost2010PropOp44
 70
     1
102
RTVSPost2010Prop45
280
     0
102
RTVSPost2010PropOp45
 70
     1
102
RTVSPost2010Prop46
 90
       50
102
RTVSPost2010PropOp46
 70
     1
102
RTVSPost2010Prop47
 90
       50
102
RTVSPost2010PropOp47
 70
     1
102
RTVSPost2010Prop48
 90
       50
102
RTVSPost2010PropOp48
 70
     1
102
RTVSPost2010Prop49
280
     0
102
RTVSPost2010PropOp49
 70
     1
102
RTVSPost2010Prop50
 90
       50
102
RTVSPost2010PropOp50
 70
     1
102
RTVSPost2010Prop51ColorIndex
 90
      256
102
RTVSPost2010Prop51ColorRGB
 90
-16777216
102
RTVSPost2010PropOp51
 70
     0
102
RTVSPost2010Prop52
140
1.0
102
RTVSPost2010PropOp52
 70
     0
102
RTVSPost2010Prop53
 90
        2
102
RTVSPost2010PropOp53
 70
     1
102
RTVSPost2010Prop54
  1
strokes_ogs.tif
102
RTVSPost2010PropOp54
 70
     1
102
RTVSPost2010Prop55
280
     0
102
RTVSPost2010PropOp55
 70
     1
102
RTVSPost2010Prop56
140
1.0
102
RTVSPost2010PropOp56
 70
     1
102
RTVSPost2010Prop57
140
1.0
102
RTVSPost2010PropOp57
 70
     1
  0
XRECORD
  5
42F
102
{ACAD_REACTORS
330
42E
102
}
330
42E
100
AcDbXrecord
280
     1
102
RTVSPost2010Prop28
280
     0
102
RTVSPost2010PropOp28
 70
     1
102
RTVSPost2010Prop29
280
     1
102
RTVSPost2010PropOp29
 70
     1
102
RTVSPost2010Prop30
280
     1
102
RTVSPost2010PropOp30
 70
     1
102
RTVSPost2010Prop31
280
     0
102
RTVSPost2010PropOp31
 70
     1
102
RTVSPost2010Prop32
280
     0
102
RTVSPost2010PropOp32
 70
     1
102
RTVSPost2010Prop33
280
     0
102
RTVSPost2010PropOp33
 70
     1
102
RTVSPost2010Prop34
280
     0
102
RTVSPost2010PropOp34
 70
     1
102
RTVSPost2010Prop35
280
     0
102
RTVSPost2010PropOp35
 70
     1
102
RTVSPost2010Prop36
280
     0
102
RTVSPost2010PropOp36
 70
     1
102
RTVSPost2010Prop37
 90
       50
102
RTVSPost2010PropOp37
 70
     1
102
RTVSPost2010Prop38
140
0.0
102
RTVSPost2010PropOp38
 70
     1
102
RTVSPost2010Prop39
140
1.0
102
RTVSPost2010PropOp39
 70
     1
102
RTVSPost2010Prop40
 90
        0
102
RTVSPost2010PropOp40
 70
     1
102
RTVSPost2010Prop41ColorIndex
 90
       18
102
RTVSPost2010Prop41ColorRGB
 90
        0
102
RTVSPost2010PropOp41
 70
     1
102
RTVSPost2010Prop42
 90
       50
102
RTVSPost2010PropOp42
 70
     1
102
RTVSPost2010Prop43
 90
        3
102
RTVSPost2010PropOp43
 70
     1
102
RTVSPost2010Prop44ColorIndex
 90
        5
102
RTVSPost2010Prop44ColorRGB
 90
      255
102
RTVSPost2010PropOp44
 70
     1
102
RTVSPost2010Prop45
280
     0
102
RTVSPost2010PropOp45
 70
     1
102
RTVSPost2010Prop46
 90
       50
102
RTVSPost2010PropOp46
 70
     1
102
RTVSPost2010Prop47
 90
       50
102
RTVSPost2010PropOp47
 70
     1
102
RTVSPost2010Prop48
 90
       50
102
RTVSPost2010PropOp48
 70
     1
102
RTVSPost2010Prop49
280
     0
102
RTVSPost2010PropOp49
 70
     1
102
RTVSPost2010Prop50
 90
       50
102
RTVSPost2010PropOp50
 70
     1
102
RTVSPost2010Prop51ColorIndex
 90
      256
102
RTVSPost2010Prop51ColorRGB
 90
-16777216
102
RTVSPost2010PropOp51
 70
     0
102
RTVSPost2010Prop52
140
1.0
102
RTVSPost2010PropOp52
 70
     0
102
RTVSPost2010Prop53
 90
        2
102
RTVSPost2010PropOp53
 70
     1
102
RTVSPost2010Prop54
  1
strokes_ogs.tif
102
RTVSPost2010PropOp54
 70
     1
102
RTVSPost2010Prop55
280
     0
102
RTVSPost2010PropOp55
 70
     1
102
RTVSPost2010Prop56
140
1.0
102
RTVSPost2010PropOp56
 70
     1
102
RTVSPost2010Prop57
140
1.0
102
RTVSPost2010PropOp57
 70
     1
  0
ENDSEC
  0
EOF
