  0
SECTION
  2
HEADER
  9
$ACADVER
  1
AC1024
  9
$ACADMAINTVER
 70
     6
  9
$DWGCODEPAGE
  3
ANSI_932
  9
$INSBASE
 10
0.0
 20
0.0
 30
0.0
  9
$EXTMIN
 10
-567.3135945901258
 20
-238.3831614154535
 30
0.0
  9
$EXTMAX
 10
567.3135945901258
 20
238.3831614154535
 30
0.0
  9
$LIMMIN
 10
-198.1666666666667
 20
-140.1666666666667
  9
$LIMMAX
 10
198.1666666666667
 20
140.1666666666667
  9
$ORTHOMODE
 70
     0
  9
$REGENMODE
 70
     1
  9
$FILLMODE
 70
     1
  9
$QTEXTMODE
 70
     0
  9
$MIRRTEXT
 70
     1
  9
$LTSCALE
 40
0.0833333333333333
  9
$ATTMODE
 70
     1
  9
$TEXTSIZE
 40
0.2
  9
$TRACEWID
 40
0.05
  9
$TEXTSTYLE
  7
Standard
  9
$CLAYER
  8
0
  9
$CELTYPE
  6
ByLayer
  9
$CECOLOR
 62
   256
  9
$CELTSCALE
 40
1.0
  9
$DISPSILH
 70
     0
  9
$DIMSCALE
 40
1.0
  9
$DIMASZ
 40
0.1666619380315145
  9
$DIMEXO
 40
1.0
  9
$DIMDLI
 40
10.0
  9
$DIMRND
 40
0.0
  9
$DIMDLE
 40
0.0
  9
$DIMEXE
 40
1.0
  9
$DIMTP
 40
0.0
  9
$DIMTM
 40
0.0
  9
$DIMTXT
 40
1.333333333333333
  9
$DIMCEN
 40
0.0
  9
$DIMTSZ
 40
0.0
  9
$DIMTOL
 70
     0
  9
$DIMLIM
 70
     0
  9
$DIMTIH
 70
     0
  9
$DIMTOH
 70
     0
  9
$DIMSE1
 70
     0
  9
$DIMSE2
 70
     0
  9
$DIMTAD
 70
     1
  9
$DIMZIN
 70
     8
  9
$DIMBLK
  1

  9
$DIMASO
 70
     1
  9
$DIMSHO
 70
     1
  9
$DIMPOST
  1

  9
$DIMAPOST
  1

  9
$DIMALT
 70
     0
  9
$DIMALTD
 70
     2
  9
$DIMALTF
 40
0.0393700787401575
  9
$DIMLFAC
 40
1.0
  9
$DIMTOFL
 70
     0
  9
$DIMTVP
 40
0.0
  9
$DIMTIX
 70
     0
  9
$DIMSOXD
 70
     0
  9
$DIMSAH
 70
     0
  9
$DIMBLK1
  1

  9
$DIMBLK2
  1

  9
$DIMSTYLE
  2
Standard
  9
$DIMCLRD
 70
     0
  9
$DIMCLRE
 70
     0
  9
$DIMCLRT
 70
     0
  9
$DIMTFAC
 40
0.65
  9
$DIMGAP
 40
0.09
  9
$DIMJUST
 70
     0
  9
$DIMSD1
 70
     0
  9
$DIMSD2
 70
     0
  9
$DIMTOLJ
 70
     0
  9
$DIMTZIN
 70
     0
  9
$DIMALTZ
 70
     0
  9
$DIMALTTZ
 70
     0
  9
$DIMUPT
 70
     0
  9
$DIMDEC
 70
     3
  9
$DIMTDEC
 70
     3
  9
$DIMALTU
 70
     2
  9
$DIMALTTD
 70
     3
  9
$DIMTXSTY
  7
Standard
  9
$DIMAUNIT
 70
     0
  9
$DIMADEC
 70
     3
  9
$DIMALTRND
 40
0.0
  9
$DIMAZIN
 70
     2
  9
$DIMDSEP
 70
    46
  9
$DIMATFIT
 70
     3
  9
$DIMFRAC
 70
     0
  9
$DIMLDRBLK
  1

  9
$DIMLUNIT
 70
     2
  9
$DIMLWD
 70
    -2
  9
$DIMLWE
 70
    -2
  9
$DIMTMOVE
 70
     0
  9
$DIMFXL
 40
1.0
  9
$DIMFXLON
 70
     0
  9
$DIMJOGANG
 40
0.7853981633974483
  9
$DIMTFILL
 70
     0
  9
$DIMTFILLCLR
 70
     0
  9
$DIMARCSYM
 70
     1
  9
$DIMLTYPE
  6

  9
$DIMLTEX1
  6

  9
$DIMLTEX2
  6

  9
$DIMTXTDIRECTION
 70
     0
  9
$LUNITS
 70
     2
  9
$LUPREC
 70
     4
  9
$SKETCHINC
 40
0.1
  9
$FILLETRAD
 40
0.5
  9
$AUNITS
 70
     0
  9
$AUPREC
 70
     0
  9
$MENU
  1
.
  9
$ELEVATION
 40
0.0
  9
$PELEVATION
 40
0.0
  9
$THICKNESS
 40
0.0
  9
$LIMCHECK
 70
     0
  9
$CHAMFERA
 40
0.0
  9
$CHAMFERB
 40
0.0
  9
$CHAMFERC
 40
0.0
  9
$CHAMFERD
 40
0.0
  9
$SKPOLY
 70
     0
  9
$TDCREATE
 40
2459964.563159063
  9
$TDUCREATE
 40
2459964.188159063
  9
$TDUPDATE
 40
2459964.563159236
  9
$TDUUPDATE
 40
2459964.188159236
  9
$TDINDWG
 40
0.0000000116
  9
$TDUSRTIMER
 40
0.0000000116
  9
$USRTIMER
 70
     1
  9
$ANGBASE
 50
0.0
  9
$ANGDIR
 70
     0
  9
$PDMODE
 70
     0
  9
$PDSIZE
 40
1.0
  9
$PLINEWID
 40
0.0
  9
$SPLFRAME
 70
     0
  9
$SPLINETYPE
 70
     6
  9
$SPLINESEGS
 70
     8
  9
$HANDSEED
  5
482
  9
$SURFTAB1
 70
     6
  9
$SURFTAB2
 70
     6
  9
$SURFTYPE
 70
     6
  9
$SURFU
 70
     6
  9
$SURFV
 70
     6
  9
$UCSBASE
  2

  9
$UCSNAME
  2

  9
$UCSORG
 10
0.0
 20
0.0
 30
0.0
  9
$UCSXDIR
 10
1.0
 20
0.0
 30
0.0
  9
$UCSYDIR
 10
0.0
 20
1.0
 30
0.0
  9
$UCSORTHOREF
  2

  9
$UCSORTHOVIEW
 70
     0
  9
$UCSORGTOP
 10
0.0
 20
0.0
 30
0.0
  9
$UCSORGBOTTOM
 10
0.0
 20
0.0
 30
0.0
  9
$UCSORGLEFT
 10
0.0
 20
0.0
 30
0.0
  9
$UCSORGRIGHT
 10
0.0
 20
0.0
 30
0.0
  9
$UCSORGFRONT
 10
0.0
 20
0.0
 30
0.0
  9
$UCSORGBACK
 10
0.0
 20
0.0
 30
0.0
  9
$PUCSBASE
  2

  9
$PUCSNAME
  2

  9
$PUCSORG
 10
0.0
 20
0.0
 30
0.0
  9
$PUCSXDIR
 10
1.0
 20
0.0
 30
0.0
  9
$PUCSYDIR
 10
0.0
 20
1.0
 30
0.0
  9
$PUCSORTHOREF
  2

  9
$PUCSORTHOVIEW
 70
     0
  9
$PUCSORGTOP
 10
0.0
 20
0.0
 30
0.0
  9
$PUCSORGBOTTOM
 10
0.0
 20
0.0
 30
0.0
  9
$PUCSORGLEFT
 10
0.0
 20
0.0
 30
0.0
  9
$PUCSORGRIGHT
 10
0.0
 20
0.0
 30
0.0
  9
$PUCSORGFRONT
 10
0.0
 20
0.0
 30
0.0
  9
$PUCSORGBACK
 10
0.0
 20
0.0
 30
0.0
  9
$USERI1
 70
     0
  9
$USERI2
 70
     0
  9
$USERI3
 70
     0
  9
$USERI4
 70
     0
  9
$USERI5
 70
     0
  9
$USERR1
 40
0.0
  9
$USERR2
 40
0.0
  9
$USERR3
 40
0.0
  9
$USERR4
 40
0.0
  9
$USERR5
 40
0.0
  9
$WORLDVIEW
 70
     1
  9
$SHADEDGE
 70
     3
  9
$SHADEDIF
 70
    70
  9
$TILEMODE
 70
     1
  9
$MAXACTVP
 70
    64
  9
$PINSBASE
 10
0.0
 20
0.0
 30
0.0
  9
$PLIMCHECK
 70
     0
  9
$PEXTMIN
 10
1.000000000000000E+20
 20
1.000000000000000E+20
 30
1.000000000000000E+20
  9
$PEXTMAX
 10
-1.000000000000000E+20
 20
-1.000000000000000E+20
 30
-1.000000000000000E+20
  9
$PLIMMIN
 10
0.0
 20
0.0
  9
$PLIMMAX
 10
12.0
 20
9.0
  9
$UNITMODE
 70
     0
  9
$VISRETAIN
 70
     0
  9
$PLINEGEN
 70
     1
  9
$PSLTSCALE
 70
     0
  9
$TREEDEPTH
 70
  3020
  9
$CMLSTYLE
  2
Standard
  9
$CMLJUST
 70
     0
  9
$CMLSCALE
 40
1.0
  9
$PROXYGRAPHICS
 70
     0
  9
$MEASUREMENT
 70
     1
  9
$CELWEIGHT
370
    -1
  9
$ENDCAPS
280
     0
  9
$JOINSTYLE
280
     0
  9
$LWDISPLAY
290
     1
  9
$INSUNITS
 70
     4
  9
$HYPERLINKBASE
  1

  9
$STYLESHEET
  1

  9
$XEDIT
290
     1
  9
$CEPSNTYPE
380
     0
  9
$PSTYLEMODE
290
     1
  9
$FINGERPRINTGUID
  2
{643d2a8f-3031-4222-a2eb-333e9cf9d7a2}
  9
$VERSIONGUID
  2
{FAEB1C32-E019-11D5-929B-00C0DF256EC4}
  9
$EXTNAMES
290
     1
  9
$PSVPSCALE
 40
0.0
  9
$OLESTARTUP
290
     0
  9
$SORTENTS
280
   127
  9
$INDEXCTL
280
     0
  9
$HIDETEXT
280
     1
  9
$XCLIPFRAME
280
     2
  9
$HALOGAP
280
     0
  9
$OBSCOLOR
 70
   257
  9
$OBSLTYPE
280
     0
  9
$INTERSECTIONDISPLAY
280
     0
  9
$INTERSECTIONCOLOR
 70
   257
  9
$DIMASSOC
280
     2
  9
$PROJECTNAME
  1

  9
$CAMERADISPLAY
290
     0
  9
$LENSLENGTH
 40
50.0
  9
$CAMERAHEIGHT
 40
0.0
  9
$STEPSPERSEC
 40
2.0
  9
$STEPSIZE
 40
6.0
  9
$3DDWFPREC
 40
2.0
  9
$PSOLWIDTH
 40
0.25
  9
$PSOLHEIGHT
 40
4.0
  9
$LOFTANG1
 40
1.570796326794897
  9
$LOFTANG2
 40
1.570796326794897
  9
$LOFTMAG1
 40
0.0
  9
$LOFTMAG2
 40
0.0
  9
$LOFTPARAM
 70
     7
  9
$LOFTNORMALS
280
     1
  9
$LATITUDE
 40
37.795
  9
$LONGITUDE
 40
-122.394
  9
$NORTHDIRECTION
 40
0.0
  9
$TIMEZONE
 70
 -8000
  9
$LIGHTGLYPHDISPLAY
280
     1
  9
$TILEMODELIGHTSYNCH
280
     1
  9
$CMATERIAL
347
44
  9
$SOLIDHIST
280
     0
  9
$SHOWHIST
280
     1
  9
$DWFFRAME
280
     2
  9
$DGNFRAME
280
     2
  9
$REALWORLDSCALE
290
     1
  9
$INTERFERECOLOR
 62
   256
  9
$CSHADOW
280
     0
  9
$SHADOWPLANELOCATION
 40
0.0
  0
ENDSEC
  0
SECTION
  2
CLASSES
  0
CLASS
  1
ACDBDICTIONARYWDFLT
  2
AcDbDictionaryWithDefault
  3
ObjectDBX Classes
 90
        0
 91
        3
280
     0
281
     0
  0
CLASS
  1
VISUALSTYLE
  2
AcDbVisualStyle
  3
ObjectDBX Classes
 90
     4095
 91
        3
280
     0
281
     0
  0
CLASS
  1
MATERIAL
  2
AcDbMaterial
  3
ObjectDBX Classes
 90
     1153
 91
        3
280
     0
281
     0
  0
CLASS
  1
SCALE
  2
AcDbScale
  3
ObjectDBX Classes
 90
     1153
 91
        3
280
     0
281
     0
  0
CLASS
  1
TABLESTYLE
  2
AcDbTableStyle
  3
ObjectDBX Classes
 90
     4095
 91
        3
280
     0
281
     0
  0
CLASS
  1
MLEADERSTYLE
  2
AcDbMLeaderStyle
  3
ACDB_MLEADERSTYLE_CLASS
 90
     4095
 91
        3
280
     0
281
     0
  0
CLASS
  1
SUN
  2
AcDbSun
  3
SCENEOE
 90
     1153
 91
        3
280
     0
281
     0
  0
CLASS
  1
DICTIONARYVAR
  2
AcDbDictionaryVar
  3
ObjectDBX Classes
 90
        0
 91
        3
280
     0
281
     0
  0
CLASS
  1
CELLSTYLEMAP
  2
AcDbCellStyleMap
  3
ObjectDBX Classes
 90
     1152
 91
        3
280
     0
281
     0
  0
ENDSEC
  0
SECTION
  2
TABLES
  0
TABLE
  2
VPORT
  5
8
330
0
100
AcDbSymbolTable
 70
     1
  0
VPORT
  5
29
330
8
100
AcDbSymbolTableRecord
100
AcDbViewportTableRecord
  2
*Active
 70
     0
 10
0.0
 20
0.0
 11
1.0
 21
1.0
 12
0.0
 22
0.0
 13
0.0
 23
0.0
 14
0.5
 24
0.5
 15
0.5
 25
0.5
 16
0.0
 26
0.0
 36
1.0
 17
-0.0000000000000036
 27
0.0
 37
0.0
 40
162.1005497625084
 41
2.379839210209203
 42
50.0
 43
0.0
 44
0.0
 50
0.0
 51
0.0
 71
     0
 72
  1000
 73
     1
 74
     1
 75
     0
 76
     0
 77
     0
 78
     0
281
     0
 65
     1
110
0.0
120
0.0
130
0.0
111
1.0
121
0.0
131
0.0
112
0.0
122
1.0
132
0.0
 79
     0
146
0.0
348
2F
 60
     3
 61
     5
292
     1
282
     1
141
0.0
142
0.0
 63
   250
361
6D
  0
ENDTAB
  0
TABLE
  2
LTYPE
  5
5
330
0
100
AcDbSymbolTable
 70
    67
  0
LTYPE
  5
14
330
5
100
AcDbSymbolTableRecord
100
AcDbLinetypeTableRecord
  2
ByBlock
 70
     0
  3

 72
    65
 73
     0
 40
0.0
  0
LTYPE
  5
15
330
5
100
AcDbSymbolTableRecord
100
AcDbLinetypeTableRecord
  2
ByLayer
 70
     0
  3

 72
    65
 73
     0
 40
0.0
  0
LTYPE
  5
16
330
5
100
AcDbSymbolTableRecord
100
AcDbLinetypeTableRecord
  2
Continuous
 70
     0
  3
Solid line
 72
    65
 73
     0
 40
0.0
  0
LTYPE
  5
6F
330
5
100
AcDbSymbolTableRecord
100
AcDbLinetypeTableRecord
  2
HIDDENX2
 70
     0
  3
Hidden (2x) ____ ____ ____ ____ ____ ____ ____ 
 72
    65
 73
     2
 40
19.05
 49
12.7
 74
     0
 49
-6.35
 74
     0
  0
LTYPE
  5
70
330
5
100
AcDbSymbolTableRecord
100
AcDbLinetypeTableRecord
  2
HIDDEN
 70
     0
  3
Hidden __ __ __ __ __ __ __ __ __ __ __ __ __ __
 72
    65
 73
     2
 40
9.524999999999999
 49
6.35
 74
     0
 49
-3.175
 74
     0
  0
LTYPE
  5
71
330
5
100
AcDbSymbolTableRecord
100
AcDbLinetypeTableRecord
  2
HIDDEN2
 70
     0
  3
Hidden (.5x) _ _ _ _ _ _ _ _ _ _ _ _ _ _ _ _ _ 
 72
    65
 73
     2
 40
4.762499999999999
 49
3.175
 74
     0
 49
-1.5875
 74
     0
  0
LTYPE
  5
72
330
5
100
AcDbSymbolTableRecord
100
AcDbLinetypeTableRecord
  2
DASHED
 70
     0
  3
Dashed __ __ __ __ __ __ __ __ __ __ __ __ __ _
 72
    65
 73
     2
 40
19.05
 49
12.7
 74
     0
 49
-6.35
 74
     0
  0
LTYPE
  5
73
330
5
100
AcDbSymbolTableRecord
100
AcDbLinetypeTableRecord
  2
DASHED2
 70
     0
  3
Dashed (.5x) _ _ _ _ _ _ _ _ _ _ _ _ _ _ _ _ _ 
 72
    65
 73
     2
 40
9.524999999999999
 49
6.35
 74
     0
 49
-3.175
 74
     0
  0
LTYPE
  5
74
330
5
100
AcDbSymbolTableRecord
100
AcDbLinetypeTableRecord
  2
DASHEDX2
 70
     0
  3
Dashed (2x) ____  ____  ____  ____  ____  ___
 72
    65
 73
     2
 40
38.09999999999999
 49
25.4
 74
     0
 49
-12.7
 74
     0
  0
LTYPE
  5
75
330
5
100
AcDbSymbolTableRecord
100
AcDbLinetypeTableRecord
  2
DOTX2
 70
     0
  3
Dot (2x) .  .  .  .  .  .  .  .  .  .  .  .  .  .
 72
    65
 73
     2
 40
12.7
 49
0.0
 74
     0
 49
-12.7
 74
     0
  0
LTYPE
  5
76
330
5
100
AcDbSymbolTableRecord
100
AcDbLinetypeTableRecord
  2
DOT
 70
     0
  3
Dot . . . . . . . . . . . . . . . . . . . . . . . .
 72
    65
 73
     2
 40
6.35
 49
0.0
 74
     0
 49
-6.35
 74
     0
  0
LTYPE
  5
77
330
5
100
AcDbSymbolTableRecord
100
AcDbLinetypeTableRecord
  2
DOT2
 70
     0
  3
Dot (.5x) ........................................
 72
    65
 73
     2
 40
3.175
 49
0.0
 74
     0
 49
-3.175
 74
     0
  0
LTYPE
  5
78
330
5
100
AcDbSymbolTableRecord
100
AcDbLinetypeTableRecord
  2
CENTERX2
 70
     0
  3
Center (2x) ________  __  ________  __  _____
 72
    65
 73
     4
 40
101.6
 49
63.5
 74
     0
 49
-12.7
 74
     0
 49
12.7
 74
     0
 49
-12.7
 74
     0
  0
LTYPE
  5
79
330
5
100
AcDbSymbolTableRecord
100
AcDbLinetypeTableRecord
  2
CENTER
 70
     0
  3
Center ____ _ ____ _ ____ _ ____ _ ____ _ ____
 72
    65
 73
     4
 40
50.8
 49
31.75
 74
     0
 49
-6.35
 74
     0
 49
6.35
 74
     0
 49
-6.35
 74
     0
  0
LTYPE
  5
7A
330
5
100
AcDbSymbolTableRecord
100
AcDbLinetypeTableRecord
  2
CENTER2
 70
     0
  3
Center (.5x) ___ _ ___ _ ___ _ ___ _ ___ _ ___
 72
    65
 73
     4
 40
28.575
 49
19.05
 74
     0
 49
-3.175
 74
     0
 49
3.175
 74
     0
 49
-3.175
 74
     0
  0
LTYPE
  5
7B
330
5
100
AcDbSymbolTableRecord
100
AcDbLinetypeTableRecord
  2
DASHDOTX2
 70
     0
  3
Dash dot (2x) ____  .  ____  .  ____  .  ___
 72
    65
 73
     4
 40
50.8
 49
25.4
 74
     0
 49
-12.7
 74
     0
 49
0.0
 74
     0
 49
-12.7
 74
     0
  0
LTYPE
  5
7C
330
5
100
AcDbSymbolTableRecord
100
AcDbLinetypeTableRecord
  2
DASHDOT
 70
     0
  3
Dash dot __ . __ . __ . __ . __ . __ . __ . __
 72
    65
 73
     4
 40
25.4
 49
12.7
 74
     0
 49
-6.35
 74
     0
 49
0.0
 74
     0
 49
-6.35
 74
     0
  0
LTYPE
  5
7D
330
5
100
AcDbSymbolTableRecord
100
AcDbLinetypeTableRecord
  2
DASHDOT2
 70
     0
  3
Dash dot (.5x) _._._._._._._._._._._._._._._.
 72
    65
 73
     4
 40
12.7
 49
6.35
 74
     0
 49
-3.175
 74
     0
 49
0.0
 74
     0
 49
-3.175
 74
     0
  0
LTYPE
  5
7E
330
5
100
AcDbSymbolTableRecord
100
AcDbLinetypeTableRecord
  2
DIVIDEX2
 70
     0
  3
Divide (2x) ________  .  .  ________  .  .  _
 72
    65
 73
     6
 40
63.5
 49
25.4
 74
     0
 49
-12.7
 74
     0
 49
0.0
 74
     0
 49
-12.7
 74
     0
 49
0.0
 74
     0
 49
-12.7
 74
     0
  0
LTYPE
  5
7F
330
5
100
AcDbSymbolTableRecord
100
AcDbLinetypeTableRecord
  2
DIVIDE
 70
     0
  3
Divide ____ . . ____ . . ____ . . ____ . . ____
 72
    65
 73
     6
 40
31.75
 49
12.7
 74
     0
 49
-6.35
 74
     0
 49
0.0
 74
     0
 49
-6.35
 74
     0
 49
0.0
 74
     0
 49
-6.35
 74
     0
  0
LTYPE
  5
80
330
5
100
AcDbSymbolTableRecord
100
AcDbLinetypeTableRecord
  2
DIVIDE2
 70
     0
  3
Divide (.5x) __..__..__..__..__..__..__..__.._
 72
    65
 73
     6
 40
15.875
 49
6.35
 74
     0
 49
-3.175
 74
     0
 49
0.0
 74
     0
 49
-3.175
 74
     0
 49
0.0
 74
     0
 49
-3.175
 74
     0
  0
LTYPE
  5
81
330
5
100
AcDbSymbolTableRecord
100
AcDbLinetypeTableRecord
  2
BORDERX2
 70
     0
  3
Border (2x) ____  ____  .  ____  ____  .  ___
 72
    65
 73
     6
 40
88.89999999999999
 49
25.4
 74
     0
 49
-12.7
 74
     0
 49
25.4
 74
     0
 49
-12.7
 74
     0
 49
0.0
 74
     0
 49
-12.7
 74
     0
  0
LTYPE
  5
82
330
5
100
AcDbSymbolTableRecord
100
AcDbLinetypeTableRecord
  2
BORDER
 70
     0
  3
Border __ __ . __ __ . __ __ . __ __ . __ __ .
 72
    65
 73
     6
 40
44.45
 49
12.7
 74
     0
 49
-6.35
 74
     0
 49
12.7
 74
     0
 49
-6.35
 74
     0
 49
0.0
 74
     0
 49
-6.35
 74
     0
  0
LTYPE
  5
83
330
5
100
AcDbSymbolTableRecord
100
AcDbLinetypeTableRecord
  2
BORDER2
 70
     0
  3
Border (.5x) __.__.__.__.__.__.__.__.__.__.__.
 72
    65
 73
     6
 40
22.225
 49
6.35
 74
     0
 49
-3.175
 74
     0
 49
6.35
 74
     0
 49
-3.175
 74
     0
 49
0.0
 74
     0
 49
-3.175
 74
     0
  0
LTYPE
  5
84
330
5
100
AcDbSymbolTableRecord
100
AcDbLinetypeTableRecord
  2
PHANTOMX2
 70
     0
  3
Phantom (2x) ____________    ____    ____   _
 72
    65
 73
     6
 40
127.0
 49
63.5
 74
     0
 49
-12.7
 74
     0
 49
12.7
 74
     0
 49
-12.7
 74
     0
 49
12.7
 74
     0
 49
-12.7
 74
     0
  0
LTYPE
  5
85
330
5
100
AcDbSymbolTableRecord
100
AcDbLinetypeTableRecord
  2
PHANTOM
 70
     0
  3
Phantom ______  __  __  ______  __  __  ______ 
 72
    65
 73
     6
 40
63.5
 49
31.75
 74
     0
 49
-6.35
 74
     0
 49
6.35
 74
     0
 49
-6.35
 74
     0
 49
6.35
 74
     0
 49
-6.35
 74
     0
  0
LTYPE
  5
86
330
5
100
AcDbSymbolTableRecord
100
AcDbLinetypeTableRecord
  2
PHANTOM2
 70
     0
  3
Phantom (.5x) ___ _ _ ___ _ _ ___ _ _ ___ _ _
 72
    65
 73
     6
 40
31.75
 49
15.875
 74
     0
 49
-3.175
 74
     0
 49
3.175
 74
     0
 49
-3.175
 74
     0
 49
3.175
 74
     0
 49
-3.175
 74
     0
  0
LTYPE
  5
87
330
5
100
AcDbSymbolTableRecord
100
AcDbLinetypeTableRecord
  2
ACAD_ISO06W100
 70
     0
  3
ISO long-dash triple-dot ____ ... ____ ... ____
 72
    65
 73
     8
 40
36.0
 49
24.0
 74
     0
 49
-3.0
 74
     0
 49
0.0
 74
     0
 49
-3.0
 74
     0
 49
0.0
 74
     0
 49
-3.0
 74
     0
 49
0.0
 74
     0
 49
-3.0
 74
     0
  0
LTYPE
  5
88
330
5
100
AcDbSymbolTableRecord
100
AcDbLinetypeTableRecord
  2
ACAD_ISO13W100
 70
     0
  3
ISO double-dash double-dot __ __ . . __ __ . . _
 72
    65
 73
     8
 40
36.0
 49
12.0
 74
     0
 49
-3.0
 74
     0
 49
12.0
 74
     0
 49
-3.0
 74
     0
 49
0.0
 74
     0
 49
-3.0
 74
     0
 49
0.0
 74
     0
 49
-3.0
 74
     0
  0
LTYPE
  5
89
330
5
100
AcDbSymbolTableRecord
100
AcDbLinetypeTableRecord
  2
ACAD_ISO14W100
 70
     0
  3
ISO dash triple-dot __ . . . __ . . . __ . . . _
 72
    65
 73
     8
 40
24.0
 49
12.0
 74
     0
 49
-3.0
 74
     0
 49
0.0
 74
     0
 49
-3.0
 74
     0
 49
0.0
 74
     0
 49
-3.0
 74
     0
 49
0.0
 74
     0
 49
-3.0
 74
     0
  0
LTYPE
  5
8A
330
5
100
AcDbSymbolTableRecord
100
AcDbLinetypeTableRecord
  2
ACAD_ISO02W100
 70
     0
  3
ISO dash __ __ __ __ __ __ __ __ __ __ __ __ __
 72
    65
 73
     2
 40
15.0
 49
12.0
 74
     0
 49
-3.0
 74
     0
  0
LTYPE
  5
8B
330
5
100
AcDbSymbolTableRecord
100
AcDbLinetypeTableRecord
  2
ACAD_ISO03W100
 70
     0
  3
ISO dash space __    __    __    __    __    __
 72
    65
 73
     2
 40
30.0
 49
12.0
 74
     0
 49
-18.0
 74
     0
  0
LTYPE
  5
8C
330
5
100
AcDbSymbolTableRecord
100
AcDbLinetypeTableRecord
  2
ACAD_ISO04W100
 70
     0
  3
ISO long-dash dot ____ . ____ . ____ . ____ . _
 72
    65
 73
     4
 40
30.0
 49
24.0
 74
     0
 49
-3.0
 74
     0
 49
0.0
 74
     0
 49
-3.0
 74
     0
  0
LTYPE
  5
8D
330
5
100
AcDbSymbolTableRecord
100
AcDbLinetypeTableRecord
  2
ACAD_ISO05W100
 70
     0
  3
ISO long-dash double-dot ____ .. ____ .. ____ . 
 72
    65
 73
     6
 40
33.0
 49
24.0
 74
     0
 49
-3.0
 74
     0
 49
0.0
 74
     0
 49
-3.0
 74
     0
 49
0.0
 74
     0
 49
-3.0
 74
     0
  0
LTYPE
  5
8E
330
5
100
AcDbSymbolTableRecord
100
AcDbLinetypeTableRecord
  2
ACAD_ISO07W100
 70
     0
  3
ISO dot . . . . . . . . . . . . . . . . . . . . 
 72
    65
 73
     2
 40
3.0
 49
0.0
 74
     0
 49
-3.0
 74
     0
  0
LTYPE
  5
8F
330
5
100
AcDbSymbolTableRecord
100
AcDbLinetypeTableRecord
  2
ACAD_ISO08W100
 70
     0
  3
ISO long-dash short-dash ____ __ ____ __ ____ _
 72
    65
 73
     4
 40
36.0
 49
24.0
 74
     0
 49
-3.0
 74
     0
 49
6.0
 74
     0
 49
-3.0
 74
     0
  0
LTYPE
  5
90
330
5
100
AcDbSymbolTableRecord
100
AcDbLinetypeTableRecord
  2
ACAD_ISO09W100
 70
     0
  3
ISO long-dash double-short-dash ____ __ __ ____
 72
    65
 73
     6
 40
45.0
 49
24.0
 74
     0
 49
-3.0
 74
     0
 49
6.0
 74
     0
 49
-3.0
 74
     0
 49
6.0
 74
     0
 49
-3.0
 74
     0
  0
LTYPE
  5
91
330
5
100
AcDbSymbolTableRecord
100
AcDbLinetypeTableRecord
  2
ACAD_ISO10W100
 70
     0
  3
ISO dash dot __ . __ . __ . __ . __ . __ . __ . 
 72
    65
 73
     4
 40
18.0
 49
12.0
 74
     0
 49
-3.0
 74
     0
 49
0.0
 74
     0
 49
-3.0
 74
     0
  0
LTYPE
  5
92
330
5
100
AcDbSymbolTableRecord
100
AcDbLinetypeTableRecord
  2
ACAD_ISO11W100
 70
     0
  3
ISO double-dash dot __ __ . __ __ . __ __ . __ _
 72
    65
 73
     6
 40
33.0
 49
12.0
 74
     0
 49
-3.0
 74
     0
 49
12.0
 74
     0
 49
-3.0
 74
     0
 49
0.0
 74
     0
 49
-3.0
 74
     0
  0
LTYPE
  5
93
330
5
100
AcDbSymbolTableRecord
100
AcDbLinetypeTableRecord
  2
ACAD_ISO12W100
 70
     0
  3
ISO dash double-dot __ . . __ . . __ . . __ . . 
 72
    65
 73
     6
 40
21.0
 49
12.0
 74
     0
 49
-3.0
 74
     0
 49
0.0
 74
     0
 49
-3.0
 74
     0
 49
0.0
 74
     0
 49
-3.0
 74
     0
  0
LTYPE
  5
94
330
5
100
AcDbSymbolTableRecord
100
AcDbLinetypeTableRecord
  2
ACAD_ISO15W100
 70
     0
  3
ISO double-dash triple-dot __ __ . . . __ __ . .
 72
    65
 73
    10
 40
39.0
 49
12.0
 74
     0
 49
-3.0
 74
     0
 49
12.0
 74
     0
 49
-3.0
 74
     0
 49
0.0
 74
     0
 49
-3.0
 74
     0
 49
0.0
 74
     0
 49
-3.0
 74
     0
 49
0.0
 74
     0
 49
-3.0
 74
     0
  0
LTYPE
  5
95
330
5
100
AcDbSymbolTableRecord
100
AcDbLinetypeTableRecord
  2
JIS_02_0.7
 70
     0
  3
HIDDEN0.75 _ _ _ _ _ _ _ _ _ _ _ _ _ _ _ _ _ 
 72
    65
 73
     2
 40
1.35
 49
0.75
 74
     0
 49
-0.6
 74
     0
  0
LTYPE
  5
96
330
5
100
AcDbSymbolTableRecord
100
AcDbLinetypeTableRecord
  2
JIS_02_1.0
 70
     0
  3
HIDDEN01 _ _ _ _ _ _ _ _ _ _ _ _ _ _ _ _ _ 
 72
    65
 73
     2
 40
2.0
 49
1.0
 74
     0
 49
-1.0
 74
     0
  0
LTYPE
  5
97
330
5
100
AcDbSymbolTableRecord
100
AcDbLinetypeTableRecord
  2
JIS_02_1.2
 70
     0
  3
HIDDEN01.25  _ _ _ _ _ _ _ _ _ _ _ _ _ _ _ _ _ 
 72
    65
 73
     2
 40
2.5
 49
1.25
 74
     0
 49
-1.25
 74
     0
  0
LTYPE
  5
98
330
5
100
AcDbSymbolTableRecord
100
AcDbLinetypeTableRecord
  2
JIS_02_2.0
 70
     0
  3
HIDDEN02 __ __ __ __ __ __ __ __ __ __ __ 
 72
    65
 73
     2
 40
3.0
 49
2.0
 74
     0
 49
-1.0
 74
     0
  0
LTYPE
  5
99
330
5
100
AcDbSymbolTableRecord
100
AcDbLinetypeTableRecord
  2
JIS_02_4.0
 70
     0
  3
HIDDEN04 ____ ____ ____ ____ ____ ____ ____ 
 72
    65
 73
     2
 40
5.5
 49
4.0
 74
     0
 49
-1.5
 74
     0
  0
LTYPE
  5
9A
330
5
100
AcDbSymbolTableRecord
100
AcDbLinetypeTableRecord
  2
JIS_08_11
 70
     0
  3
1SASEN11 ___ _ ___ _ ___ _ ___ _ ___ _ ___
 72
    65
 73
     4
 40
12.8
 49
11.0
 74
     0
 49
-0.6
 74
     0
 49
0.6
 74
     0
 49
-0.6
 74
     0
  0
LTYPE
  5
9B
330
5
100
AcDbSymbolTableRecord
100
AcDbLinetypeTableRecord
  2
JIS_08_15
 70
     0
  3
1SASEN15 ____ _ ____ _ ____ _ ____ _ ____ 
 72
    65
 73
     4
 40
17.25
 49
15.0
 74
     0
 49
-0.75
 74
     0
 49
0.75
 74
     0
 49
-0.75
 74
     0
  0
LTYPE
  5
9C
330
5
100
AcDbSymbolTableRecord
100
AcDbLinetypeTableRecord
  2
JIS_08_25
 70
     0
  3
1SASEN25 ________  __  ________  __  _____
 72
    65
 73
     4
 40
28.0
 49
25.0
 74
     0
 49
-1.125
 74
     0
 49
0.75
 74
     0
 49
-1.125
 74
     0
  0
LTYPE
  5
9D
330
5
100
AcDbSymbolTableRecord
100
AcDbLinetypeTableRecord
  2
JIS_08_37
 70
     0
  3
1SASEN37 ________  __  ________  __  _____
 72
    65
 73
     4
 40
40.5
 49
37.5
 74
     0
 49
-1.125
 74
     0
 49
0.75
 74
     0
 49
-1.125
 74
     0
  0
LTYPE
  5
9E
330
5
100
AcDbSymbolTableRecord
100
AcDbLinetypeTableRecord
  2
JIS_08_50
 70
     0
  3
1SASEN50 _______________  __  ____________
 72
    65
 73
     4
 40
53.0
 49
50.0
 74
     0
 49
-1.125
 74
     0
 49
0.75
 74
     0
 49
-1.125
 74
     0
  0
LTYPE
  5
9F
330
5
100
AcDbSymbolTableRecord
100
AcDbLinetypeTableRecord
  2
JIS_09_08
 70
     0
  3
2SASEN8 __ _ _ __ _ _ __ _ _ __ _ _ __ _ _ 
 72
    65
 73
     6
 40
10.75
 49
8.0
 74
     0
 49
-0.55
 74
     0
 49
0.55
 74
     0
 49
-0.55
 74
     0
 49
0.55
 74
     0
 49
-0.55
 74
     0
  0
LTYPE
  5
A0
330
5
100
AcDbSymbolTableRecord
100
AcDbLinetypeTableRecord
  2
JIS_09_15
 70
     0
  3
2SASEN15 ___ _ _ ___ _ _ ___ _ _ ___ _ _ ___ 
 72
    65
 73
     6
 40
18.9
 49
15.0
 74
     0
 49
-0.9
 74
     0
 49
0.6
 74
     0
 49
-0.9
 74
     0
 49
0.6
 74
     0
 49
-0.9
 74
     0
  0
LTYPE
  5
A1
330
5
100
AcDbSymbolTableRecord
100
AcDbLinetypeTableRecord
  2
JIS_09_29
 70
     0
  3
2SASEN29 ______　__  __  ______　__  __  ___
 72
    65
 73
     6
 40
34.0
 49
29.0
 74
     0
 49
-1.2
 74
     0
 49
0.7
 74
     0
 49
-1.2
 74
     0
 49
0.7
 74
     0
 49
-1.2
 74
     0
  0
LTYPE
  5
A2
330
5
100
AcDbSymbolTableRecord
100
AcDbLinetypeTableRecord
  2
JIS_09_50
 70
     0
  3
2SASEN50 ____________　__  __  _____________
 72
    65
 73
     6
 40
55.0
 49
50.0
 74
     0
 49
-1.2
 74
     0
 49
0.7
 74
     0
 49
-1.2
 74
     0
 49
0.7
 74
     0
 49
-1.2
 74
     0
  0
LTYPE
  5
A3
330
5
100
AcDbSymbolTableRecord
100
AcDbLinetypeTableRecord
  2
SXF_破線
 70
     0
  3
02 dashed -- -- -- -- -- --
 72
    65
 73
     2
 40
7.5
 49
6.0
 74
     0
 49
-1.5
 74
     0
  0
LTYPE
  5
A4
330
5
100
AcDbSymbolTableRecord
100
AcDbLinetypeTableRecord
  2
SXF_跳び破線
 70
     0
  3
03 dashed_spaced --  --  --  --
 72
    65
 73
     2
 40
12.0
 49
6.0
 74
     0
 49
-6.0
 74
     0
  0
LTYPE
  5
A5
330
5
100
AcDbSymbolTableRecord
100
AcDbLinetypeTableRecord
  2
SXF_一点長鎖線
 70
     0
  3
04 long_dashed_dotted ---- . ---- . ----
 72
    65
 73
     4
 40
15.25
 49
12.0
 74
     0
 49
-1.5
 74
     0
 49
0.25
 74
     0
 49
-1.5
 74
     0
  0
LTYPE
  5
A6
330
5
100
AcDbSymbolTableRecord
100
AcDbLinetypeTableRecord
  2
SXF_二点長鎖線
 70
     0
  3
05 long_dashed_double-dotted ---- . . ---- 
 72
    65
 73
     6
 40
17.0
 49
12.0
 74
     0
 49
-1.5
 74
     0
 49
0.25
 74
     0
 49
-1.5
 74
     0
 49
0.25
 74
     0
 49
-1.5
 74
     0
  0
LTYPE
  5
A7
330
5
100
AcDbSymbolTableRecord
100
AcDbLinetypeTableRecord
  2
SXF_三点長鎖線
 70
     0
  3
06 long_dashed_triplicate-dotted ---- ... ---- 
 72
    65
 73
     8
 40
18.75
 49
12.0
 74
     0
 49
-1.5
 74
     0
 49
0.25
 74
     0
 49
-1.5
 74
     0
 49
0.25
 74
     0
 49
-1.5
 74
     0
 49
0.25
 74
     0
 49
-1.5
 74
     0
  0
LTYPE
  5
A8
330
5
100
AcDbSymbolTableRecord
100
AcDbLinetypeTableRecord
  2
SXF_点線
 70
     0
  3
07 dotted . . . . . . . . . . . . 
 72
    65
 73
     2
 40
1.75
 49
0.25
 74
     0
 49
-1.5
 74
     0
  0
LTYPE
  5
A9
330
5
100
AcDbSymbolTableRecord
100
AcDbLinetypeTableRecord
  2
SXF_一点鎖線
 70
     0
  3
08 chain ---- - --- - --- - ---
 72
    65
 73
     4
 40
18.5
 49
12.0
 74
     0
 49
-1.5
 74
     0
 49
3.5
 74
     0
 49
-1.5
 74
     0
  0
LTYPE
  5
AA
330
5
100
AcDbSymbolTableRecord
100
AcDbLinetypeTableRecord
  2
SXF_二点鎖線
 70
     0
  3
09 chain_double_dash ---- - - ---- - - ----
 72
    65
 73
     6
 40
23.5
 49
12.0
 74
     0
 49
-1.5
 74
     0
 49
3.5
 74
     0
 49
-1.5
 74
     0
 49
3.5
 74
     0
 49
-1.5
 74
     0
  0
LTYPE
  5
AB
330
5
100
AcDbSymbolTableRecord
100
AcDbLinetypeTableRecord
  2
SXF_一点短鎖線
 70
     0
  3
10 dashed_dotted -- . -- . -- . --
 72
    65
 73
     4
 40
9.25
 49
6.0
 74
     0
 49
-1.5
 74
     0
 49
0.25
 74
     0
 49
-1.5
 74
     0
  0
LTYPE
  5
AC
330
5
100
AcDbSymbolTableRecord
100
AcDbLinetypeTableRecord
  2
SXF_一点二短鎖線
 70
     0
  3
11 double-dashed_dotted -- -- . -- --
 72
    65
 73
     6
 40
16.75
 49
6.0
 74
     0
 49
-1.5
 74
     0
 49
6.0
 74
     0
 49
-1.5
 74
     0
 49
0.25
 74
     0
 49
-1.5
 74
     0
  0
LTYPE
  5
AD
330
5
100
AcDbSymbolTableRecord
100
AcDbLinetypeTableRecord
  2
SXF_二点短鎖線
 70
     0
  3
12 dashed_double_dotted -- . . -- . . --
 72
    65
 73
     6
 40
11.0
 49
6.0
 74
     0
 49
-1.5
 74
     0
 49
0.25
 74
     0
 49
-1.5
 74
     0
 49
0.25
 74
     0
 49
-1.5
 74
     0
  0
LTYPE
  5
AE
330
5
100
AcDbSymbolTableRecord
100
AcDbLinetypeTableRecord
  2
SXF_二点二短鎖線
 70
     0
  3
13 double-dashed_double-dotted -- -- . . -- --
 72
    65
 73
     8
 40
18.5
 49
6.0
 74
     0
 49
-1.5
 74
     0
 49
6.0
 74
     0
 49
-1.5
 74
     0
 49
0.25
 74
     0
 49
-1.5
 74
     0
 49
0.25
 74
     0
 49
-1.5
 74
     0
  0
LTYPE
  5
AF
330
5
100
AcDbSymbolTableRecord
100
AcDbLinetypeTableRecord
  2
SXF_三点短鎖線
 70
     0
  3
14 dashed triplicate-dotted -- . . . -- . . . --
 72
    65
 73
     8
 40
12.75
 49
6.0
 74
     0
 49
-1.5
 74
     0
 49
0.25
 74
     0
 49
-1.5
 74
     0
 49
0.25
 74
     0
 49
-1.5
 74
     0
 49
0.25
 74
     0
 49
-1.5
 74
     0
  0
LTYPE
  5
B0
330
5
100
AcDbSymbolTableRecord
100
AcDbLinetypeTableRecord
  2
SXF_三点二短鎖線
 70
     0
  3
15 double-dashed triplicate-dotted -- -- . . . -- -- 
 72
    65
 73
    10
 40
20.25
 49
6.0
 74
     0
 49
-1.5
 74
     0
 49
6.0
 74
     0
 49
-1.5
 74
     0
 49
0.25
 74
     0
 49
-1.5
 74
     0
 49
0.25
 74
     0
 49
-1.5
 74
     0
 49
0.25
 74
     0
 49
-1.5
 74
     0
  0
ENDTAB
  0
TABLE
  2
LAYER
  5
2
330
0
100
AcDbSymbolTable
 70
     1
  0
LAYER
  5
10
330
2
100
AcDbSymbolTableRecord
100
AcDbLayerTableRecord
  2
0
 70
     0
 62
     7
  6
Continuous
370
    -3
390
F
347
46
  0
ENDTAB
  0
TABLE
  2
STYLE
  5
3
330
0
100
AcDbSymbolTable
 70
     2
  0
STYLE
  5
11
330
3
100
AcDbSymbolTableRecord
100
AcDbTextStyleTableRecord
  2
Standard
 70
     0
 40
0.0
 41
1.0
 50
0.0
 71
     0
 42
0.2
  3
txt.shx
  4
bigfont.shx
  0
STYLE
  5
413
330
3
100
AcDbSymbolTableRecord
100
AcDbTextStyleTableRecord
  2
dcStyle0
 70
     0
 40
0.0
 41
0.8
 50
0.0
 71
     0
 42
0.2
  3
ＭＳ ゴシック
  4

1001
ACAD
1000
ＭＳ ゴシック
1071
    32802
  0
ENDTAB
  0
TABLE
  2
VIEW
  5
6
330
0
100
AcDbSymbolTable
 70
     0
  0
ENDTAB
  0
TABLE
  2
UCS
  5
7
330
0
100
AcDbSymbolTable
 70
     0
  0
ENDTAB
  0
TABLE
  2
APPID
  5
9
330
0
100
AcDbSymbolTable
 70
     2
  0
APPID
  5
12
330
9
100
AcDbSymbolTableRecord
100
AcDbRegAppTableRecord
  2
ACAD
 70
     0
  0
APPID
  5
6E
330
9
100
AcDbSymbolTableRecord
100
AcDbRegAppTableRecord
  2
DaFusionOut
 70
     0
  0
ENDTAB
  0
TABLE
  2
DIMSTYLE
  5
A
330
0
100
AcDbSymbolTable
 70
     1
100
AcDbDimStyleTable
  0
DIMSTYLE
105
27
330
A
100
AcDbSymbolTableRecord
100
AcDbDimStyleTableRecord
  2
Standard
 70
     0
178
     0
340
11
  0
ENDTAB
  0
TABLE
  2
BLOCK_RECORD
  5
1
330
0
100
AcDbSymbolTable
 70
    38
  0
BLOCK_RECORD
  5
1F
330
1
100
AcDbSymbolTableRecord
100
AcDbBlockTableRecord
  2
*Model_Space
340
22
 70
     0
280
     1
281
     0
  0
BLOCK_RECORD
  5
1B
330
1
100
AcDbSymbolTableRecord
100
AcDbBlockTableRecord
  2
*Paper_Space
340
1E
 70
     0
280
     1
281
     0
  0
BLOCK_RECORD
  5
23
330
1
100
AcDbSymbolTableRecord
100
AcDbBlockTableRecord
  2
*Paper_Space0
340
26
 70
     0
280
     1
281
     0
  0
BLOCK_RECORD
  5
B2
330
1
100
AcDbSymbolTableRecord
100
AcDbBlockTableRecord
  2
DC_GROUP_ESB-115T_1
340
0
102
{BLKREFS
331
41E
102
}
 70
     0
280
     1
281
     0
  0
BLOCK_RECORD
  5
B5
330
1
100
AcDbSymbolTableRecord
100
AcDbBlockTableRecord
  2
DC_GROUP_ESB-115T_2
340
0
102
{BLKREFS
331
41F
102
}
 70
     0
280
     1
281
     0
  0
BLOCK_RECORD
  5
B8
330
1
100
AcDbSymbolTableRecord
100
AcDbBlockTableRecord
  2
DC_GROUP_ESB-115T_3
340
0
102
{BLKREFS
331
420
102
}
 70
     0
280
     1
281
     0
  0
BLOCK_RECORD
  5
BB
330
1
100
AcDbSymbolTableRecord
100
AcDbBlockTableRecord
  2
DC_GROUP_ESB-115T_4
340
0
102
{BLKREFS
331
421
102
}
 70
     0
280
     1
281
     0
  0
BLOCK_RECORD
  5
BE
330
1
100
AcDbSymbolTableRecord
100
AcDbBlockTableRecord
  2
DC_GROUP_ESB-115T_5
340
0
102
{BLKREFS
331
422
102
}
 70
     0
280
     1
281
     0
  0
BLOCK_RECORD
  5
C1
330
1
100
AcDbSymbolTableRecord
100
AcDbBlockTableRecord
  2
DC_GROUP_ESB-115T_6
340
0
102
{BLKREFS
331
423
102
}
 70
     0
280
     1
281
     0
  0
BLOCK_RECORD
  5
C4
330
1
100
AcDbSymbolTableRecord
100
AcDbBlockTableRecord
  2
DC_GROUP_ESB-115T_7
340
0
102
{BLKREFS
331
424
102
}
 70
     0
280
     1
281
     0
  0
BLOCK_RECORD
  5
C7
330
1
100
AcDbSymbolTableRecord
100
AcDbBlockTableRecord
  2
DC_GROUP_ESB-115T_8
340
0
102
{BLKREFS
331
425
102
}
 70
     0
280
     1
281
     0
  0
BLOCK_RECORD
  5
CA
330
1
100
AcDbSymbolTableRecord
100
AcDbBlockTableRecord
  2
DC_GROUP_ESB-115T_9
340
0
102
{BLKREFS
331
426
102
}
 70
     0
280
     1
281
     0
  0
BLOCK_RECORD
  5
CD
330
1
100
AcDbSymbolTableRecord
100
AcDbBlockTableRecord
  2
DC_GROUP_ESB-115T_10
340
0
102
{BLKREFS
331
427
102
}
 70
     0
280
     1
281
     0
  0
BLOCK_RECORD
  5
D0
330
1
100
AcDbSymbolTableRecord
100
AcDbBlockTableRecord
  2
DC_GROUP_ESB-115T_11
340
0
102
{BLKREFS
331
428
102
}
 70
     0
280
     1
281
     0
  0
BLOCK_RECORD
  5
D3
330
1
100
AcDbSymbolTableRecord
100
AcDbBlockTableRecord
  2
DC_GROUP_ESB-115T_12
340
0
102
{BLKREFS
331
429
102
}
 70
     0
280
     1
281
     0
  0
BLOCK_RECORD
  5
D6
330
1
100
AcDbSymbolTableRecord
100
AcDbBlockTableRecord
  2
DC_GROUP_ESB-115T_13
340
0
102
{BLKREFS
331
42A
102
}
 70
     0
280
     1
281
     0
  0
BLOCK_RECORD
  5
D9
330
1
100
AcDbSymbolTableRecord
100
AcDbBlockTableRecord
  2
DC_GROUP_ESB-115T_14
340
0
102
{BLKREFS
331
42B
102
}
 70
     0
280
     1
281
     0
  0
BLOCK_RECORD
  5
DC
330
1
100
AcDbSymbolTableRecord
100
AcDbBlockTableRecord
  2
DC_GROUP_ESB-115T_15
340
0
102
{BLKREFS
331
42C
102
}
 70
     0
280
     1
281
     0
  0
BLOCK_RECORD
  5
DF
330
1
100
AcDbSymbolTableRecord
100
AcDbBlockTableRecord
  2
DC_GROUP_ESB-115T_16
340
0
102
{BLKREFS
331
42D
102
}
 70
     0
280
     1
281
     0
  0
BLOCK_RECORD
  5
E2
330
1
100
AcDbSymbolTableRecord
100
AcDbBlockTableRecord
  2
DC_GROUP_ESB-115T_17
340
0
102
{BLKREFS
331
42E
102
}
 70
     0
280
     1
281
     0
  0
BLOCK_RECORD
  5
E5
330
1
100
AcDbSymbolTableRecord
100
AcDbBlockTableRecord
  2
DC_GROUP_ESB-115T_18
340
0
102
{BLKREFS
331
42F
102
}
 70
     0
280
     1
281
     0
  0
BLOCK_RECORD
  5
E8
330
1
100
AcDbSymbolTableRecord
100
AcDbBlockTableRecord
  2
DC_GROUP_ESB-115T_19
340
0
102
{BLKREFS
331
430
102
}
 70
     0
280
     1
281
     0
  0
BLOCK_RECORD
  5
EB
330
1
100
AcDbSymbolTableRecord
100
AcDbBlockTableRecord
  2
DC_GROUP_ESB-115T_20
340
0
102
{BLKREFS
331
431
102
}
 70
     0
280
     1
281
     0
  0
BLOCK_RECORD
  5
EE
330
1
100
AcDbSymbolTableRecord
100
AcDbBlockTableRecord
  2
DC_GROUP_ESB-115T_21
340
0
102
{BLKREFS
331
432
102
}
 70
     0
280
     1
281
     0
  0
BLOCK_RECORD
  5
F1
330
1
100
AcDbSymbolTableRecord
100
AcDbBlockTableRecord
  2
DC_GROUP_ESB-115T_22
340
0
102
{BLKREFS
331
433
102
}
 70
     0
280
     1
281
     0
  0
BLOCK_RECORD
  5
F4
330
1
100
AcDbSymbolTableRecord
100
AcDbBlockTableRecord
  2
DC_GROUP_ESB-115T_23
340
0
102
{BLKREFS
331
434
102
}
 70
     0
280
     1
281
     0
  0
BLOCK_RECORD
  5
F7
330
1
100
AcDbSymbolTableRecord
100
AcDbBlockTableRecord
  2
DC_GROUP_ESB-115T_24
340
0
102
{BLKREFS
331
435
102
}
 70
     0
280
     1
281
     0
  0
BLOCK_RECORD
  5
FA
330
1
100
AcDbSymbolTableRecord
100
AcDbBlockTableRecord
  2
DC_GROUP_ESB-115T_25
340
0
102
{BLKREFS
331
436
102
}
 70
     0
280
     1
281
     0
  0
BLOCK_RECORD
  5
FD
330
1
100
AcDbSymbolTableRecord
100
AcDbBlockTableRecord
  2
DC_GROUP_ESB-115T_26
340
0
102
{BLKREFS
331
437
102
}
 70
     0
280
     1
281
     0
  0
BLOCK_RECORD
  5
100
330
1
100
AcDbSymbolTableRecord
100
AcDbBlockTableRecord
  2
DC_GROUP_ESB-115T_27
340
0
102
{BLKREFS
331
438
102
}
 70
     0
280
     1
281
     0
  0
BLOCK_RECORD
  5
103
330
1
100
AcDbSymbolTableRecord
100
AcDbBlockTableRecord
  2
DC_GROUP_ESB-115T_28
340
0
102
{BLKREFS
331
439
102
}
 70
     0
280
     1
281
     0
  0
BLOCK_RECORD
  5
106
330
1
100
AcDbSymbolTableRecord
100
AcDbBlockTableRecord
  2
DC_GROUP_ESB-115T_29
340
0
102
{BLKREFS
331
43A
102
}
 70
     0
280
     1
281
     0
  0
BLOCK_RECORD
  5
109
330
1
100
AcDbSymbolTableRecord
100
AcDbBlockTableRecord
  2
DC_GROUP_ESB-115T_30
340
0
102
{BLKREFS
331
43B
102
}
 70
     0
280
     1
281
     0
  0
BLOCK_RECORD
  5
10C
330
1
100
AcDbSymbolTableRecord
100
AcDbBlockTableRecord
  2
DC_GROUP_ESB-115T_31
340
0
102
{BLKREFS
331
43C
102
}
 70
     0
280
     1
281
     0
  0
BLOCK_RECORD
  5
10F
330
1
100
AcDbSymbolTableRecord
100
AcDbBlockTableRecord
  2
DC_GROUP_ESB-115T_32
340
0
102
{BLKREFS
331
293
102
}
 70
     0
280
     1
281
     0
  0
BLOCK_RECORD
  5
112
330
1
100
AcDbSymbolTableRecord
100
AcDbBlockTableRecord
  2
DC_GROUP_ESB-115T_33
340
0
102
{BLKREFS
331
43D
102
}
 70
     0
280
     1
281
     0
  0
BLOCK_RECORD
  5
115
330
1
100
AcDbSymbolTableRecord
100
AcDbBlockTableRecord
  2
DC_GROUP_ESB-115T_34
340
0
102
{BLKREFS
331
43E
102
}
 70
     0
280
     1
281
     0
  0
BLOCK_RECORD
  5
118
330
1
100
AcDbSymbolTableRecord
100
AcDbBlockTableRecord
  2
DC_GROUP_ESB-115T_35
340
0
102
{BLKREFS
331
43F
102
}
 70
     0
280
     1
281
     0
  0
BLOCK_RECORD
  5
11B
330
1
100
AcDbSymbolTableRecord
100
AcDbBlockTableRecord
  2
DC_GROUP_ESB-115T_36
340
0
102
{BLKREFS
331
440
102
}
 70
     0
280
     1
281
     0
  0
BLOCK_RECORD
  5
11E
330
1
100
AcDbSymbolTableRecord
100
AcDbBlockTableRecord
  2
DC_GROUP_ESB-115T_37
340
0
102
{BLKREFS
331
441
102
}
 70
     0
280
     1
281
     0
  0
ENDTAB
  0
ENDSEC
  0
SECTION
  2
BLOCKS
  0
BLOCK
  5
20
330
1F
100
AcDbEntity
  8
0
100
AcDbBlockBegin
  2
*Model_Space
 70
     0
 10
0.0
 20
0.0
 30
0.0
  3
*Model_Space
  1

  0
ENDBLK
  5
21
330
1F
100
AcDbEntity
  8
0
100
AcDbBlockEnd
  0
BLOCK
  5
1C
330
1B
100
AcDbEntity
 67
     1
  8
0
100
AcDbBlockBegin
  2
*Paper_Space
 70
     0
 10
0.0
 20
0.0
 30
0.0
  3
*Paper_Space
  1

  0
ENDBLK
  5
1D
330
1B
100
AcDbEntity
 67
     1
  8
0
100
AcDbBlockEnd
  0
BLOCK
  5
24
330
23
100
AcDbEntity
  8
0
100
AcDbBlockBegin
  2
*Paper_Space0
 70
     0
 10
0.0
 20
0.0
 30
0.0
  3
*Paper_Space0
  1

  0
ENDBLK
  5
25
330
23
100
AcDbEntity
  8
0
100
AcDbBlockEnd
  0
BLOCK
  5
B3
330
B2
100
AcDbEntity
  8
0
100
AcDbBlockBegin
  2
DC_GROUP_ESB-115T_1
 70
     0
 10
0.0
 20
0.0
 30
0.0
  3
DC_GROUP_ESB-115T_1
  1

  0
LINE
  5
121
330
B2
100
AcDbEntity
  8
0
  6
Continuous
 62
    91
370
    18
100
AcDbLine
 10
-130.1006591861811
 20
36.05672968596332
 30
0.0
 11
-132.1006582536808
 21
34.90202968596333
 31
0.0
  0
LINE
  5
122
330
B2
100
AcDbEntity
  8
0
  6
Continuous
 62
    91
370
    18
100
AcDbLine
 10
-132.1006582536808
 20
34.90202968596333
 30
0.0
 11
-132.1006582536808
 21
32.59262968596336
 31
0.0
  0
LINE
  5
123
330
B2
100
AcDbEntity
  8
0
  6
Continuous
 62
    91
370
    18
100
AcDbLine
 10
-132.1006582536808
 20
32.59262968596336
 30
0.0
 11
-130.1006591861811
 21
31.43792968596333
 31
0.0
  0
LINE
  5
124
330
B2
100
AcDbEntity
  8
0
  6
Continuous
 62
    91
370
    18
100
AcDbLine
 10
-130.1006591861811
 20
31.43792968596333
 30
0.0
 11
-128.1006601186813
 21
32.5926296859633
 31
0.0
  0
LINE
  5
125
330
B2
100
AcDbEntity
  8
0
  6
Continuous
 62
    91
370
    18
100
AcDbLine
 10
-128.1006601186813
 20
32.5926296859633
 30
0.0
 11
-128.1006601186813
 21
34.90202968596331
 31
0.0
  0
LINE
  5
126
330
B2
100
AcDbEntity
  8
0
  6
Continuous
 62
    91
370
    18
100
AcDbLine
 10
-128.1006601186813
 20
34.90202968596331
 30
0.0
 11
-130.1006591861811
 21
36.05672968596332
 31
0.0
  0
CIRCLE
  5
127
330
B2
100
AcDbEntity
  8
0
  6
Continuous
 62
    91
370
    18
100
AcDbCircle
 10
-130.1006591861811
 20
33.74732968596331
 30
0.0
 40
4.25
  0
CIRCLE
  5
128
330
B2
100
AcDbEntity
  8
0
  6
Continuous
 62
    91
370
    18
100
AcDbCircle
 10
-130.1006591861811
 20
33.74732968596331
 30
0.0
 40
3.730384515458561
  0
ENDBLK
  5
B4
330
B2
100
AcDbEntity
  8
0
100
AcDbBlockEnd
  0
BLOCK
  5
B6
330
B5
100
AcDbEntity
  8
0
100
AcDbBlockBegin
  2
DC_GROUP_ESB-115T_2
 70
     0
 10
0.0
 20
0.0
 30
0.0
  3
DC_GROUP_ESB-115T_2
  1

  0
LINE
  5
129
330
B5
100
AcDbEntity
  8
0
  6
Continuous
 62
    91
370
    18
100
AcDbLine
 10
-156.2554922205609
 20
29.04856329623045
 30
0.0
 11
-157.4101922205608
 21
27.04856422873068
 31
0.0
  0
LINE
  5
12A
330
B5
100
AcDbEntity
  8
0
  6
Continuous
 62
    91
370
    18
100
AcDbLine
 10
-157.4101922205608
 20
27.04856422873068
 30
0.0
 11
-156.2554922205608
 21
25.04856516123091
 31
0.0
  0
LINE
  5
12B
330
B5
100
AcDbEntity
  8
0
  6
Continuous
 62
    91
370
    18
100
AcDbLine
 10
-156.2554922205608
 20
25.04856516123091
 30
0.0
 11
-153.9460922205608
 21
25.0485651612309
 31
0.0
  0
LINE
  5
12C
330
B5
100
AcDbEntity
  8
0
  6
Continuous
 62
    91
370
    18
100
AcDbLine
 10
-153.9460922205608
 20
25.0485651612309
 30
0.0
 11
-152.7913922205608
 21
27.04856422873065
 31
0.0
  0
LINE
  5
12D
330
B5
100
AcDbEntity
  8
0
  6
Continuous
 62
    91
370
    18
100
AcDbLine
 10
-152.7913922205608
 20
27.04856422873065
 30
0.0
 11
-153.9460922205608
 21
29.04856329623041
 31
0.0
  0
LINE
  5
12E
330
B5
100
AcDbEntity
  8
0
  6
Continuous
 62
    91
370
    18
100
AcDbLine
 10
-153.9460922205608
 20
29.04856329623041
 30
0.0
 11
-156.2554922205609
 21
29.04856329623045
 31
0.0
  0
CIRCLE
  5
12F
330
B5
100
AcDbEntity
  8
0
  6
Continuous
 62
    91
370
    18
100
AcDbCircle
 10
-155.1007922205607
 20
27.04856422873065
 30
0.0
 40
4.25
  0
CIRCLE
  5
130
330
B5
100
AcDbEntity
  8
0
  6
Continuous
 62
    91
370
    18
100
AcDbCircle
 10
-155.1007922205607
 20
27.04856422873065
 30
0.0
 40
3.730384515458561
  0
ENDBLK
  5
B7
330
B5
100
AcDbEntity
  8
0
100
AcDbBlockEnd
  0
BLOCK
  5
B9
330
B8
100
AcDbEntity
  8
0
100
AcDbBlockBegin
  2
DC_GROUP_ESB-115T_3
 70
     0
 10
0.0
 20
0.0
 30
0.0
  3
DC_GROUP_ESB-115T_3
  1

  0
LINE
  5
131
330
B8
100
AcDbEntity
  8
0
  6
Continuous
 62
    91
370
    18
100
AcDbLine
 10
-175.4021588652076
 20
9.901896651583677
 30
0.0
 11
-175.4021588652076
 21
7.592496651583652
 31
0.0
  0
LINE
  5
132
330
B8
100
AcDbEntity
  8
0
  6
Continuous
 62
    91
370
    18
100
AcDbLine
 10
-175.4021588652076
 20
7.592496651583652
 30
0.0
 11
-173.4021597977079
 21
6.437796651583668
 31
0.0
  0
LINE
  5
133
330
B8
100
AcDbEntity
  8
0
  6
Continuous
 62
    91
370
    18
100
AcDbLine
 10
-173.4021597977079
 20
6.437796651583668
 30
0.0
 11
-171.4021607302081
 21
7.592496651583666
 31
0.0
  0
LINE
  5
134
330
B8
100
AcDbEntity
  8
0
  6
Continuous
 62
    91
370
    18
100
AcDbLine
 10
-171.4021607302081
 20
7.592496651583666
 30
0.0
 11
-171.4021607302081
 21
9.901896651583634
 31
0.0
  0
LINE
  5
135
330
B8
100
AcDbEntity
  8
0
  6
Continuous
 62
    91
370
    18
100
AcDbLine
 10
-171.4021607302081
 20
9.901896651583634
 30
0.0
 11
-173.4021597977079
 21
11.05659665158363
 31
0.0
  0
LINE
  5
136
330
B8
100
AcDbEntity
  8
0
  6
Continuous
 62
    91
370
    18
100
AcDbLine
 10
-173.4021597977079
 20
11.05659665158363
 30
0.0
 11
-175.4021588652076
 21
9.901896651583677
 31
0.0
  0
CIRCLE
  5
137
330
B8
100
AcDbEntity
  8
0
  6
Continuous
 62
    91
370
    18
100
AcDbCircle
 10
-173.4021597977078
 20
8.747196651583629
 30
0.0
 40
4.25
  0
CIRCLE
  5
138
330
B8
100
AcDbEntity
  8
0
  6
Continuous
 62
    91
370
    18
100
AcDbCircle
 10
-173.4021597977078
 20
8.747196651583629
 30
0.0
 40
3.730384515458561
  0
ENDBLK
  5
BA
330
B8
100
AcDbEntity
  8
0
100
AcDbBlockEnd
  0
BLOCK
  5
BC
330
BB
100
AcDbEntity
  8
0
100
AcDbBlockBegin
  2
DC_GROUP_ESB-115T_4
 70
     0
 10
0.0
 20
0.0
 30
0.0
  3
DC_GROUP_ESB-115T_4
  1

  0
LINE
  5
139
330
BB
100
AcDbEntity
  8
0
  6
Continuous
 62
    91
370
    18
100
AcDbLine
 10
-182.4103252549405
 20
-16.25293638279604
 30
0.0
 11
-181.2556252549406
 21
-18.2529354502958
 31
0.0
  0
LINE
  5
13A
330
BB
100
AcDbEntity
  8
0
  6
Continuous
 62
    91
370
    18
100
AcDbLine
 10
-181.2556252549406
 20
-18.2529354502958
 30
0.0
 11
-178.9462252549405
 21
-18.25293545029578
 31
0.0
  0
LINE
  5
13B
330
BB
100
AcDbEntity
  8
0
  6
Continuous
 62
    91
370
    18
100
AcDbLine
 10
-178.9462252549405
 20
-18.25293545029578
 30
0.0
 11
-177.7915252549405
 21
-16.25293638279603
 31
0.0
  0
LINE
  5
13C
330
BB
100
AcDbEntity
  8
0
  6
Continuous
 62
    91
370
    18
100
AcDbLine
 10
-177.7915252549405
 20
-16.25293638279603
 30
0.0
 11
-178.9462252549406
 21
-14.25293731529626
 31
0.0
  0
LINE
  5
13D
330
BB
100
AcDbEntity
  8
0
  6
Continuous
 62
    91
370
    18
100
AcDbLine
 10
-178.9462252549406
 20
-14.25293731529626
 30
0.0
 11
-181.2556252549405
 21
-14.25293731529626
 31
0.0
  0
LINE
  5
13E
330
BB
100
AcDbEntity
  8
0
  6
Continuous
 62
    91
370
    18
100
AcDbLine
 10
-181.2556252549405
 20
-14.25293731529626
 30
0.0
 11
-182.4103252549405
 21
-16.25293638279604
 31
0.0
  0
CIRCLE
  5
13F
330
BB
100
AcDbEntity
  8
0
  6
Continuous
 62
    91
370
    18
100
AcDbCircle
 10
-180.1009252549404
 20
-16.25293638279609
 30
0.0
 40
4.25
  0
CIRCLE
  5
140
330
BB
100
AcDbEntity
  8
0
  6
Continuous
 62
    91
370
    18
100
AcDbCircle
 10
-180.1009252549404
 20
-16.25293638279609
 30
0.0
 40
3.730384515458561
  0
ENDBLK
  5
BD
330
BB
100
AcDbEntity
  8
0
100
AcDbBlockEnd
  0
BLOCK
  5
BF
330
BE
100
AcDbEntity
  8
0
100
AcDbBlockBegin
  2
DC_GROUP_ESB-115T_5
 70
     0
 10
0.0
 20
0.0
 30
0.0
  3
DC_GROUP_ESB-115T_5
  1

  0
LINE
  5
141
330
BE
100
AcDbEntity
  8
0
  6
Continuous
 62
    91
370
    18
100
AcDbLine
 10
-175.4021588652077
 20
-42.40776941717576
 30
0.0
 11
-173.4021597977079
 21
-43.56246941717571
 31
0.0
  0
LINE
  5
142
330
BE
100
AcDbEntity
  8
0
  6
Continuous
 62
    91
370
    18
100
AcDbLine
 10
-173.4021597977079
 20
-43.56246941717571
 30
0.0
 11
-171.4021607302081
 21
-42.4077694171757
 31
0.0
  0
LINE
  5
143
330
BE
100
AcDbEntity
  8
0
  6
Continuous
 62
    91
370
    18
100
AcDbLine
 10
-171.4021607302081
 20
-42.4077694171757
 30
0.0
 11
-171.402160730208
 21
-40.09836941717575
 31
0.0
  0
LINE
  5
144
330
BE
100
AcDbEntity
  8
0
  6
Continuous
 62
    91
370
    18
100
AcDbLine
 10
-171.402160730208
 20
-40.09836941717575
 30
0.0
 11
-173.4021597977079
 21
-38.94366941717573
 31
0.0
  0
LINE
  5
145
330
BE
100
AcDbEntity
  8
0
  6
Continuous
 62
    91
370
    18
100
AcDbLine
 10
-173.4021597977079
 20
-38.94366941717573
 30
0.0
 11
-175.4021588652076
 21
-40.09836941717573
 31
0.0
  0
LINE
  5
146
330
BE
100
AcDbEntity
  8
0
  6
Continuous
 62
    91
370
    18
100
AcDbLine
 10
-175.4021588652076
 20
-40.09836941717573
 30
0.0
 11
-175.4021588652077
 21
-42.40776941717576
 31
0.0
  0
CIRCLE
  5
147
330
BE
100
AcDbEntity
  8
0
  6
Continuous
 62
    91
370
    18
100
AcDbCircle
 10
-173.4021597977078
 20
-41.25306941717575
 30
0.0
 40
4.25
  0
CIRCLE
  5
148
330
BE
100
AcDbEntity
  8
0
  6
Continuous
 62
    91
370
    18
100
AcDbCircle
 10
-173.4021597977078
 20
-41.25306941717575
 30
0.0
 40
3.730384515458561
  0
ENDBLK
  5
C0
330
BE
100
AcDbEntity
  8
0
100
AcDbBlockEnd
  0
BLOCK
  5
C2
330
C1
100
AcDbEntity
  8
0
100
AcDbBlockBegin
  2
DC_GROUP_ESB-115T_6
 70
     0
 10
0.0
 20
0.0
 30
0.0
  3
DC_GROUP_ESB-115T_6
  1

  0
LINE
  5
149
330
C1
100
AcDbEntity
  8
0
  6
Continuous
 62
    91
370
    18
100
AcDbLine
 10
-156.2554922205609
 20
-61.55443606182256
 30
0.0
 11
-153.9460922205608
 21
-61.55443606182254
 31
0.0
  0
LINE
  5
14A
330
C1
100
AcDbEntity
  8
0
  6
Continuous
 62
    91
370
    18
100
AcDbLine
 10
-153.9460922205608
 20
-61.55443606182254
 30
0.0
 11
-152.791392220561
 21
-59.55443699432277
 31
0.0
  0
LINE
  5
14B
330
C1
100
AcDbEntity
  8
0
  6
Continuous
 62
    91
370
    18
100
AcDbLine
 10
-152.791392220561
 20
-59.55443699432277
 30
0.0
 11
-153.9460922205609
 21
-57.55443792682299
 31
0.0
  0
LINE
  5
14C
330
C1
100
AcDbEntity
  8
0
  6
Continuous
 62
    91
370
    18
100
AcDbLine
 10
-153.9460922205609
 20
-57.55443792682299
 30
0.0
 11
-156.2554922205609
 21
-57.55443792682296
 31
0.0
  0
LINE
  5
14D
330
C1
100
AcDbEntity
  8
0
  6
Continuous
 62
    91
370
    18
100
AcDbLine
 10
-156.2554922205609
 20
-57.55443792682296
 30
0.0
 11
-157.4101922205609
 21
-59.55443699432273
 31
0.0
  0
LINE
  5
14E
330
C1
100
AcDbEntity
  8
0
  6
Continuous
 62
    91
370
    18
100
AcDbLine
 10
-157.4101922205609
 20
-59.55443699432273
 30
0.0
 11
-156.2554922205609
 21
-61.55443606182256
 31
0.0
  0
CIRCLE
  5
14F
330
C1
100
AcDbEntity
  8
0
  6
Continuous
 62
    91
370
    18
100
AcDbCircle
 10
-155.1007922205609
 20
-59.55443699432278
 30
0.0
 40
4.25
  0
CIRCLE
  5
150
330
C1
100
AcDbEntity
  8
0
  6
Continuous
 62
    91
370
    18
100
AcDbCircle
 10
-155.1007922205609
 20
-59.55443699432278
 30
0.0
 40
3.730384515458561
  0
ENDBLK
  5
C3
330
C1
100
AcDbEntity
  8
0
100
AcDbBlockEnd
  0
BLOCK
  5
C5
330
C4
100
AcDbEntity
  8
0
100
AcDbBlockBegin
  2
DC_GROUP_ESB-115T_7
 70
     0
 10
0.0
 20
0.0
 30
0.0
  3
DC_GROUP_ESB-115T_7
  1

  0
LINE
  5
151
330
C4
100
AcDbEntity
  8
0
  6
Continuous
 62
    91
370
    18
100
AcDbLine
 10
-130.1006591861812
 20
-68.56260245155548
 30
0.0
 11
-128.1006601186814
 21
-67.40790245155546
 31
0.0
  0
LINE
  5
152
330
C4
100
AcDbEntity
  8
0
  6
Continuous
 62
    91
370
    18
100
AcDbLine
 10
-128.1006601186814
 20
-67.40790245155546
 30
0.0
 11
-128.1006601186814
 21
-65.09850245155549
 31
0.0
  0
LINE
  5
153
330
C4
100
AcDbEntity
  8
0
  6
Continuous
 62
    91
370
    18
100
AcDbLine
 10
-128.1006601186814
 20
-65.09850245155549
 30
0.0
 11
-130.1006591861811
 21
-63.94380245155544
 31
0.0
  0
LINE
  5
154
330
C4
100
AcDbEntity
  8
0
  6
Continuous
 62
    91
370
    18
100
AcDbLine
 10
-130.1006591861811
 20
-63.94380245155544
 30
0.0
 11
-132.100658253681
 21
-65.09850245155546
 31
0.0
  0
LINE
  5
155
330
C4
100
AcDbEntity
  8
0
  6
Continuous
 62
    91
370
    18
100
AcDbLine
 10
-132.100658253681
 20
-65.09850245155546
 30
0.0
 11
-132.1006582536808
 21
-67.40790245155543
 31
0.0
  0
LINE
  5
156
330
C4
100
AcDbEntity
  8
0
  6
Continuous
 62
    91
370
    18
100
AcDbLine
 10
-132.1006582536808
 20
-67.40790245155543
 30
0.0
 11
-130.1006591861812
 21
-68.56260245155548
 31
0.0
  0
CIRCLE
  5
157
330
C4
100
AcDbEntity
  8
0
  6
Continuous
 62
    91
370
    18
100
AcDbCircle
 10
-130.1006591861811
 20
-66.25320245155542
 30
0.0
 40
4.25
  0
CIRCLE
  5
158
330
C4
100
AcDbEntity
  8
0
  6
Continuous
 62
    91
370
    18
100
AcDbCircle
 10
-130.1006591861811
 20
-66.25320245155542
 30
0.0
 40
3.730384515458561
  0
ENDBLK
  5
C6
330
C4
100
AcDbEntity
  8
0
100
AcDbBlockEnd
  0
BLOCK
  5
C8
330
C7
100
AcDbEntity
  8
0
100
AcDbBlockBegin
  2
DC_GROUP_ESB-115T_8
 70
     0
 10
0.0
 20
0.0
 30
0.0
  3
DC_GROUP_ESB-115T_8
  1

  0
LINE
  5
159
330
C7
100
AcDbEntity
  8
0
  6
Continuous
 62
    91
370
    18
100
AcDbLine
 10
-103.9458261518014
 20
-61.55443606182261
 30
0.0
 11
-102.7911261518014
 21
-59.55443699432283
 31
0.0
  0
LINE
  5
15A
330
C7
100
AcDbEntity
  8
0
  6
Continuous
 62
    91
370
    18
100
AcDbLine
 10
-102.7911261518014
 20
-59.55443699432283
 30
0.0
 11
-103.9458261518015
 21
-57.55443792682306
 31
0.0
  0
LINE
  5
15B
330
C7
100
AcDbEntity
  8
0
  6
Continuous
 62
    91
370
    18
100
AcDbLine
 10
-103.9458261518015
 20
-57.55443792682306
 30
0.0
 11
-106.2552261518015
 21
-57.554437926823
 31
0.0
  0
LINE
  5
15C
330
C7
100
AcDbEntity
  8
0
  6
Continuous
 62
    91
370
    18
100
AcDbLine
 10
-106.2552261518015
 20
-57.554437926823
 30
0.0
 11
-107.4099261518014
 21
-59.55443699432277
 31
0.0
  0
LINE
  5
15D
330
C7
100
AcDbEntity
  8
0
  6
Continuous
 62
    91
370
    18
100
AcDbLine
 10
-107.4099261518014
 20
-59.55443699432277
 30
0.0
 11
-106.2552261518015
 21
-61.55443606182254
 31
0.0
  0
LINE
  5
15E
330
C7
100
AcDbEntity
  8
0
  6
Continuous
 62
    91
370
    18
100
AcDbLine
 10
-106.2552261518015
 20
-61.55443606182254
 30
0.0
 11
-103.9458261518014
 21
-61.55443606182261
 31
0.0
  0
CIRCLE
  5
15F
330
C7
100
AcDbEntity
  8
0
  6
Continuous
 62
    91
370
    18
100
AcDbCircle
 10
-105.1005261518014
 20
-59.5544369943228
 30
0.0
 40
4.25
  0
CIRCLE
  5
160
330
C7
100
AcDbEntity
  8
0
  6
Continuous
 62
    91
370
    18
100
AcDbCircle
 10
-105.1005261518014
 20
-59.5544369943228
 30
0.0
 40
3.730384515458561
  0
ENDBLK
  5
C9
330
C7
100
AcDbEntity
  8
0
100
AcDbBlockEnd
  0
BLOCK
  5
CB
330
CA
100
AcDbEntity
  8
0
100
AcDbBlockBegin
  2
DC_GROUP_ESB-115T_9
 70
     0
 10
0.0
 20
0.0
 30
0.0
  3
DC_GROUP_ESB-115T_9
  1

  0
LINE
  5
161
330
CA
100
AcDbEntity
  8
0
  6
Continuous
 62
    91
370
    18
100
AcDbLine
 10
-84.79915950715458
 20
-42.40776941717579
 30
0.0
 11
-84.79915950715456
 21
-40.09836941717582
 31
0.0
  0
LINE
  5
162
330
CA
100
AcDbEntity
  8
0
  6
Continuous
 62
    91
370
    18
100
AcDbLine
 10
-84.79915950715456
 20
-40.09836941717582
 30
0.0
 11
-86.79915857465438
 21
-38.94366941717584
 31
0.0
  0
LINE
  5
163
330
CA
100
AcDbEntity
  8
0
  6
Continuous
 62
    91
370
    18
100
AcDbLine
 10
-86.79915857465438
 20
-38.94366941717584
 30
0.0
 11
-88.79915764215417
 21
-40.09836941717579
 31
0.0
  0
LINE
  5
164
330
CA
100
AcDbEntity
  8
0
  6
Continuous
 62
    91
370
    18
100
AcDbLine
 10
-88.79915764215417
 20
-40.09836941717579
 30
0.0
 11
-88.79915764215416
 21
-42.40776941717579
 31
0.0
  0
LINE
  5
165
330
CA
100
AcDbEntity
  8
0
  6
Continuous
 62
    91
370
    18
100
AcDbLine
 10
-88.79915764215416
 20
-42.40776941717579
 30
0.0
 11
-86.79915857465437
 21
-43.56246941717576
 31
0.0
  0
LINE
  5
166
330
CA
100
AcDbEntity
  8
0
  6
Continuous
 62
    91
370
    18
100
AcDbLine
 10
-86.79915857465437
 20
-43.56246941717576
 30
0.0
 11
-84.79915950715458
 21
-42.40776941717579
 31
0.0
  0
CIRCLE
  5
167
330
CA
100
AcDbEntity
  8
0
  6
Continuous
 62
    91
370
    18
100
AcDbCircle
 10
-86.79915857465441
 20
-41.25306941717579
 30
0.0
 40
4.25
  0
CIRCLE
  5
168
330
CA
100
AcDbEntity
  8
0
  6
Continuous
 62
    91
370
    18
100
AcDbCircle
 10
-86.79915857465441
 20
-41.25306941717579
 30
0.0
 40
3.730384515458561
  0
ENDBLK
  5
CC
330
CA
100
AcDbEntity
  8
0
100
AcDbBlockEnd
  0
BLOCK
  5
CE
330
CD
100
AcDbEntity
  8
0
100
AcDbBlockBegin
  2
DC_GROUP_ESB-115T_10
 70
     0
 10
0.0
 20
0.0
 30
0.0
  3
DC_GROUP_ESB-115T_10
  1

  0
LINE
  5
169
330
CD
100
AcDbEntity
  8
0
  6
Continuous
 62
    91
370
    18
100
AcDbLine
 10
-77.79099311742166
 20
-16.25293638279609
 30
0.0
 11
-78.9456931174217
 21
-14.25293731529636
 31
0.0
  0
LINE
  5
16A
330
CD
100
AcDbEntity
  8
0
  6
Continuous
 62
    91
370
    18
100
AcDbLine
 10
-78.9456931174217
 20
-14.25293731529636
 30
0.0
 11
-81.25509311742168
 21
-14.25293731529636
 31
0.0
  0
LINE
  5
16B
330
CD
100
AcDbEntity
  8
0
  6
Continuous
 62
    91
370
    18
100
AcDbLine
 10
-81.25509311742168
 20
-14.25293731529636
 30
0.0
 11
-82.4097931174217
 21
-16.25293638279611
 31
0.0
  0
LINE
  5
16C
330
CD
100
AcDbEntity
  8
0
  6
Continuous
 62
    91
370
    18
100
AcDbLine
 10
-82.4097931174217
 20
-16.25293638279611
 30
0.0
 11
-81.25509311742167
 21
-18.25293545029587
 31
0.0
  0
LINE
  5
16D
330
CD
100
AcDbEntity
  8
0
  6
Continuous
 62
    91
370
    18
100
AcDbLine
 10
-81.25509311742167
 20
-18.25293545029587
 30
0.0
 11
-78.94569311742174
 21
-18.25293545029587
 31
0.0
  0
LINE
  5
16E
330
CD
100
AcDbEntity
  8
0
  6
Continuous
 62
    91
370
    18
100
AcDbLine
 10
-78.94569311742174
 20
-18.25293545029587
 30
0.0
 11
-77.79099311742166
 21
-16.25293638279609
 31
0.0
  0
CIRCLE
  5
16F
330
CD
100
AcDbEntity
  8
0
  6
Continuous
 62
    91
370
    18
100
AcDbCircle
 10
-80.1003931174217
 20
-16.2529363827961
 30
0.0
 40
4.25
  0
CIRCLE
  5
170
330
CD
100
AcDbEntity
  8
0
  6
Continuous
 62
    91
370
    18
100
AcDbCircle
 10
-80.1003931174217
 20
-16.2529363827961
 30
0.0
 40
3.730384515458561
  0
ENDBLK
  5
CF
330
CD
100
AcDbEntity
  8
0
100
AcDbBlockEnd
  0
BLOCK
  5
D1
330
D0
100
AcDbEntity
  8
0
100
AcDbBlockBegin
  2
DC_GROUP_ESB-115T_11
 70
     0
 10
0.0
 20
0.0
 30
0.0
  3
DC_GROUP_ESB-115T_11
  1

  0
LINE
  5
171
330
D0
100
AcDbEntity
  8
0
  6
Continuous
 62
    91
370
    18
100
AcDbLine
 10
-84.79915950715456
 20
9.901896651583613
 30
0.0
 11
-86.79915857465433
 21
11.05659665158358
 31
0.0
  0
LINE
  5
172
330
D0
100
AcDbEntity
  8
0
  6
Continuous
 62
    91
370
    18
100
AcDbLine
 10
-86.79915857465433
 20
11.05659665158358
 30
0.0
 11
-88.79915764215407
 21
9.901896651583584
 31
0.0
  0
LINE
  5
173
330
D0
100
AcDbEntity
  8
0
  6
Continuous
 62
    91
370
    18
100
AcDbLine
 10
-88.79915764215407
 20
9.901896651583584
 30
0.0
 11
-88.7991576421541
 21
7.592496651583588
 31
0.0
  0
LINE
  5
174
330
D0
100
AcDbEntity
  8
0
  6
Continuous
 62
    91
370
    18
100
AcDbLine
 10
-88.7991576421541
 20
7.592496651583588
 30
0.0
 11
-86.79915857465433
 21
6.437796651583625
 31
0.0
  0
LINE
  5
175
330
D0
100
AcDbEntity
  8
0
  6
Continuous
 62
    91
370
    18
100
AcDbLine
 10
-86.79915857465433
 20
6.437796651583625
 30
0.0
 11
-84.7991595071546
 21
7.592496651583588
 31
0.0
  0
LINE
  5
176
330
D0
100
AcDbEntity
  8
0
  6
Continuous
 62
    91
370
    18
100
AcDbLine
 10
-84.7991595071546
 20
7.592496651583588
 30
0.0
 11
-84.79915950715456
 21
9.901896651583613
 31
0.0
  0
CIRCLE
  5
177
330
D0
100
AcDbEntity
  8
0
  6
Continuous
 62
    91
370
    18
100
AcDbCircle
 10
-86.79915857465436
 20
8.747196651583607
 30
0.0
 40
4.25
  0
CIRCLE
  5
178
330
D0
100
AcDbEntity
  8
0
  6
Continuous
 62
    91
370
    18
100
AcDbCircle
 10
-86.79915857465436
 20
8.747196651583607
 30
0.0
 40
3.730384515458561
  0
ENDBLK
  5
D2
330
D0
100
AcDbEntity
  8
0
100
AcDbBlockEnd
  0
BLOCK
  5
D4
330
D3
100
AcDbEntity
  8
0
100
AcDbBlockBegin
  2
DC_GROUP_ESB-115T_12
 70
     0
 10
0.0
 20
0.0
 30
0.0
  3
DC_GROUP_ESB-115T_12
  1

  0
LINE
  5
179
330
D3
100
AcDbEntity
  8
0
  6
Continuous
 62
    91
370
    18
100
AcDbLine
 10
-103.9458261518013
 20
29.04856329623043
 30
0.0
 11
-106.2552261518013
 21
29.04856329623041
 31
0.0
  0
LINE
  5
17A
330
D3
100
AcDbEntity
  8
0
  6
Continuous
 62
    91
370
    18
100
AcDbLine
 10
-106.2552261518013
 20
29.04856329623041
 30
0.0
 11
-107.4099261518014
 21
27.04856422873064
 31
0.0
  0
LINE
  5
17B
330
D3
100
AcDbEntity
  8
0
  6
Continuous
 62
    91
370
    18
100
AcDbLine
 10
-107.4099261518014
 20
27.04856422873064
 30
0.0
 11
-106.2552261518014
 21
25.04856516123085
 31
0.0
  0
LINE
  5
17C
330
D3
100
AcDbEntity
  8
0
  6
Continuous
 62
    91
370
    18
100
AcDbLine
 10
-106.2552261518014
 20
25.04856516123085
 30
0.0
 11
-103.9458261518014
 21
25.04856516123085
 31
0.0
  0
LINE
  5
17D
330
D3
100
AcDbEntity
  8
0
  6
Continuous
 62
    91
370
    18
100
AcDbLine
 10
-103.9458261518014
 20
25.04856516123085
 30
0.0
 11
-102.7911261518014
 21
27.04856422873061
 31
0.0
  0
LINE
  5
17E
330
D3
100
AcDbEntity
  8
0
  6
Continuous
 62
    91
370
    18
100
AcDbLine
 10
-102.7911261518014
 20
27.04856422873061
 30
0.0
 11
-103.9458261518013
 21
29.04856329623043
 31
0.0
  0
CIRCLE
  5
17F
330
D3
100
AcDbEntity
  8
0
  6
Continuous
 62
    91
370
    18
100
AcDbCircle
 10
-105.1005261518014
 20
27.04856422873065
 30
0.0
 40
4.25
  0
CIRCLE
  5
180
330
D3
100
AcDbEntity
  8
0
  6
Continuous
 62
    91
370
    18
100
AcDbCircle
 10
-105.1005261518014
 20
27.04856422873065
 30
0.0
 40
3.730384515458561
  0
ENDBLK
  5
D5
330
D3
100
AcDbEntity
  8
0
100
AcDbBlockEnd
  0
BLOCK
  5
D7
330
D6
100
AcDbEntity
  8
0
100
AcDbBlockBegin
  2
DC_GROUP_ESB-115T_13
 70
     0
 10
0.0
 20
0.0
 30
0.0
  3
DC_GROUP_ESB-115T_13
  1

  0
CIRCLE
  5
181
330
D6
100
AcDbEntity
  8
0
  6
Continuous
 62
     3
370
    18
100
AcDbCircle
 10
-130.1006591861812
 20
16.24706361720396
 30
0.0
 40
2.066999999999993
  0
CIRCLE
  5
182
330
D6
100
AcDbEntity
  8
0
  6
Continuous
 62
     4
370
    18
100
AcDbCircle
 10
-130.1006591861812
 20
16.24706361720396
 30
0.0
 40
2.5
  0
ENDBLK
  5
D8
330
D6
100
AcDbEntity
  8
0
100
AcDbBlockEnd
  0
BLOCK
  5
DA
330
D9
100
AcDbEntity
  8
0
100
AcDbBlockBegin
  2
DC_GROUP_ESB-115T_14
 70
     0
 10
0.0
 20
0.0
 30
0.0
  3
DC_GROUP_ESB-115T_14
  1

  0
CIRCLE
  5
183
330
D9
100
AcDbEntity
  8
0
  6
Continuous
 62
     3
370
    18
100
AcDbCircle
 10
-130.1006591861812
 20
16.24706361720396
 30
0.0
 40
2.5
  0
LINE
  5
184
330
D9
100
AcDbEntity
  8
0
  6
Continuous
 62
     3
370
    18
100
AcDbLine
 10
-129.3789714299311
 20
14.99706375617858
 30
0.0
 11
-128.6572836736811
 21
16.24706361720396
 31
0.0
  0
LINE
  5
185
330
D9
100
AcDbEntity
  8
0
  6
Continuous
 62
     3
370
    18
100
AcDbLine
 10
-128.6572836736811
 20
16.24706361720396
 30
0.0
 11
-129.3789714299311
 21
17.49706347822935
 31
0.0
  0
LINE
  5
186
330
D9
100
AcDbEntity
  8
0
  6
Continuous
 62
     3
370
    18
100
AcDbLine
 10
-129.3789714299311
 20
17.49706347822935
 30
0.0
 11
-130.8223469424312
 21
17.49706347822935
 31
0.0
  0
LINE
  5
187
330
D9
100
AcDbEntity
  8
0
  6
Continuous
 62
     3
370
    18
100
AcDbLine
 10
-130.8223469424312
 20
17.49706347822935
 30
0.0
 11
-131.5440346986812
 21
16.24706361720396
 31
0.0
  0
LINE
  5
188
330
D9
100
AcDbEntity
  8
0
  6
Continuous
 62
     3
370
    18
100
AcDbLine
 10
-131.5440346986812
 20
16.24706361720396
 30
0.0
 11
-130.8223469424312
 21
14.99706375617858
 31
0.0
  0
LINE
  5
189
330
D9
100
AcDbEntity
  8
0
  6
Continuous
 62
     3
370
    18
100
AcDbLine
 10
-130.8223469424312
 20
14.99706375617858
 30
0.0
 11
-129.3789714299311
 21
14.99706375617858
 31
0.0
  0
CIRCLE
  5
18A
330
D9
100
AcDbEntity
  8
0
  6
Continuous
 62
     4
370
    18
100
AcDbCircle
 10
-130.1006591861812
 20
16.24706361720396
 30
0.0
 40
2.067
  0
ENDBLK
  5
DB
330
D9
100
AcDbEntity
  8
0
100
AcDbBlockEnd
  0
BLOCK
  5
DD
330
DC
100
AcDbEntity
  8
0
100
AcDbBlockBegin
  2
DC_GROUP_ESB-115T_15
 70
     0
 10
0.0
 20
0.0
 30
0.0
  3
DC_GROUP_ESB-115T_15
  1

  0
LINE
  5
18B
330
DC
100
AcDbEntity
  8
0
  6
Continuous
 62
     3
370
    18
100
AcDbLine
 10
-149.0105422843442
 20
40.79701260544853
 30
0.0
 11
-149.9422908467131
 21
44.27434558008919
 31
0.0
  0
LINE
  5
18C
330
DC
100
AcDbEntity
  8
0
  6
Continuous
 62
     3
370
    18
100
AcDbLine
 10
-149.9422908467131
 20
44.27434558008919
 30
0.0
 11
-149.376605421764
 21
44.84003100503843
 31
0.0
  0
LINE
  5
18D
330
DC
100
AcDbEntity
  8
0
  6
Continuous
 62
     3
370
    18
100
AcDbLine
 10
-142.2490615003207
 20
42.60874592116612
 30
0.0
 11
-143.1808100626897
 21
46.08607889580676
 31
0.0
  0
LINE
  5
18E
330
DC
100
AcDbEntity
  8
0
  6
Continuous
 62
     3
370
    18
100
AcDbLine
 10
-143.1808100626897
 20
46.08607889580676
 30
0.0
 11
-143.953550723721
 21
46.29313413188879
 31
0.0
  0
LINE
  5
18F
330
DC
100
AcDbEntity
  8
0
  6
Continuous
 62
     3
370
    18
100
AcDbLine
 10
-149.2520237409165
 20
40.73230784417291
 30
0.0
 11
-142.0075800437484
 21
42.67345068244175
 31
0.0
  0
LINE
  5
190
330
DC
100
AcDbEntity
  8
0
  6
Continuous
 62
     3
370
    18
100
AcDbLine
 10
-145.4990887868436
 20
45.46489798383949
 30
0.0
 11
-143.1808100626897
 21
46.08607889580676
 31
0.0
  0
LINE
  5
191
330
DC
100
AcDbEntity
  8
0
  6
Continuous
 62
     3
370
    18
100
AcDbLine
 10
-145.6026164048847
 20
45.85126831435512
 30
0.0
 11
-143.953550723721
 21
46.29313413188879
 31
0.0
  0
LINE
  5
192
330
DC
100
AcDbEntity
  8
0
  6
Continuous
 62
     3
370
    18
100
AcDbLine
 10
-149.9422908467131
 20
44.27434558008919
 30
0.0
 11
-147.6241256046796
 21
44.89549608461397
 31
0.0
  0
LINE
  5
193
330
DC
100
AcDbEntity
  8
0
  6
Continuous
 62
     3
370
    18
100
AcDbLine
 10
-149.376605421764
 20
44.84003100503843
 30
0.0
 11
-147.7276532227206
 21
45.2818664151296
 31
0.0
  0
ENDBLK
  5
DE
330
DC
100
AcDbEntity
  8
0
100
AcDbBlockEnd
  0
BLOCK
  5
E0
330
DF
100
AcDbEntity
  8
0
100
AcDbBlockBegin
  2
DC_GROUP_ESB-115T_16
 70
     0
 10
0.0
 20
0.0
 30
0.0
  3
DC_GROUP_ESB-115T_16
  1

  0
LINE
  5
194
330
DF
100
AcDbEntity
  8
0
  6
Continuous
 62
    91
370
    18
100
AcDbLine
 10
-39.31214716846434
 20
37.99706361720399
 30
0.0
 11
-39.31214716846433
 21
29.49706361720396
 31
0.0
  0
LINE
  5
195
330
DF
100
AcDbEntity
  8
0
  6
Continuous
 62
    91
370
    18
100
AcDbLine
 10
-39.31214716846433
 20
29.49706361720396
 30
0.0
 11
-44.01214716846435
 21
29.49706361720398
 31
0.0
  0
LINE
  5
196
330
DF
100
AcDbEntity
  8
0
  6
Continuous
 62
    91
370
    18
100
AcDbLine
 10
-39.31214716846434
 20
37.99706361720399
 30
0.0
 11
-44.0121471684643
 21
37.99706361720398
 31
0.0
  0
LINE
  5
197
330
DF
100
AcDbEntity
  8
0
  6
Continuous
 62
    91
370
    18
100
AcDbLine
 10
-44.01214716846435
 20
29.49706361720398
 30
0.0
 11
-44.31214716846436
 21
30.01667910174541
 31
0.0
  0
LINE
  5
198
330
DF
100
AcDbEntity
  8
0
  6
Continuous
 62
    91
370
    18
100
AcDbLine
 10
-44.0121471684643
 20
37.99706361720398
 30
0.0
 11
-44.31214716846433
 21
37.47744813266254
 31
0.0
  0
LINE
  5
199
330
DF
100
AcDbEntity
  8
0
  6
Continuous
 62
    91
370
    18
100
AcDbLine
 10
-44.31214716846433
 20
37.47744813266254
 30
0.0
 11
-44.31214716846436
 21
30.01667910174541
 31
0.0
  0
LINE
  5
19A
330
DF
100
AcDbEntity
  8
0
  6
Continuous
 62
    91
370
    18
100
AcDbLine
 10
-44.0121471684643
 20
37.99706361720398
 30
0.0
 11
-44.01214716846435
 21
29.49706361720398
 31
0.0
  0
LINE
  5
19B
330
DF
100
AcDbEntity
  8
0
  6
Continuous
 62
    91
370
    18
100
AcDbLine
 10
-39.31214716846433
 20
31.24706361720399
 30
0.0
 11
29.78785283153563
 21
31.24706361720396
 31
0.0
  0
LINE
  5
19C
330
DF
100
AcDbEntity
  8
0
  6
Continuous
 62
    91
370
    18
100
AcDbLine
 10
-39.31214716846433
 20
36.24706361720398
 30
0.0
 11
29.78785283153563
 21
36.24706361720395
 31
0.0
  0
LINE
  5
19D
330
DF
100
AcDbEntity
  8
0
  6
Continuous
 62
    91
370
    18
100
AcDbLine
 10
29.78785283153563
 20
31.24706361720396
 30
0.0
 11
30.68785283153566
 21
32.14706361720394
 31
0.0
  0
LINE
  5
19E
330
DF
100
AcDbEntity
  8
0
  6
Continuous
 62
    91
370
    18
100
AcDbLine
 10
29.78785283153563
 20
36.24706361720395
 30
0.0
 11
30.68785283153566
 21
35.34706361720397
 31
0.0
  0
LINE
  5
19F
330
DF
100
AcDbEntity
  8
0
  6
Continuous
 62
    91
370
    18
100
AcDbLine
 10
30.68785283153566
 20
35.34706361720397
 30
0.0
 11
30.68785283153566
 21
32.14706361720394
 31
0.0
  0
LINE
  5
1A0
330
DF
100
AcDbEntity
  8
0
  6
Continuous
 62
    91
370
    18
100
AcDbLine
 10
14.68785283153567
 20
36.24706361720395
 30
0.0
 11
14.68785283153566
 21
31.24706361720393
 31
0.0
  0
LINE
  5
1A1
330
DF
100
AcDbEntity
  8
0
  6
Continuous
 62
    91
370
    18
100
AcDbLine
 10
29.78785283153563
 20
36.24706361720395
 30
0.0
 11
29.78785283153563
 21
31.24706361720396
 31
0.0
  0
LINE
  5
1A2
330
DF
100
AcDbEntity
  8
0
  6
Continuous
 62
     4
370
    18
100
AcDbLine
 10
13.82182702396658
 20
31.24706361720396
 30
0.0
 11
14.68785283153565
 21
31.74706361720395
 31
0.0
  0
LINE
  5
1A3
330
DF
100
AcDbEntity
  8
0
  6
Continuous
 62
     4
370
    18
100
AcDbLine
 10
13.82182702396658
 20
36.24706361720396
 30
0.0
 11
14.68785283153565
 21
35.74706361720396
 31
0.0
  0
LINE
  5
1A4
330
DF
100
AcDbEntity
  8
0
  6
Continuous
 62
     4
370
    18
100
AcDbLine
 10
14.68785283153565
 20
31.74706361720395
 30
0.0
 11
30.28785283153566
 21
31.74706361720396
 31
0.0
  0
LINE
  5
1A5
330
DF
100
AcDbEntity
  8
0
  6
Continuous
 62
     4
370
    18
100
AcDbLine
 10
14.68785283153565
 20
35.74706361720396
 30
0.0
 11
30.28785283153563
 21
35.74706361720396
 31
0.0
  0
ENDBLK
  5
E1
330
DF
100
AcDbEntity
  8
0
100
AcDbBlockEnd
  0
BLOCK
  5
E3
330
E2
100
AcDbEntity
  8
0
100
AcDbBlockBegin
  2
DC_GROUP_ESB-115T_17
 70
     0
 10
0.0
 20
0.0
 30
0.0
  3
DC_GROUP_ESB-115T_17
  1

  0
LINE
  5
1A6
330
E2
100
AcDbEntity
  8
0
  6
Continuous
 62
    91
370
    18
100
AcDbLine
 10
-39.31214716846438
 20
-62.00293638279602
 30
0.0
 11
-39.31214716846436
 21
-70.50293638279601
 31
0.0
  0
LINE
  5
1A7
330
E2
100
AcDbEntity
  8
0
  6
Continuous
 62
    91
370
    18
100
AcDbLine
 10
-39.31214716846436
 20
-70.50293638279601
 30
0.0
 11
-44.01214716846438
 21
-70.50293638279601
 31
0.0
  0
LINE
  5
1A8
330
E2
100
AcDbEntity
  8
0
  6
Continuous
 62
    91
370
    18
100
AcDbLine
 10
-39.31214716846438
 20
-62.00293638279602
 30
0.0
 11
-44.01214716846437
 21
-62.00293638279601
 31
0.0
  0
LINE
  5
1A9
330
E2
100
AcDbEntity
  8
0
  6
Continuous
 62
    91
370
    18
100
AcDbLine
 10
-44.01214716846438
 20
-70.50293638279601
 30
0.0
 11
-44.31214716846438
 21
-69.98332089825459
 31
0.0
  0
LINE
  5
1AA
330
E2
100
AcDbEntity
  8
0
  6
Continuous
 62
    91
370
    18
100
AcDbLine
 10
-44.01214716846437
 20
-62.00293638279601
 30
0.0
 11
-44.31214716846434
 21
-62.52255186733746
 31
0.0
  0
LINE
  5
1AB
330
E2
100
AcDbEntity
  8
0
  6
Continuous
 62
    91
370
    18
100
AcDbLine
 10
-44.31214716846434
 20
-62.52255186733746
 30
0.0
 11
-44.31214716846438
 21
-69.98332089825459
 31
0.0
  0
LINE
  5
1AC
330
E2
100
AcDbEntity
  8
0
  6
Continuous
 62
    91
370
    18
100
AcDbLine
 10
-44.01214716846437
 20
-62.00293638279601
 30
0.0
 11
-44.01214716846438
 21
-70.50293638279601
 31
0.0
  0
LINE
  5
1AD
330
E2
100
AcDbEntity
  8
0
  6
Continuous
 62
    91
370
    18
100
AcDbLine
 10
-39.31214716846437
 20
-68.75293638279601
 30
0.0
 11
14.78785283153563
 21
-68.75293638279604
 31
0.0
  0
LINE
  5
1AE
330
E2
100
AcDbEntity
  8
0
  6
Continuous
 62
    91
370
    18
100
AcDbLine
 10
-39.31214716846436
 20
-63.75293638279602
 30
0.0
 11
14.78785283153564
 21
-63.75293638279604
 31
0.0
  0
LINE
  5
1AF
330
E2
100
AcDbEntity
  8
0
  6
Continuous
 62
    91
370
    18
100
AcDbLine
 10
14.78785283153563
 20
-68.75293638279604
 30
0.0
 11
15.68785283153564
 21
-67.85293638279605
 31
0.0
  0
LINE
  5
1B0
330
E2
100
AcDbEntity
  8
0
  6
Continuous
 62
    91
370
    18
100
AcDbLine
 10
14.78785283153564
 20
-63.75293638279604
 30
0.0
 11
15.68785283153562
 21
-64.65293638279604
 31
0.0
  0
LINE
  5
1B1
330
E2
100
AcDbEntity
  8
0
  6
Continuous
 62
    91
370
    18
100
AcDbLine
 10
15.68785283153562
 20
-64.65293638279604
 30
0.0
 11
15.68785283153564
 21
-67.85293638279605
 31
0.0
  0
LINE
  5
1B2
330
E2
100
AcDbEntity
  8
0
  6
Continuous
 62
    91
370
    18
100
AcDbLine
 10
-0.3121471684643602
 20
-63.75293638279604
 30
0.0
 11
-0.3121471684643642
 21
-68.75293638279602
 31
0.0
  0
LINE
  5
1B3
330
E2
100
AcDbEntity
  8
0
  6
Continuous
 62
    91
370
    18
100
AcDbLine
 10
14.78785283153564
 20
-63.75293638279604
 30
0.0
 11
14.78785283153563
 21
-68.75293638279604
 31
0.0
  0
LINE
  5
1B4
330
E2
100
AcDbEntity
  8
0
  6
Continuous
 62
     4
370
    18
100
AcDbLine
 10
-1.178172976033451
 20
-68.75293638279604
 30
0.0
 11
-0.312147168464378
 21
-68.25293638279604
 31
0.0
  0
LINE
  5
1B5
330
E2
100
AcDbEntity
  8
0
  6
Continuous
 62
     4
370
    18
100
AcDbLine
 10
-1.178172976033412
 20
-63.75293638279602
 30
0.0
 11
-0.312147168464378
 21
-64.25293638279604
 31
0.0
  0
LINE
  5
1B6
330
E2
100
AcDbEntity
  8
0
  6
Continuous
 62
     4
370
    18
100
AcDbLine
 10
-0.312147168464378
 20
-68.25293638279604
 30
0.0
 11
15.28785283153563
 21
-68.25293638279602
 31
0.0
  0
LINE
  5
1B7
330
E2
100
AcDbEntity
  8
0
  6
Continuous
 62
     4
370
    18
100
AcDbLine
 10
-0.312147168464378
 20
-64.25293638279604
 30
0.0
 11
15.28785283153563
 21
-64.25293638279602
 31
0.0
  0
ENDBLK
  5
E4
330
E2
100
AcDbEntity
  8
0
100
AcDbBlockEnd
  0
BLOCK
  5
E6
330
E5
100
AcDbEntity
  8
0
100
AcDbBlockBegin
  2
DC_GROUP_ESB-115T_18
 70
     0
 10
0.0
 20
0.0
 30
0.0
  3
DC_GROUP_ESB-115T_18
  1

  0
LINE
  5
1B8
330
E5
100
AcDbEntity
  8
0
  6
Continuous
 62
     4
370
    18
100
AcDbLine
 10
-3.012147168464361
 20
-18.60293638279605
 30
0.0
 11
9.987852831535632
 21
-18.60293638279605
 31
0.0
  0
LINE
  5
1B9
330
E5
100
AcDbEntity
  8
0
  6
Continuous
 62
     4
370
    18
100
AcDbLine
 10
-3.012147168464322
 20
-13.90293638279604
 30
0.0
 11
9.98785283153564
 21
-13.90293638279606
 31
0.0
  0
LINE
  5
1BA
330
E5
100
AcDbEntity
  8
0
  6
Continuous
 62
     4
370
    18
100
AcDbLine
 10
-3.012147168464361
 20
-19.25293638279603
 30
0.0
 11
6.787852831535641
 21
-19.25293638279604
 31
0.0
  0
LINE
  5
1BB
330
E5
100
AcDbEntity
  8
0
  6
Continuous
 62
     4
370
    18
100
AcDbLine
 10
-3.012147168464379
 20
-13.25293638279604
 30
0.0
 11
6.78785283153565
 21
-13.25293638279604
 31
0.0
  0
LINE
  5
1BC
330
E5
100
AcDbEntity
  8
0
  6
Continuous
 62
     4
370
    18
100
AcDbLine
 10
6.987852831535641
 20
-19.25293638279604
 30
0.0
 11
6.987852831535651
 21
-13.25293638279604
 31
0.0
  0
LINE
  5
1BD
330
E5
100
AcDbEntity
  8
0
  6
Continuous
 62
     4
370
    18
100
AcDbLine
 10
9.987852831535632
 20
-18.60293638279605
 30
0.0
 11
9.98785283153564
 21
-13.90293638279606
 31
0.0
  0
LINE
  5
1BE
330
E5
100
AcDbEntity
  8
0
  6
Continuous
 62
     4
370
    18
100
AcDbLine
 10
9.987852831535632
 20
-18.60293638279605
 30
0.0
 11
11.34462596413128
 21
-16.25293638279604
 31
0.0
  0
LINE
  5
1BF
330
E5
100
AcDbEntity
  8
0
  6
Continuous
 62
     4
370
    18
100
AcDbLine
 10
9.98785283153564
 20
-13.90293638279606
 30
0.0
 11
11.34462596413128
 21
-16.25293638279604
 31
0.0
  0
LINE
  5
1C0
330
E5
100
AcDbEntity
  8
0
  6
Continuous
 62
     4
370
    18
100
AcDbLine
 10
6.987852831535651
 20
-13.25293638279604
 30
0.0
 11
8.11368585645541
 21
-13.90293638279604
 31
0.0
  0
LINE
  5
1C1
330
E5
100
AcDbEntity
  8
0
  6
Continuous
 62
     4
370
    18
100
AcDbLine
 10
6.987852831535641
 20
-19.25293638279604
 30
0.0
 11
8.11368585645541
 21
-18.60293638279605
 31
0.0
  0
ENDBLK
  5
E7
330
E5
100
AcDbEntity
  8
0
100
AcDbBlockEnd
  0
BLOCK
  5
E9
330
E8
100
AcDbEntity
  8
0
100
AcDbBlockBegin
  2
DC_GROUP_ESB-115T_19
 70
     0
 10
0.0
 20
0.0
 30
0.0
  3
DC_GROUP_ESB-115T_19
  1

  0
LINE
  5
1C2
330
E8
100
AcDbEntity
  8
0
  6
Continuous
 62
     9
370
    18
100
AcDbLine
 10
-1.212147168464355
 20
19.49706427540929
 30
0.0
 11
-0.2121471684643592
 21
20.49706427540927
 31
0.0
  0
LINE
  5
1C3
330
E8
100
AcDbEntity
  8
0
  6
Continuous
 62
     9
370
    18
100
AcDbLine
 10
-1.212147168464355
 20
20.2041718193546
 30
0.0
 11
-0.2121471684643592
 21
21.20417181935458
 31
0.0
  0
LINE
  5
1C4
330
E8
100
AcDbEntity
  8
0
  6
Continuous
 62
     9
370
    18
100
AcDbLine
 10
-1.212147168464355
 20
20.91127936329991
 30
0.0
 11
-0.2121471684643592
 21
21.9112793632999
 31
0.0
  0
LINE
  5
1C5
330
E8
100
AcDbEntity
  8
0
  6
Continuous
 62
     9
370
    18
100
AcDbLine
 10
-1.212147168464355
 20
21.61838690724522
 30
0.0
 11
-0.2121471684643592
 21
22.61838690724521
 31
0.0
  0
LINE
  5
1C6
330
E8
100
AcDbEntity
  8
0
  6
Continuous
 62
     9
370
    18
100
AcDbLine
 10
-1.212147168464355
 20
22.32549445119054
 30
0.0
 11
-0.2121471684643592
 21
23.32549445119052
 31
0.0
  0
LINE
  5
1C7
330
E8
100
AcDbEntity
  8
0
  6
Continuous
 62
     9
370
    18
100
AcDbLine
 10
-1.212147168464355
 20
23.03260199513585
 30
0.0
 11
-0.2121471684643592
 21
24.03260199513583
 31
0.0
  0
LINE
  5
1C8
330
E8
100
AcDbEntity
  8
0
  6
Continuous
 62
     9
370
    18
100
AcDbLine
 10
-1.212147168464355
 20
23.73970953908116
 30
0.0
 11
-0.2121471684643592
 21
24.73970953908115
 31
0.0
  0
LINE
  5
1C9
330
E8
100
AcDbEntity
  8
0
  6
Continuous
 62
     9
370
    18
100
AcDbLine
 10
-1.212147168464355
 20
24.44681708302647
 30
0.0
 11
-0.2121471684643592
 21
25.44681708302646
 31
0.0
  0
LINE
  5
1CA
330
E8
100
AcDbEntity
  8
0
  6
Continuous
 62
     9
370
    18
100
AcDbLine
 10
-1.212147168464355
 20
25.15392462697179
 30
0.0
 11
-0.2121471684643592
 21
26.15392462697177
 31
0.0
  0
LINE
  5
1CB
330
E8
100
AcDbEntity
  8
0
  6
Continuous
 62
     9
370
    18
100
AcDbLine
 10
-1.212147168464355
 20
25.8610321709171
 30
0.0
 11
-0.2121471684643592
 21
26.86103217091708
 31
0.0
  0
LINE
  5
1CC
330
E8
100
AcDbEntity
  8
0
  6
Continuous
 62
     9
370
    18
100
AcDbLine
 10
-1.212147168464355
 20
26.56813971486241
 30
0.0
 11
-0.5332232661227851
 21
27.24706361720398
 31
0.0
  0
LINE
  5
1CD
330
E8
100
AcDbEntity
  8
0
  6
Continuous
 62
     9
370
    18
100
AcDbLine
 10
-1.212147168464355
 20
18.78995673146397
 30
0.0
 11
-0.2121471684643592
 21
19.78995673146396
 31
0.0
  0
LINE
  5
1CE
330
E8
100
AcDbEntity
  8
0
  6
Continuous
 62
     9
370
    18
100
AcDbLine
 10
-1.212147168464355
 20
18.08284918751866
 30
0.0
 11
-0.2121471684643592
 21
19.08284918751865
 31
0.0
  0
LINE
  5
1CF
330
E8
100
AcDbEntity
  8
0
  6
Continuous
 62
     9
370
    18
100
AcDbLine
 10
-1.212147168464355
 20
17.37574164357335
 30
0.0
 11
-0.2121471684643592
 21
18.37574164357333
 31
0.0
  0
LINE
  5
1D0
330
E8
100
AcDbEntity
  8
0
  6
Continuous
 62
     9
370
    18
100
AcDbLine
 10
-1.212147168464355
 20
16.66863409962804
 30
0.0
 11
-0.2121471684643592
 21
17.66863409962802
 31
0.0
  0
LINE
  5
1D1
330
E8
100
AcDbEntity
  8
0
  6
Continuous
 62
     9
370
    18
100
AcDbLine
 10
-1.212147168464355
 20
15.96152655568272
 30
0.0
 11
-0.2121471684643592
 21
16.96152655568271
 31
0.0
  0
LINE
  5
1D2
330
E8
100
AcDbEntity
  8
0
  6
Continuous
 62
     9
370
    18
100
AcDbLine
 10
-1.212147168464355
 20
15.25441901173742
 30
0.0
 11
-0.2121471684643592
 21
16.2544190117374
 31
0.0
  0
LINE
  5
1D3
330
E8
100
AcDbEntity
  8
0
  6
Continuous
 62
     9
370
    18
100
AcDbLine
 10
-1.012395019052473
 20
14.74706361720398
 30
0.0
 11
-0.2121471684643592
 21
15.54731146779208
 31
0.0
  0
LINE
  5
1D4
330
E8
100
AcDbEntity
  8
0
  6
Continuous
 62
     9
370
    18
100
AcDbLine
 10
-0.3052874751071601
 20
14.74706361720398
 30
0.0
 11
-0.2121471684643592
 21
14.84020392384677
 31
0.0
  0
ENDBLK
  5
EA
330
E8
100
AcDbEntity
  8
0
100
AcDbBlockEnd
  0
BLOCK
  5
EC
330
EB
100
AcDbEntity
  8
0
100
AcDbBlockBegin
  2
DC_GROUP_ESB-115T_20
 70
     0
 10
0.0
 20
0.0
 30
0.0
  3
DC_GROUP_ESB-115T_20
  1

  0
LINE
  5
1D5
330
EB
100
AcDbEntity
  8
0
  6
Continuous
 62
     9
370
    18
100
AcDbLine
 10
0.7878528315356634
 20
19.47819964375647
 30
0.0
 11
1.78785283153567
 21
20.47819964375647
 31
0.0
  0
LINE
  5
1D6
330
EB
100
AcDbEntity
  8
0
  6
Continuous
 62
     9
370
    18
100
AcDbLine
 10
0.7878528315356634
 20
20.18530718770178
 30
0.0
 11
1.78785283153567
 21
21.18530718770178
 31
0.0
  0
LINE
  5
1D7
330
EB
100
AcDbEntity
  8
0
  6
Continuous
 62
     9
370
    18
100
AcDbLine
 10
0.7878528315356634
 20
20.89241473164709
 30
0.0
 11
1.78785283153567
 21
21.89241473164709
 31
0.0
  0
LINE
  5
1D8
330
EB
100
AcDbEntity
  8
0
  6
Continuous
 62
     9
370
    18
100
AcDbLine
 10
0.7878528315356634
 20
21.59952227559241
 30
0.0
 11
1.78785283153567
 21
22.59952227559241
 31
0.0
  0
LINE
  5
1D9
330
EB
100
AcDbEntity
  8
0
  6
Continuous
 62
     9
370
    18
100
AcDbLine
 10
0.7878528315356634
 20
22.30662981953772
 30
0.0
 11
1.78785283153567
 21
23.30662981953772
 31
0.0
  0
LINE
  5
1DA
330
EB
100
AcDbEntity
  8
0
  6
Continuous
 62
     9
370
    18
100
AcDbLine
 10
0.7878528315356634
 20
23.01373736348303
 30
0.0
 11
1.78785283153567
 21
24.01373736348303
 31
0.0
  0
LINE
  5
1DB
330
EB
100
AcDbEntity
  8
0
  6
Continuous
 62
     9
370
    18
100
AcDbLine
 10
0.7878528315356634
 20
23.72084490742834
 30
0.0
 11
1.78785283153567
 21
24.72084490742834
 31
0.0
  0
LINE
  5
1DC
330
EB
100
AcDbEntity
  8
0
  6
Continuous
 62
     9
370
    18
100
AcDbLine
 10
0.7878528315356634
 20
24.42795245137366
 30
0.0
 11
1.78785283153567
 21
25.42795245137366
 31
0.0
  0
LINE
  5
1DD
330
EB
100
AcDbEntity
  8
0
  6
Continuous
 62
     9
370
    18
100
AcDbLine
 10
0.7878528315356634
 20
25.13505999531897
 30
0.0
 11
1.78785283153567
 21
26.13505999531897
 31
0.0
  0
LINE
  5
1DE
330
EB
100
AcDbEntity
  8
0
  6
Continuous
 62
     9
370
    18
100
AcDbLine
 10
0.7878528315356634
 20
25.84216753926428
 30
0.0
 11
1.78785283153567
 21
26.84216753926428
 31
0.0
  0
LINE
  5
1DF
330
EB
100
AcDbEntity
  8
0
  6
Continuous
 62
     9
370
    18
100
AcDbLine
 10
0.7878528315356634
 20
26.54927508320959
 30
0.0
 11
1.485641365530043
 21
27.24706361720398
 31
0.0
  0
LINE
  5
1E0
330
EB
100
AcDbEntity
  8
0
  6
Continuous
 62
     9
370
    18
100
AcDbLine
 10
0.7878528315356634
 20
18.77109209981116
 30
0.0
 11
1.78785283153567
 21
19.77109209981116
 31
0.0
  0
LINE
  5
1E1
330
EB
100
AcDbEntity
  8
0
  6
Continuous
 62
     9
370
    18
100
AcDbLine
 10
0.7878528315356634
 20
18.06398455586584
 30
0.0
 11
1.78785283153567
 21
19.06398455586584
 31
0.0
  0
LINE
  5
1E2
330
EB
100
AcDbEntity
  8
0
  6
Continuous
 62
     9
370
    18
100
AcDbLine
 10
0.7878528315356634
 20
17.35687701192053
 30
0.0
 11
1.78785283153567
 21
18.35687701192053
 31
0.0
  0
LINE
  5
1E3
330
EB
100
AcDbEntity
  8
0
  6
Continuous
 62
     9
370
    18
100
AcDbLine
 10
0.7878528315356634
 20
16.64976946797522
 30
0.0
 11
1.78785283153567
 21
17.64976946797522
 31
0.0
  0
LINE
  5
1E4
330
EB
100
AcDbEntity
  8
0
  6
Continuous
 62
     9
370
    18
100
AcDbLine
 10
0.7878528315356634
 20
15.94266192402991
 30
0.0
 11
1.78785283153567
 21
16.94266192402991
 31
0.0
  0
LINE
  5
1E5
330
EB
100
AcDbEntity
  8
0
  6
Continuous
 62
     9
370
    18
100
AcDbLine
 10
0.7878528315356634
 20
15.23555438008459
 30
0.0
 11
1.78785283153567
 21
16.23555438008459
 31
0.0
  0
LINE
  5
1E6
330
EB
100
AcDbEntity
  8
0
  6
Continuous
 62
     9
370
    18
100
AcDbLine
 10
1.006469612600302
 20
14.74706361720391
 30
0.0
 11
1.78785283153567
 21
15.52844683613929
 31
0.0
  0
LINE
  5
1E7
330
EB
100
AcDbEntity
  8
0
  6
Continuous
 62
     9
370
    18
100
AcDbLine
 10
1.713577156545623
 20
14.74706361720393
 30
0.0
 11
1.78785283153567
 21
14.82133929219397
 31
0.0
  0
ENDBLK
  5
ED
330
EB
100
AcDbEntity
  8
0
100
AcDbBlockEnd
  0
BLOCK
  5
EF
330
EE
100
AcDbEntity
  8
0
100
AcDbBlockBegin
  2
DC_GROUP_ESB-115T_21
 70
     0
 10
0.0
 20
0.0
 30
0.0
  3
DC_GROUP_ESB-115T_21
  1

  0
LINE
  5
1E8
330
EE
100
AcDbEntity
  8
0
  6
Continuous
 62
     9
370
    18
100
AcDbLine
 10
2.787852831535655
 20
19.47819964375645
 30
0.0
 11
3.787852831535663
 21
20.47819964375647
 31
0.0
  0
LINE
  5
1E9
330
EE
100
AcDbEntity
  8
0
  6
Continuous
 62
     9
370
    18
100
AcDbLine
 10
2.787852831535655
 20
20.18530718770177
 30
0.0
 11
3.787852831535663
 21
21.18530718770178
 31
0.0
  0
LINE
  5
1EA
330
EE
100
AcDbEntity
  8
0
  6
Continuous
 62
     9
370
    18
100
AcDbLine
 10
2.787852831535655
 20
20.89241473164708
 30
0.0
 11
3.787852831535663
 21
21.89241473164709
 31
0.0
  0
LINE
  5
1EB
330
EE
100
AcDbEntity
  8
0
  6
Continuous
 62
     9
370
    18
100
AcDbLine
 10
2.787852831535655
 20
21.59952227559239
 30
0.0
 11
3.787852831535663
 21
22.59952227559241
 31
0.0
  0
LINE
  5
1EC
330
EE
100
AcDbEntity
  8
0
  6
Continuous
 62
     9
370
    18
100
AcDbLine
 10
2.787852831535655
 20
22.3066298195377
 30
0.0
 11
3.787852831535663
 21
23.30662981953772
 31
0.0
  0
LINE
  5
1ED
330
EE
100
AcDbEntity
  8
0
  6
Continuous
 62
     9
370
    18
100
AcDbLine
 10
2.787852831535655
 20
23.01373736348302
 30
0.0
 11
3.787852831535663
 21
24.01373736348303
 31
0.0
  0
LINE
  5
1EE
330
EE
100
AcDbEntity
  8
0
  6
Continuous
 62
     9
370
    18
100
AcDbLine
 10
2.787852831535655
 20
23.72084490742833
 30
0.0
 11
3.787852831535663
 21
24.72084490742834
 31
0.0
  0
LINE
  5
1EF
330
EE
100
AcDbEntity
  8
0
  6
Continuous
 62
     9
370
    18
100
AcDbLine
 10
2.787852831535655
 20
24.42795245137364
 30
0.0
 11
3.787852831535663
 21
25.42795245137366
 31
0.0
  0
LINE
  5
1F0
330
EE
100
AcDbEntity
  8
0
  6
Continuous
 62
     9
370
    18
100
AcDbLine
 10
2.787852831535655
 20
25.13505999531895
 30
0.0
 11
3.787852831535663
 21
26.13505999531897
 31
0.0
  0
LINE
  5
1F1
330
EE
100
AcDbEntity
  8
0
  6
Continuous
 62
     9
370
    18
100
AcDbLine
 10
2.787852831535655
 20
25.84216753926427
 30
0.0
 11
3.787852831535663
 21
26.84216753926428
 31
0.0
  0
LINE
  5
1F2
330
EE
100
AcDbEntity
  8
0
  6
Continuous
 62
     9
370
    18
100
AcDbLine
 10
2.787852831535655
 20
26.54927508320958
 30
0.0
 11
3.485641365530018
 21
27.24706361720395
 31
0.0
  0
LINE
  5
1F3
330
EE
100
AcDbEntity
  8
0
  6
Continuous
 62
     9
370
    18
100
AcDbLine
 10
2.787852831535655
 20
18.77109209981114
 30
0.0
 11
3.787852831535663
 21
19.77109209981116
 31
0.0
  0
LINE
  5
1F4
330
EE
100
AcDbEntity
  8
0
  6
Continuous
 62
     9
370
    18
100
AcDbLine
 10
2.787852831535655
 20
18.06398455586583
 30
0.0
 11
3.787852831535663
 21
19.06398455586584
 31
0.0
  0
LINE
  5
1F5
330
EE
100
AcDbEntity
  8
0
  6
Continuous
 62
     9
370
    18
100
AcDbLine
 10
2.787852831535655
 20
17.35687701192052
 30
0.0
 11
3.787852831535663
 21
18.35687701192053
 31
0.0
  0
LINE
  5
1F6
330
EE
100
AcDbEntity
  8
0
  6
Continuous
 62
     9
370
    18
100
AcDbLine
 10
2.787852831535655
 20
16.6497694679752
 30
0.0
 11
3.787852831535663
 21
17.64976946797522
 31
0.0
  0
LINE
  5
1F7
330
EE
100
AcDbEntity
  8
0
  6
Continuous
 62
     9
370
    18
100
AcDbLine
 10
2.787852831535655
 20
15.94266192402989
 30
0.0
 11
3.787852831535663
 21
16.94266192402991
 31
0.0
  0
LINE
  5
1F8
330
EE
100
AcDbEntity
  8
0
  6
Continuous
 62
     9
370
    18
100
AcDbLine
 10
2.787852831535655
 20
15.23555438008457
 30
0.0
 11
3.787852831535663
 21
16.23555438008459
 31
0.0
  0
LINE
  5
1F9
330
EE
100
AcDbEntity
  8
0
  6
Continuous
 62
     9
370
    18
100
AcDbLine
 10
3.006469612600331
 20
14.74706361720394
 30
0.0
 11
3.787852831535663
 21
15.52844683613929
 31
0.0
  0
LINE
  5
1FA
330
EE
100
AcDbEntity
  8
0
  6
Continuous
 62
     9
370
    18
100
AcDbLine
 10
3.71357715654565
 20
14.74706361720396
 30
0.0
 11
3.787852831535663
 21
14.82133929219397
 31
0.0
  0
ENDBLK
  5
F0
330
EE
100
AcDbEntity
  8
0
100
AcDbBlockEnd
  0
BLOCK
  5
F2
330
F1
100
AcDbEntity
  8
0
100
AcDbBlockBegin
  2
DC_GROUP_ESB-115T_22
 70
     0
 10
0.0
 20
0.0
 30
0.0
  3
DC_GROUP_ESB-115T_22
  1

  0
LINE
  5
1FB
330
F1
100
AcDbEntity
  8
0
  6
Continuous
 62
     9
370
    18
100
AcDbLine
 10
4.787852831535655
 20
19.49706427540929
 30
0.0
 11
5.787852831535659
 21
20.49706427540929
 31
0.0
  0
LINE
  5
1FC
330
F1
100
AcDbEntity
  8
0
  6
Continuous
 62
     9
370
    18
100
AcDbLine
 10
4.787852831535655
 20
20.2041718193546
 30
0.0
 11
5.787852831535659
 21
21.20417181935461
 31
0.0
  0
LINE
  5
1FD
330
F1
100
AcDbEntity
  8
0
  6
Continuous
 62
     9
370
    18
100
AcDbLine
 10
4.787852831535655
 20
20.91127936329991
 30
0.0
 11
5.787852831535659
 21
21.91127936329993
 31
0.0
  0
LINE
  5
1FE
330
F1
100
AcDbEntity
  8
0
  6
Continuous
 62
     9
370
    18
100
AcDbLine
 10
4.787852831535655
 20
21.61838690724522
 30
0.0
 11
5.787852831535659
 21
22.61838690724524
 31
0.0
  0
LINE
  5
1FF
330
F1
100
AcDbEntity
  8
0
  6
Continuous
 62
     9
370
    18
100
AcDbLine
 10
4.787852831535655
 20
22.32549445119054
 30
0.0
 11
5.787852831535659
 21
23.32549445119055
 31
0.0
  0
LINE
  5
200
330
F1
100
AcDbEntity
  8
0
  6
Continuous
 62
     9
370
    18
100
AcDbLine
 10
4.787852831535655
 20
23.03260199513585
 30
0.0
 11
5.787852831535659
 21
24.03260199513586
 31
0.0
  0
LINE
  5
201
330
F1
100
AcDbEntity
  8
0
  6
Continuous
 62
     9
370
    18
100
AcDbLine
 10
4.787852831535655
 20
23.73970953908116
 30
0.0
 11
5.787852831535659
 21
24.73970953908118
 31
0.0
  0
LINE
  5
202
330
F1
100
AcDbEntity
  8
0
  6
Continuous
 62
     9
370
    18
100
AcDbLine
 10
4.787852831535655
 20
24.44681708302647
 30
0.0
 11
5.787852831535659
 21
25.44681708302649
 31
0.0
  0
LINE
  5
203
330
F1
100
AcDbEntity
  8
0
  6
Continuous
 62
     9
370
    18
100
AcDbLine
 10
4.787852831535655
 20
25.15392462697179
 30
0.0
 11
5.787852831535659
 21
26.1539246269718
 31
0.0
  0
LINE
  5
204
330
F1
100
AcDbEntity
  8
0
  6
Continuous
 62
     9
370
    18
100
AcDbLine
 10
4.787852831535655
 20
25.8610321709171
 30
0.0
 11
5.787852831535659
 21
26.86103217091711
 31
0.0
  0
LINE
  5
205
330
F1
100
AcDbEntity
  8
0
  6
Continuous
 62
     9
370
    18
100
AcDbLine
 10
4.787852831535655
 20
26.56813971486241
 30
0.0
 11
5.4667767338772
 21
27.24706361720396
 31
0.0
  0
LINE
  5
206
330
F1
100
AcDbEntity
  8
0
  6
Continuous
 62
     9
370
    18
100
AcDbLine
 10
4.787852831535655
 20
18.78995673146397
 30
0.0
 11
5.787852831535659
 21
19.78995673146397
 31
0.0
  0
LINE
  5
207
330
F1
100
AcDbEntity
  8
0
  6
Continuous
 62
     9
370
    18
100
AcDbLine
 10
4.787852831535655
 20
18.08284918751866
 30
0.0
 11
5.787852831535659
 21
19.08284918751866
 31
0.0
  0
LINE
  5
208
330
F1
100
AcDbEntity
  8
0
  6
Continuous
 62
     9
370
    18
100
AcDbLine
 10
4.787852831535655
 20
17.37574164357335
 30
0.0
 11
5.787852831535659
 21
18.37574164357335
 31
0.0
  0
LINE
  5
209
330
F1
100
AcDbEntity
  8
0
  6
Continuous
 62
     9
370
    18
100
AcDbLine
 10
4.787852831535655
 20
16.66863409962804
 30
0.0
 11
5.787852831535659
 21
17.66863409962804
 31
0.0
  0
LINE
  5
20A
330
F1
100
AcDbEntity
  8
0
  6
Continuous
 62
     9
370
    18
100
AcDbLine
 10
4.787852831535655
 20
15.96152655568272
 30
0.0
 11
5.787852831535659
 21
16.96152655568272
 31
0.0
  0
LINE
  5
20B
330
F1
100
AcDbEntity
  8
0
  6
Continuous
 62
     9
370
    18
100
AcDbLine
 10
4.787852831535655
 20
15.25441901173742
 30
0.0
 11
5.787852831535659
 21
16.25441901173741
 31
0.0
  0
LINE
  5
20C
330
F1
100
AcDbEntity
  8
0
  6
Continuous
 62
     9
370
    18
100
AcDbLine
 10
4.98760498094752
 20
14.74706361720396
 30
0.0
 11
5.787852831535659
 21
15.54731146779209
 31
0.0
  0
LINE
  5
20D
330
F1
100
AcDbEntity
  8
0
  6
Continuous
 62
     9
370
    18
100
AcDbLine
 10
5.694712524892832
 20
14.74706361720396
 30
0.0
 11
5.787852831535659
 21
14.84020392384679
 31
0.0
  0
ENDBLK
  5
F3
330
F1
100
AcDbEntity
  8
0
100
AcDbBlockEnd
  0
BLOCK
  5
F5
330
F4
100
AcDbEntity
  8
0
100
AcDbBlockBegin
  2
DC_GROUP_ESB-115T_23
 70
     0
 10
0.0
 20
0.0
 30
0.0
  3
DC_GROUP_ESB-115T_23
  1

  0
LINE
  5
20E
330
F4
100
AcDbEntity
  8
0
  6
Continuous
 62
     9
370
    18
100
AcDbLine
 10
-1.212297686344957
 20
-54.8995982740265
 30
0.0
 11
-0.2122976863449821
 21
-53.89959827402652
 31
0.0
  0
LINE
  5
20F
330
F4
100
AcDbEntity
  8
0
  6
Continuous
 62
     9
370
    18
100
AcDbLine
 10
-1.212297686344957
 20
-54.19249073008119
 30
0.0
 11
-0.2122976863449821
 21
-53.19249073008121
 31
0.0
  0
LINE
  5
210
330
F4
100
AcDbEntity
  8
0
  6
Continuous
 62
     9
370
    18
100
AcDbLine
 10
-1.212297686344957
 20
-53.48538318613588
 30
0.0
 11
-0.2122976863449821
 21
-52.4853831861359
 31
0.0
  0
LINE
  5
211
330
F4
100
AcDbEntity
  8
0
  6
Continuous
 62
     9
370
    18
100
AcDbLine
 10
-1.212297686344957
 20
-52.77827564219056
 30
0.0
 11
-0.2122976863449821
 21
-51.77827564219059
 31
0.0
  0
LINE
  5
212
330
F4
100
AcDbEntity
  8
0
  6
Continuous
 62
     9
370
    18
100
AcDbLine
 10
-1.212297686344957
 20
-52.07116809824525
 30
0.0
 11
-0.2122976863449821
 21
-51.07116809824527
 31
0.0
  0
LINE
  5
213
330
F4
100
AcDbEntity
  8
0
  6
Continuous
 62
     9
370
    18
100
AcDbLine
 10
-1.212297686344957
 20
-51.36406055429994
 30
0.0
 11
-0.2122976863449821
 21
-50.36406055429996
 31
0.0
  0
LINE
  5
214
330
F4
100
AcDbEntity
  8
0
  6
Continuous
 62
     9
370
    18
100
AcDbLine
 10
-1.212297686344957
 20
-50.65695301035463
 30
0.0
 11
-0.2122976863449821
 21
-49.65695301035465
 31
0.0
  0
LINE
  5
215
330
F4
100
AcDbEntity
  8
0
  6
Continuous
 62
     9
370
    18
100
AcDbLine
 10
-1.212297686344957
 20
-49.94984546640931
 30
0.0
 11
-0.2122976863449821
 21
-48.94984546640934
 31
0.0
  0
LINE
  5
216
330
F4
100
AcDbEntity
  8
0
  6
Continuous
 62
     9
370
    18
100
AcDbLine
 10
-1.212297686344957
 20
-49.242737922464
 30
0.0
 11
-0.2122976863449821
 21
-48.24273792246402
 31
0.0
  0
LINE
  5
217
330
F4
100
AcDbEntity
  8
0
  6
Continuous
 62
     9
370
    18
100
AcDbLine
 10
-1.212297686344957
 20
-48.53563037851869
 30
0.0
 11
-0.2122976863449821
 21
-47.53563037851871
 31
0.0
  0
LINE
  5
218
330
F4
100
AcDbEntity
  8
0
  6
Continuous
 62
     9
370
    18
100
AcDbLine
 10
-1.212297686344957
 20
-47.82852283457338
 30
0.0
 11
-0.6367112345676222
 21
-47.25293638279604
 31
0.0
  0
LINE
  5
219
330
F4
100
AcDbEntity
  8
0
  6
Continuous
 62
     9
370
    18
100
AcDbLine
 10
-1.212297686344957
 20
-47.12141529062806
 30
0.0
 11
-1.137143115121627
 21
-47.04626071940473
 31
0.0
  0
LINE
  5
21A
330
F4
100
AcDbEntity
  8
0
  6
Continuous
 62
     9
370
    18
100
AcDbLine
 10
-1.212297686344957
 20
-55.60670581797181
 30
0.0
 11
-0.2122976863449821
 21
-54.60670581797184
 31
0.0
  0
LINE
  5
21B
330
F4
100
AcDbEntity
  8
0
  6
Continuous
 62
     9
370
    18
100
AcDbLine
 10
-1.212297686344957
 20
-56.31381336191713
 30
0.0
 11
-0.2122976863449821
 21
-55.31381336191715
 31
0.0
  0
LINE
  5
21C
330
F4
100
AcDbEntity
  8
0
  6
Continuous
 62
     9
370
    18
100
AcDbLine
 10
-1.212297686344957
 20
-57.02092090586244
 30
0.0
 11
-0.2122976863449821
 21
-56.02092090586246
 31
0.0
  0
LINE
  5
21D
330
F4
100
AcDbEntity
  8
0
  6
Continuous
 62
     9
370
    18
100
AcDbLine
 10
-1.212297686344957
 20
-57.72802844980775
 30
0.0
 11
-0.2122976863449821
 21
-56.72802844980777
 31
0.0
  0
LINE
  5
21E
330
F4
100
AcDbEntity
  8
0
  6
Continuous
 62
     9
370
    18
100
AcDbLine
 10
-1.212297686344957
 20
-58.43513599375306
 30
0.0
 11
-0.2122976863449821
 21
-57.43513599375309
 31
0.0
  0
LINE
  5
21F
330
F4
100
AcDbEntity
  8
0
  6
Continuous
 62
     9
370
    18
100
AcDbLine
 10
-1.212297686344957
 20
-59.14224353769838
 30
0.0
 11
-0.2122976863449821
 21
-58.14224353769839
 31
0.0
  0
LINE
  5
220
330
F4
100
AcDbEntity
  8
0
  6
Continuous
 62
     9
370
    18
100
AcDbLine
 10
-1.115882987497304
 20
-59.75293638279604
 30
0.0
 11
-0.2122976863449821
 21
-58.84935108164372
 31
0.0
  0
LINE
  5
221
330
F4
100
AcDbEntity
  8
0
  6
Continuous
 62
     9
370
    18
100
AcDbLine
 10
-0.4087754435519924
 20
-59.75293638279604
 30
0.0
 11
-0.2122976863449821
 21
-59.55645862558902
 31
0.0
  0
ENDBLK
  5
F6
330
F4
100
AcDbEntity
  8
0
100
AcDbBlockEnd
  0
BLOCK
  5
F8
330
F7
100
AcDbEntity
  8
0
100
AcDbBlockBegin
  2
DC_GROUP_ESB-115T_24
 70
     0
 10
0.0
 20
0.0
 30
0.0
  3
DC_GROUP_ESB-115T_24
  1

  0
LINE
  5
222
330
F7
100
AcDbEntity
  8
0
  6
Continuous
 62
     9
370
    18
100
AcDbLine
 10
0.7877023136550365
 20
-54.8995982740265
 30
0.0
 11
1.787702313655013
 21
-53.89959827402653
 31
0.0
  0
LINE
  5
223
330
F7
100
AcDbEntity
  8
0
  6
Continuous
 62
     9
370
    18
100
AcDbLine
 10
0.7877023136550365
 20
-54.19249073008119
 30
0.0
 11
1.787702313655013
 21
-53.19249073008122
 31
0.0
  0
LINE
  5
224
330
F7
100
AcDbEntity
  8
0
  6
Continuous
 62
     9
370
    18
100
AcDbLine
 10
0.7877023136550365
 20
-53.48538318613588
 30
0.0
 11
1.787702313655013
 21
-52.48538318613591
 31
0.0
  0
LINE
  5
225
330
F7
100
AcDbEntity
  8
0
  6
Continuous
 62
     9
370
    18
100
AcDbLine
 10
0.7877023136550365
 20
-52.77827564219056
 30
0.0
 11
1.787702313655013
 21
-51.77827564219059
 31
0.0
  0
LINE
  5
226
330
F7
100
AcDbEntity
  8
0
  6
Continuous
 62
     9
370
    18
100
AcDbLine
 10
0.7877023136550365
 20
-52.07116809824525
 30
0.0
 11
1.787702313655013
 21
-51.07116809824528
 31
0.0
  0
LINE
  5
227
330
F7
100
AcDbEntity
  8
0
  6
Continuous
 62
     9
370
    18
100
AcDbLine
 10
0.7877023136550365
 20
-51.36406055429994
 30
0.0
 11
1.787702313655013
 21
-50.36406055429997
 31
0.0
  0
LINE
  5
228
330
F7
100
AcDbEntity
  8
0
  6
Continuous
 62
     9
370
    18
100
AcDbLine
 10
0.7877023136550365
 20
-50.65695301035463
 30
0.0
 11
1.787702313655013
 21
-49.65695301035466
 31
0.0
  0
LINE
  5
229
330
F7
100
AcDbEntity
  8
0
  6
Continuous
 62
     9
370
    18
100
AcDbLine
 10
0.7877023136550365
 20
-49.94984546640931
 30
0.0
 11
1.787702313655013
 21
-48.94984546640934
 31
0.0
  0
LINE
  5
22A
330
F7
100
AcDbEntity
  8
0
  6
Continuous
 62
     9
370
    18
100
AcDbLine
 10
0.7877023136550365
 20
-49.242737922464
 30
0.0
 11
1.787702313655013
 21
-48.24273792246403
 31
0.0
  0
LINE
  5
22B
330
F7
100
AcDbEntity
  8
0
  6
Continuous
 62
     9
370
    18
100
AcDbLine
 10
0.7877023136550365
 20
-48.53563037851869
 30
0.0
 11
1.787702313655013
 21
-47.53563037851872
 31
0.0
  0
LINE
  5
22C
330
F7
100
AcDbEntity
  8
0
  6
Continuous
 62
     9
370
    18
100
AcDbLine
 10
0.7877023136550365
 20
-47.82852283457338
 30
0.0
 11
1.363288765432376
 21
-47.25293638279604
 31
0.0
  0
LINE
  5
22D
330
F7
100
AcDbEntity
  8
0
  6
Continuous
 62
     9
370
    18
100
AcDbLine
 10
0.7877023136550365
 20
-55.60670581797181
 30
0.0
 11
1.787702313655013
 21
-54.60670581797184
 31
0.0
  0
LINE
  5
22E
330
F7
100
AcDbEntity
  8
0
  6
Continuous
 62
     9
370
    18
100
AcDbLine
 10
0.7877023136550365
 20
-56.31381336191713
 30
0.0
 11
1.787702313655013
 21
-55.31381336191716
 31
0.0
  0
LINE
  5
22F
330
F7
100
AcDbEntity
  8
0
  6
Continuous
 62
     9
370
    18
100
AcDbLine
 10
0.7877023136550365
 20
-57.02092090586244
 30
0.0
 11
1.787702313655013
 21
-56.02092090586247
 31
0.0
  0
LINE
  5
230
330
F7
100
AcDbEntity
  8
0
  6
Continuous
 62
     9
370
    18
100
AcDbLine
 10
0.7877023136550365
 20
-57.72802844980775
 30
0.0
 11
1.787702313655013
 21
-56.72802844980778
 31
0.0
  0
LINE
  5
231
330
F7
100
AcDbEntity
  8
0
  6
Continuous
 62
     9
370
    18
100
AcDbLine
 10
0.7877023136550365
 20
-58.43513599375306
 30
0.0
 11
1.787702313655013
 21
-57.43513599375309
 31
0.0
  0
LINE
  5
232
330
F7
100
AcDbEntity
  8
0
  6
Continuous
 62
     9
370
    18
100
AcDbLine
 10
0.7877023136550365
 20
-59.14224353769838
 30
0.0
 11
1.787702313655013
 21
-58.14224353769841
 31
0.0
  0
LINE
  5
233
330
F7
100
AcDbEntity
  8
0
  6
Continuous
 62
     9
370
    18
100
AcDbLine
 10
0.8841170125026956
 20
-59.75293638279604
 30
0.0
 11
1.787702313655013
 21
-58.84935108164372
 31
0.0
  0
LINE
  5
234
330
F7
100
AcDbEntity
  8
0
  6
Continuous
 62
     9
370
    18
100
AcDbLine
 10
1.591224556448008
 20
-59.75293638279604
 30
0.0
 11
1.787702313655013
 21
-59.55645862558902
 31
0.0
  0
ENDBLK
  5
F9
330
F7
100
AcDbEntity
  8
0
100
AcDbBlockEnd
  0
BLOCK
  5
FB
330
FA
100
AcDbEntity
  8
0
100
AcDbBlockBegin
  2
DC_GROUP_ESB-115T_25
 70
     0
 10
0.0
 20
0.0
 30
0.0
  3
DC_GROUP_ESB-115T_25
  1

  0
LINE
  5
235
330
FA
100
AcDbEntity
  8
0
  6
Continuous
 62
     9
370
    18
100
AcDbLine
 10
2.787702313655043
 20
-54.8995982740265
 30
0.0
 11
3.787702313655004
 21
-53.89959827402654
 31
0.0
  0
LINE
  5
236
330
FA
100
AcDbEntity
  8
0
  6
Continuous
 62
     9
370
    18
100
AcDbLine
 10
2.787702313655043
 20
-54.19249073008119
 30
0.0
 11
3.787702313655004
 21
-53.19249073008123
 31
0.0
  0
LINE
  5
237
330
FA
100
AcDbEntity
  8
0
  6
Continuous
 62
     9
370
    18
100
AcDbLine
 10
2.787702313655043
 20
-53.48538318613588
 30
0.0
 11
3.787702313655004
 21
-52.48538318613591
 31
0.0
  0
LINE
  5
238
330
FA
100
AcDbEntity
  8
0
  6
Continuous
 62
     9
370
    18
100
AcDbLine
 10
2.787702313655043
 20
-52.77827564219056
 30
0.0
 11
3.787702313655004
 21
-51.7782756421906
 31
0.0
  0
LINE
  5
239
330
FA
100
AcDbEntity
  8
0
  6
Continuous
 62
     9
370
    18
100
AcDbLine
 10
2.787702313655043
 20
-52.07116809824525
 30
0.0
 11
3.787702313655004
 21
-51.07116809824529
 31
0.0
  0
LINE
  5
23A
330
FA
100
AcDbEntity
  8
0
  6
Continuous
 62
     9
370
    18
100
AcDbLine
 10
2.787702313655043
 20
-51.36406055429994
 30
0.0
 11
3.787702313655004
 21
-50.36406055429998
 31
0.0
  0
LINE
  5
23B
330
FA
100
AcDbEntity
  8
0
  6
Continuous
 62
     9
370
    18
100
AcDbLine
 10
2.787702313655043
 20
-50.65695301035463
 30
0.0
 11
3.787702313655004
 21
-49.65695301035466
 31
0.0
  0
LINE
  5
23C
330
FA
100
AcDbEntity
  8
0
  6
Continuous
 62
     9
370
    18
100
AcDbLine
 10
2.787702313655043
 20
-49.94984546640931
 30
0.0
 11
3.787702313655004
 21
-48.94984546640935
 31
0.0
  0
LINE
  5
23D
330
FA
100
AcDbEntity
  8
0
  6
Continuous
 62
     9
370
    18
100
AcDbLine
 10
2.787702313655043
 20
-49.242737922464
 30
0.0
 11
3.787702313655004
 21
-48.24273792246404
 31
0.0
  0
LINE
  5
23E
330
FA
100
AcDbEntity
  8
0
  6
Continuous
 62
     9
370
    18
100
AcDbLine
 10
2.787702313655043
 20
-48.53563037851869
 30
0.0
 11
3.787702313655004
 21
-47.53563037851873
 31
0.0
  0
LINE
  5
23F
330
FA
100
AcDbEntity
  8
0
  6
Continuous
 62
     9
370
    18
100
AcDbLine
 10
2.787702313655043
 20
-47.82852283457338
 30
0.0
 11
3.363288765432372
 21
-47.25293638279604
 31
0.0
  0
LINE
  5
240
330
FA
100
AcDbEntity
  8
0
  6
Continuous
 62
     9
370
    18
100
AcDbLine
 10
2.787702313655043
 20
-55.60670581797181
 30
0.0
 11
3.787702313655004
 21
-54.60670581797185
 31
0.0
  0
LINE
  5
241
330
FA
100
AcDbEntity
  8
0
  6
Continuous
 62
     9
370
    18
100
AcDbLine
 10
2.787702313655043
 20
-56.31381336191713
 30
0.0
 11
3.787702313655004
 21
-55.31381336191716
 31
0.0
  0
LINE
  5
242
330
FA
100
AcDbEntity
  8
0
  6
Continuous
 62
     9
370
    18
100
AcDbLine
 10
2.787702313655043
 20
-57.02092090586244
 30
0.0
 11
3.787702313655004
 21
-56.02092090586248
 31
0.0
  0
LINE
  5
243
330
FA
100
AcDbEntity
  8
0
  6
Continuous
 62
     9
370
    18
100
AcDbLine
 10
2.787702313655043
 20
-57.72802844980775
 30
0.0
 11
3.787702313655004
 21
-56.72802844980779
 31
0.0
  0
LINE
  5
244
330
FA
100
AcDbEntity
  8
0
  6
Continuous
 62
     9
370
    18
100
AcDbLine
 10
2.787702313655043
 20
-58.43513599375306
 30
0.0
 11
3.787702313655004
 21
-57.4351359937531
 31
0.0
  0
LINE
  5
245
330
FA
100
AcDbEntity
  8
0
  6
Continuous
 62
     9
370
    18
100
AcDbLine
 10
2.787702313655043
 20
-59.14224353769838
 30
0.0
 11
3.787702313655004
 21
-58.14224353769841
 31
0.0
  0
LINE
  5
246
330
FA
100
AcDbEntity
  8
0
  6
Continuous
 62
     9
370
    18
100
AcDbLine
 10
2.884117012502688
 20
-59.75293638279604
 30
0.0
 11
3.787702313655004
 21
-58.84935108164373
 31
0.0
  0
LINE
  5
247
330
FA
100
AcDbEntity
  8
0
  6
Continuous
 62
     9
370
    18
100
AcDbLine
 10
3.591224556448005
 20
-59.75293638279604
 30
0.0
 11
3.787702313655004
 21
-59.55645862558903
 31
0.0
  0
ENDBLK
  5
FC
330
FA
100
AcDbEntity
  8
0
100
AcDbBlockEnd
  0
BLOCK
  5
FE
330
FD
100
AcDbEntity
  8
0
100
AcDbBlockBegin
  2
DC_GROUP_ESB-115T_26
 70
     0
 10
0.0
 20
0.0
 30
0.0
  3
DC_GROUP_ESB-115T_26
  1

  0
LINE
  5
248
330
FD
100
AcDbEntity
  8
0
  6
Continuous
 62
     9
370
    18
100
AcDbLine
 10
4.787702313655039
 20
-54.8995982740265
 30
0.0
 11
5.787702313655036
 21
-53.8995982740265
 31
0.0
  0
LINE
  5
249
330
FD
100
AcDbEntity
  8
0
  6
Continuous
 62
     9
370
    18
100
AcDbLine
 10
4.787702313655039
 20
-54.19249073008119
 30
0.0
 11
5.787702313655036
 21
-53.19249073008119
 31
0.0
  0
LINE
  5
24A
330
FD
100
AcDbEntity
  8
0
  6
Continuous
 62
     9
370
    18
100
AcDbLine
 10
4.787702313655039
 20
-53.48538318613588
 30
0.0
 11
5.787702313655036
 21
-52.48538318613588
 31
0.0
  0
LINE
  5
24B
330
FD
100
AcDbEntity
  8
0
  6
Continuous
 62
     9
370
    18
100
AcDbLine
 10
4.787702313655039
 20
-52.77827564219056
 30
0.0
 11
5.787702313655036
 21
-51.77827564219056
 31
0.0
  0
LINE
  5
24C
330
FD
100
AcDbEntity
  8
0
  6
Continuous
 62
     9
370
    18
100
AcDbLine
 10
4.787702313655039
 20
-52.07116809824525
 30
0.0
 11
5.787702313655036
 21
-51.07116809824526
 31
0.0
  0
LINE
  5
24D
330
FD
100
AcDbEntity
  8
0
  6
Continuous
 62
     9
370
    18
100
AcDbLine
 10
4.787702313655039
 20
-51.36406055429994
 30
0.0
 11
5.787702313655036
 21
-50.36406055429995
 31
0.0
  0
LINE
  5
24E
330
FD
100
AcDbEntity
  8
0
  6
Continuous
 62
     9
370
    18
100
AcDbLine
 10
4.787702313655039
 20
-50.65695301035463
 30
0.0
 11
5.787702313655036
 21
-49.65695301035463
 31
0.0
  0
LINE
  5
24F
330
FD
100
AcDbEntity
  8
0
  6
Continuous
 62
     9
370
    18
100
AcDbLine
 10
4.787702313655039
 20
-49.94984546640931
 30
0.0
 11
5.787702313655036
 21
-48.94984546640932
 31
0.0
  0
LINE
  5
250
330
FD
100
AcDbEntity
  8
0
  6
Continuous
 62
     9
370
    18
100
AcDbLine
 10
4.787702313655039
 20
-49.242737922464
 30
0.0
 11
5.787702313655036
 21
-48.24273792246401
 31
0.0
  0
LINE
  5
251
330
FD
100
AcDbEntity
  8
0
  6
Continuous
 62
     9
370
    18
100
AcDbLine
 10
4.787702313655039
 20
-48.53563037851869
 30
0.0
 11
5.787702313655036
 21
-47.5356303785187
 31
0.0
  0
LINE
  5
252
330
FD
100
AcDbEntity
  8
0
  6
Continuous
 62
     9
370
    18
100
AcDbLine
 10
4.787702313655039
 20
-47.82852283457338
 30
0.0
 11
5.363288765432371
 21
-47.25293638279604
 31
0.0
  0
LINE
  5
253
330
FD
100
AcDbEntity
  8
0
  6
Continuous
 62
     9
370
    18
100
AcDbLine
 10
4.787702313655039
 20
-55.60670581797181
 30
0.0
 11
5.787702313655036
 21
-54.60670581797181
 31
0.0
  0
LINE
  5
254
330
FD
100
AcDbEntity
  8
0
  6
Continuous
 62
     9
370
    18
100
AcDbLine
 10
4.787702313655039
 20
-56.31381336191713
 30
0.0
 11
5.787702313655036
 21
-55.31381336191713
 31
0.0
  0
LINE
  5
255
330
FD
100
AcDbEntity
  8
0
  6
Continuous
 62
     9
370
    18
100
AcDbLine
 10
4.787702313655039
 20
-57.02092090586244
 30
0.0
 11
5.787702313655036
 21
-56.02092090586244
 31
0.0
  0
LINE
  5
256
330
FD
100
AcDbEntity
  8
0
  6
Continuous
 62
     9
370
    18
100
AcDbLine
 10
4.787702313655039
 20
-57.72802844980775
 30
0.0
 11
5.787702313655036
 21
-56.72802844980775
 31
0.0
  0
LINE
  5
257
330
FD
100
AcDbEntity
  8
0
  6
Continuous
 62
     9
370
    18
100
AcDbLine
 10
4.787702313655039
 20
-58.43513599375306
 30
0.0
 11
5.787702313655036
 21
-57.43513599375306
 31
0.0
  0
LINE
  5
258
330
FD
100
AcDbEntity
  8
0
  6
Continuous
 62
     9
370
    18
100
AcDbLine
 10
4.787702313655039
 20
-59.14224353769838
 30
0.0
 11
5.787702313655036
 21
-58.14224353769838
 31
0.0
  0
LINE
  5
259
330
FD
100
AcDbEntity
  8
0
  6
Continuous
 62
     9
370
    18
100
AcDbLine
 10
4.884117012502692
 20
-59.75293638279604
 30
0.0
 11
5.787702313655036
 21
-58.8493510816437
 31
0.0
  0
LINE
  5
25A
330
FD
100
AcDbEntity
  8
0
  6
Continuous
 62
     9
370
    18
100
AcDbLine
 10
5.591224556448008
 20
-59.75293638279604
 30
0.0
 11
5.787702313655036
 21
-59.556458625589
 31
0.0
  0
ENDBLK
  5
FF
330
FD
100
AcDbEntity
  8
0
100
AcDbBlockEnd
  0
BLOCK
  5
101
330
100
100
AcDbEntity
  8
0
100
AcDbBlockBegin
  2
DC_GROUP_ESB-115T_27
 70
     0
 10
0.0
 20
0.0
 30
0.0
  3
DC_GROUP_ESB-115T_27
  1

  0
LINE
  5
25B
330
100
100
AcDbEntity
  8
0
  6
Continuous
 62
     3
370
    18
100
AcDbLine
 10
-44.51214716846434
 20
2.247063617204013
 30
0.0
 11
-23.64612176467992
 21
2.247063617204006
 31
0.0
  0
LINE
  5
25C
330
100
100
AcDbEntity
  8
0
  6
Continuous
 62
     3
370
    18
100
AcDbLine
 10
-44.51214716846434
 20
-34.75293638279605
 30
0.0
 11
-23.64612176467992
 21
-34.75293638279604
 31
0.0
  0
LINE
  5
25D
330
100
100
AcDbEntity
  8
0
  6
Continuous
 62
     4
370
    18
100
AcDbLine
 10
-44.51214716846434
 20
2.747063617203978
 30
0.0
 11
-24.51214716846434
 21
2.747063617203978
 31
0.0
  0
LINE
  5
25E
330
100
100
AcDbEntity
  8
0
  6
Continuous
 62
     4
370
    18
100
AcDbLine
 10
-24.51214716846434
 20
2.747063617203978
 30
0.0
 11
-22.7800963608954
 21
1.747063617203978
 31
0.0
  0
LINE
  5
25F
330
100
100
AcDbEntity
  8
0
  6
Continuous
 62
     4
370
    18
100
AcDbLine
 10
-44.51214716846434
 20
-35.25293638279602
 30
0.0
 11
-24.51214716846434
 21
-35.25293638279602
 31
0.0
  0
LINE
  5
260
330
100
100
AcDbEntity
  8
0
  6
Continuous
 62
     4
370
    18
100
AcDbLine
 10
-24.51214716846434
 20
-35.25293638279602
 30
0.0
 11
-22.78009636089542
 21
-34.25293638279602
 31
0.0
  0
ENDBLK
  5
102
330
100
100
AcDbEntity
  8
0
100
AcDbBlockEnd
  0
BLOCK
  5
104
330
103
100
AcDbEntity
  8
0
100
AcDbBlockBegin
  2
DC_GROUP_ESB-115T_28
 70
     0
 10
0.0
 20
0.0
 30
0.0
  3
DC_GROUP_ESB-115T_28
  1

  0
LINE
  5
261
330
103
100
AcDbEntity
  8
0
  6
Continuous
 62
     3
370
    18
100
AcDbLine
 10
-33.01214716846435
 20
-37.05293638279603
 30
0.0
 11
-33.01214716846435
 21
-43.45293638279601
 31
0.0
  0
LINE
  5
262
330
103
100
AcDbEntity
  8
0
  6
Continuous
 62
     3
370
    18
100
AcDbLine
 10
-44.51214716846435
 20
-37.55293638279603
 30
0.0
 11
-44.51214716846435
 21
-42.95293638279601
 31
0.0
  0
LINE
  5
263
330
103
100
AcDbEntity
  8
0
  6
Continuous
 62
     3
370
    18
100
AcDbLine
 10
-33.51214716846435
 20
-36.55293638279603
 30
0.0
 11
-43.51214716846435
 21
-36.55293638279603
 31
0.0
  0
LINE
  5
264
330
103
100
AcDbEntity
  8
0
  6
Continuous
 62
     3
370
    18
100
AcDbLine
 10
-43.51214716846435
 20
-43.95293638279601
 30
0.0
 11
-33.51214716846435
 21
-43.95293638279601
 31
0.0
  0
LINE
  5
265
330
103
100
AcDbEntity
  8
0
  6
Continuous
 62
     3
370
    18
100
AcDbLine
 10
-33.01214716846435
 20
-37.05293638279603
 30
0.0
 11
-33.51214716846435
 21
-36.55293638279603
 31
0.0
  0
LINE
  5
266
330
103
100
AcDbEntity
  8
0
  6
Continuous
 62
     3
370
    18
100
AcDbLine
 10
-33.01214716846435
 20
-43.45293638279601
 30
0.0
 11
-33.51214716846435
 21
-43.95293638279601
 31
0.0
  0
LINE
  5
267
330
103
100
AcDbEntity
  8
0
  6
Continuous
 62
     3
370
    18
100
AcDbLine
 10
-44.51214716846435
 20
-37.55293638279603
 30
0.0
 11
-43.51214716846435
 21
-36.55293638279603
 31
0.0
  0
LINE
  5
268
330
103
100
AcDbEntity
  8
0
  6
Continuous
 62
     3
370
    18
100
AcDbLine
 10
-44.51214716846435
 20
-42.95293638279601
 30
0.0
 11
-43.51214716846435
 21
-43.95293638279601
 31
0.0
  0
LINE
  5
269
330
103
100
AcDbEntity
  8
0
  6
Continuous
 62
     3
370
    18
100
AcDbLine
 10
-33.51214716846435
 20
-36.55293638279603
 30
0.0
 11
-33.51214716846435
 21
-43.95293638279601
 31
0.0
  0
LINE
  5
26A
330
103
100
AcDbEntity
  8
0
  6
Continuous
 62
     3
370
    18
100
AcDbLine
 10
-43.51214716846435
 20
-36.55293638279603
 30
0.0
 11
-43.51214716846435
 21
-43.95293638279601
 31
0.0
  0
ENDBLK
  5
105
330
103
100
AcDbEntity
  8
0
100
AcDbBlockEnd
  0
BLOCK
  5
107
330
106
100
AcDbEntity
  8
0
100
AcDbBlockBegin
  2
DC_GROUP_ESB-115T_29
 70
     0
 10
0.0
 20
0.0
 30
0.0
  3
DC_GROUP_ESB-115T_29
  1

  0
LINE
  5
26B
330
106
100
AcDbEntity
  8
0
  6
Continuous
 62
     3
370
    18
100
AcDbLine
 10
-59.26214716846438
 20
13.74706361720401
 30
0.0
 11
-59.51214716846438
 21
14.18006361720401
 31
0.0
  0
LINE
  5
26C
330
106
100
AcDbEntity
  8
0
  6
Continuous
 62
     3
370
    18
100
AcDbLine
 10
-59.26214716846438
 20
18.74706361720401
 30
0.0
 11
-59.51214716846438
 21
18.31406361720401
 31
0.0
  0
LINE
  5
26D
330
106
100
AcDbEntity
  8
0
  6
Continuous
 62
     3
370
    18
100
AcDbLine
 10
-59.51214716846438
 20
14.18006361720401
 30
0.0
 11
-59.51214716846438
 21
18.31406361720401
 31
0.0
  0
LINE
  5
26E
330
106
100
AcDbEntity
  8
0
  6
Continuous
 62
     3
370
    18
100
AcDbLine
 10
-59.26214716846438
 20
13.74706361720401
 30
0.0
 11
-45.31214716846438
 21
13.74706361720401
 31
0.0
  0
LINE
  5
26F
330
106
100
AcDbEntity
  8
0
  6
Continuous
 62
     3
370
    18
100
AcDbLine
 10
-45.31214716846438
 20
13.74706361720401
 30
0.0
 11
-45.31214716846438
 21
18.74706361720401
 31
0.0
  0
LINE
  5
270
330
106
100
AcDbEntity
  8
0
  6
Continuous
 62
     3
370
    18
100
AcDbLine
 10
-45.31214716846438
 20
18.74706361720401
 30
0.0
 11
-59.26214716846438
 21
18.74706361720401
 31
0.0
  0
LINE
  5
271
330
106
100
AcDbEntity
  8
0
  6
Continuous
 62
     3
370
    18
100
AcDbLine
 10
-59.26214716846438
 20
18.74706361720401
 30
0.0
 11
-59.26214716846438
 21
13.74706361720401
 31
0.0
  0
LINE
  5
272
330
106
100
AcDbEntity
  8
0
  6
Continuous
 62
     3
370
    18
100
AcDbLine
 10
-45.31214716846438
 20
13.74706361720401
 30
0.0
 11
-44.51214716846438
 21
14.54706361720402
 31
0.0
  0
LINE
  5
273
330
106
100
AcDbEntity
  8
0
  6
Continuous
 62
     3
370
    18
100
AcDbLine
 10
-45.31214716846438
 20
18.74706361720401
 30
0.0
 11
-44.51214716846438
 21
17.94706361720402
 31
0.0
  0
LINE
  5
274
330
106
100
AcDbEntity
  8
0
  6
Continuous
 62
     3
370
    18
100
AcDbLine
 10
-44.51214716846438
 20
14.54706361720402
 30
0.0
 11
-44.51214716846438
 21
17.94706361720402
 31
0.0
  0
LINE
  5
275
330
106
100
AcDbEntity
  8
0
  6
Continuous
 62
     4
370
    18
100
AcDbLine
 10
-59.51214716846438
 20
14.18006361720401
 30
0.0
 11
-44.87914716846439
 21
14.18006361720401
 31
0.0
  0
LINE
  5
276
330
106
100
AcDbEntity
  8
0
  6
Continuous
 62
     4
370
    18
100
AcDbLine
 10
-59.51214716846438
 20
18.31406361720401
 30
0.0
 11
-44.87914716846439
 21
18.31406361720401
 31
0.0
  0
ENDBLK
  5
108
330
106
100
AcDbEntity
  8
0
100
AcDbBlockEnd
  0
BLOCK
  5
10A
330
109
100
AcDbEntity
  8
0
100
AcDbBlockBegin
  2
DC_GROUP_ESB-115T_30
 70
     0
 10
0.0
 20
0.0
 30
0.0
  3
DC_GROUP_ESB-115T_30
  1

  0
LINE
  5
277
330
109
100
AcDbEntity
  8
0
  6
Continuous
 62
     3
370
    18
100
AcDbLine
 10
20.48785283153561
 20
-68.31993638279604
 30
0.0
 11
9.48785283153561
 21
-68.31993638279603
 31
0.0
  0
LINE
  5
278
330
109
100
AcDbEntity
  8
0
  6
Continuous
 62
     3
370
    18
100
AcDbLine
 10
20.48785283153561
 20
-64.18593638279604
 30
0.0
 11
9.48785283153561
 21
-64.18593638279603
 31
0.0
  0
LINE
  5
279
330
109
100
AcDbEntity
  8
0
  6
Continuous
 62
     4
370
    18
100
AcDbLine
 10
20.48785283153561
 20
-68.75293638279604
 30
0.0
 11
9.48785283153561
 21
-68.75293638279604
 31
0.0
  0
LINE
  5
27A
330
109
100
AcDbEntity
  8
0
  6
Continuous
 62
     4
370
    18
100
AcDbLine
 10
20.48785283153561
 20
-63.75293638279604
 30
0.0
 11
9.48785283153561
 21
-63.75293638279604
 31
0.0
  0
ENDBLK
  5
10B
330
109
100
AcDbEntity
  8
0
100
AcDbBlockEnd
  0
BLOCK
  5
10D
330
10C
100
AcDbEntity
  8
0
100
AcDbBlockBegin
  2
DC_GROUP_ESB-115T_31
 70
     0
 10
0.0
 20
0.0
 30
0.0
  3
DC_GROUP_ESB-115T_31
  1

  0
LINE
  5
27B
330
10C
100
AcDbEntity
  8
0
  6
Continuous
 62
     3
370
    18
100
AcDbLine
 10
-26.51214716846438
 20
2.747063617203992
 30
0.0
 11
-26.51214716846438
 21
-35.25293638279601
 31
0.0
  0
LINE
  5
27C
330
10C
100
AcDbEntity
  8
0
  6
Continuous
 62
     3
370
    18
100
AcDbLine
 10
-41.51214716846438
 20
1.747063617203992
 30
0.0
 11
-41.51214716846438
 21
2.747063617203992
 31
0.0
  0
LINE
  5
27D
330
10C
100
AcDbEntity
  8
0
  6
Continuous
 62
     3
370
    18
100
AcDbLine
 10
-41.51214716846438
 20
-34.25293638279601
 30
0.0
 11
-41.51214716846438
 21
-35.25293638279601
 31
0.0
  0
LINE
  5
27E
330
10C
100
AcDbEntity
  8
0
  6
Continuous
 62
     3
370
    18
100
AcDbLine
 10
-26.51214716846438
 20
-2.252936382796008
 30
0.0
 11
-49.51214716846438
 21
-2.252936382796008
 31
0.0
  0
LINE
  5
27F
330
10C
100
AcDbEntity
  8
0
  6
Continuous
 62
     3
370
    18
100
AcDbLine
 10
-41.51214716846438
 20
1.747063617203992
 30
0.0
 11
-44.51214716846438
 21
1.747063617203992
 31
0.0
  0
LINE
  5
280
330
10C
100
AcDbEntity
  8
0
  6
Continuous
 62
     3
370
    18
100
AcDbLine
 10
-41.51214716846438
 20
-34.25293638279601
 30
0.0
 11
-44.51214716846438
 21
-34.25293638279601
 31
0.0
  0
LINE
  5
281
330
10C
100
AcDbEntity
  8
0
  6
Continuous
 62
     3
370
    18
100
AcDbLine
 10
-41.51214716846438
 20
-35.25293638279601
 30
0.0
 11
-26.51214716846438
 21
-35.25293638279601
 31
0.0
  0
LINE
  5
282
330
10C
100
AcDbEntity
  8
0
  6
Continuous
 62
     3
370
    18
100
AcDbLine
 10
-41.51214716846438
 20
2.747063617203992
 30
0.0
 11
-26.51214716846438
 21
2.747063617203992
 31
0.0
  0
LINE
  5
283
330
10C
100
AcDbEntity
  8
0
  6
Continuous
 62
     3
370
    18
100
AcDbLine
 10
-51.51214716846438
 20
23.74706361720402
 30
0.0
 11
-44.51214716846438
 21
23.74706361720402
 31
0.0
  0
LINE
  5
284
330
10C
100
AcDbEntity
  8
0
  6
Continuous
 62
     3
370
    18
100
AcDbLine
 10
-44.51214716846438
 20
-56.25293638279597
 30
0.0
 11
-51.51214716846438
 21
-56.25293638279597
 31
0.0
  0
LINE
  5
285
330
10C
100
AcDbEntity
  8
0
  6
Continuous
 62
     3
370
    18
100
AcDbLine
 10
-26.51214716846438
 20
-30.252936382796
 30
0.0
 11
-49.51214716846438
 21
-30.252936382796
 31
0.0
  0
LINE
  5
286
330
10C
100
AcDbEntity
  8
0
  6
Continuous
 62
     3
370
    18
100
AcDbLine
 10
-44.51214716846438
 20
-56.25293638279597
 30
0.0
 11
-44.51214716846438
 21
-34.25293638279601
 31
0.0
  0
LINE
  5
287
330
10C
100
AcDbEntity
  8
0
  6
Continuous
 62
     3
370
    18
100
AcDbLine
 10
-44.51214716846438
 20
1.747063617203992
 30
0.0
 11
-44.51214716846438
 21
23.74706361720402
 31
0.0
  0
LINE
  5
288
330
10C
100
AcDbEntity
  8
0
  6
Continuous
 62
     3
370
    18
100
AcDbLine
 10
-49.51214716846438
 20
-2.252936382796008
 30
0.0
 11
-51.51214716846438
 21
-0.2529363827960083
 31
0.0
  0
LINE
  5
289
330
10C
100
AcDbEntity
  8
0
  6
Continuous
 62
     3
370
    18
100
AcDbLine
 10
-49.51214716846438
 20
-30.252936382796
 30
0.0
 11
-51.51214716846438
 21
-32.25293638279601
 31
0.0
  0
LINE
  5
28A
330
10C
100
AcDbEntity
  8
0
  6
Continuous
 62
     3
370
    18
100
AcDbLine
 10
-49.51214716846438
 20
-2.252936382796008
 30
0.0
 11
-49.51214716846438
 21
-30.252936382796
 31
0.0
  0
LINE
  5
28B
330
10C
100
AcDbEntity
  8
0
  6
Continuous
 62
     3
370
    18
100
AcDbLine
 10
-51.51214716846438
 20
-46.65293638279598
 30
0.0
 11
-44.51214716846438
 21
-46.65293638279598
 31
0.0
  0
LINE
  5
28C
330
10C
100
AcDbEntity
  8
0
  6
Continuous
 62
     3
370
    18
100
AcDbLine
 10
-51.51214716846438
 20
-50.85293638279597
 30
0.0
 11
-44.51214716846438
 21
-50.85293638279597
 31
0.0
  0
LINE
  5
28D
330
10C
100
AcDbEntity
  8
0
  6
Continuous
 62
     3
370
    18
100
AcDbLine
 10
-51.51214716846438
 20
23.74706361720402
 30
0.0
 11
-51.51214716846438
 21
18.74706361720402
 31
0.0
  0
LINE
  5
28E
330
10C
100
AcDbEntity
  8
0
  6
Continuous
 62
     3
370
    18
100
AcDbLine
 10
-51.51214716846438
 20
13.74706361720403
 30
0.0
 11
-51.51214716846438
 21
-56.25293638279597
 31
0.0
  0
LINE
  5
28F
330
10C
100
AcDbEntity
  8
0
  6
Continuous
 62
     4
370
    18
100
AcDbLine
 10
-60.2825491031836
 20
16.24706361720402
 30
0.0
 11
-41.47232547028955
 21
16.24706361720402
 31
0.0
  0
LINE
  5
290
330
10C
100
AcDbEntity
  8
0
  6
Continuous
 62
     4
370
    18
100
AcDbLine
 10
-55.94814920824
 20
-48.75293638279597
 30
0.0
 11
-39.21064283394118
 21
-48.75293638279597
 31
0.0
  0
LINE
  5
291
330
10C
100
AcDbEntity
  8
0
  6
Continuous
 62
     4
370
    18
100
AcDbLine
 10
-26.51214716846425
 20
2.247063617203992
 30
0.0
 11
-41.51214716846438
 21
2.247063617203992
 31
0.0
  0
LINE
  5
292
330
10C
100
AcDbEntity
  8
0
  6
Continuous
 62
     4
370
    18
100
AcDbLine
 10
-26.51214716846425
 20
-34.75293638279601
 30
0.0
 11
-41.51214716846438
 21
-34.75293638279601
 31
0.0
  0
INSERT
  5
293
330
10C
100
AcDbEntity
  8
0
  6
Continuous
100
AcDbBlockReference
  2
DC_GROUP_ESB-115T_32
 10
0.0
 20
0.0
 30
0.0
  0
ENDBLK
  5
10E
330
10C
100
AcDbEntity
  8
0
100
AcDbBlockEnd
  0
BLOCK
  5
110
330
10F
100
AcDbEntity
  8
0
100
AcDbBlockBegin
  2
DC_GROUP_ESB-115T_32
 70
     0
 10
0.0
 20
0.0
 30
0.0
  3
DC_GROUP_ESB-115T_32
  1

  0
LINE
  5
294
330
10F
100
AcDbEntity
  8
0
  6
Continuous
 62
     3
370
    18
100
AcDbLine
 10
-44.51214716846438
 20
14.18006361720401
 30
0.0
 11
-51.51214716846438
 21
14.18006361720401
 31
0.0
  0
LINE
  5
295
330
10F
100
AcDbEntity
  8
0
  6
Continuous
 62
     3
370
    18
100
AcDbLine
 10
-44.51214716846438
 20
18.31406361720403
 30
0.0
 11
-51.51214716846438
 21
18.31406361720403
 31
0.0
  0
LINE
  5
296
330
10F
100
AcDbEntity
  8
0
  6
Continuous
 62
     4
370
    18
100
AcDbLine
 10
-44.51214716846438
 20
13.74706361720403
 30
0.0
 11
-51.51214716846438
 21
13.74706361720403
 31
0.0
  0
LINE
  5
297
330
10F
100
AcDbEntity
  8
0
  6
Continuous
 62
     4
370
    18
100
AcDbLine
 10
-44.51214716846438
 20
18.74706361720402
 30
0.0
 11
-51.51214716846438
 21
18.74706361720402
 31
0.0
  0
ENDBLK
  5
111
330
10F
100
AcDbEntity
  8
0
100
AcDbBlockEnd
  0
BLOCK
  5
113
330
112
100
AcDbEntity
  8
0
100
AcDbBlockBegin
  2
DC_GROUP_ESB-115T_33
 70
     0
 10
0.0
 20
0.0
 30
0.0
  3
DC_GROUP_ESB-115T_33
  1

  0
LINE
  5
298
330
112
100
AcDbEntity
  8
0
  6
Continuous
 62
     4
370
    18
100
AcDbLine
 10
170.4645650029956
 20
23.62788607612521
 30
0.0
 11
165.0905534659778
 21
29.00189761314296
 31
0.0
  0
LINE
  5
299
330
112
100
AcDbEntity
  8
0
  6
Continuous
 62
     4
370
    18
100
AcDbLine
 10
165.0905534659778
 20
29.00189761314296
 30
0.0
 11
164.3834466847914
 21
28.29479083195636
 31
0.0
  0
LINE
  5
29A
330
112
100
AcDbEntity
  8
0
  6
Continuous
 62
     4
370
    18
100
AcDbLine
 10
170.4645650029956
 20
23.62788607612521
 30
0.0
 11
169.7574582218091
 21
22.92077929493863
 31
0.0
  0
LINE
  5
29B
330
112
100
AcDbEntity
  8
0
  6
Continuous
 62
     4
370
    18
100
AcDbLine
 10
169.7574582218091
 20
22.92077929493863
 30
0.0
 11
164.3834466847914
 21
28.29479083195636
 31
0.0
  0
LINE
  5
29C
330
112
100
AcDbEntity
  8
0
  6
Continuous
 62
     4
370
    18
100
AcDbLine
 10
167.682824888996
 20
26.40962619012483
 30
0.0
 11
167.1651867987909
 21
25.51305071795676
 31
0.0
  0
LINE
  5
29D
330
112
100
AcDbEntity
  8
0
  6
Continuous
 62
     4
370
    18
100
AcDbLine
 10
165.302685500334
 20
28.78976557878697
 30
0.0
 11
167.918980590724
 21
31.40606066917721
 31
0.0
  0
LINE
  5
29E
330
112
100
AcDbEntity
  8
0
  6
Continuous
 62
     4
370
    18
100
AcDbLine
 10
170.2524329686397
 20
23.84001811048114
 30
0.0
 11
172.8687280590299
 21
26.45631320087138
 31
0.0
  0
LINE
  5
29F
330
112
100
AcDbEntity
  8
0
  6
Continuous
 62
     4
370
    18
100
AcDbLine
 10
167.918980590724
 20
31.40606066917721
 30
0.0
 11
168.4985362578088
 21
31.25076907080437
 31
0.0
  0
LINE
  5
2A0
330
112
100
AcDbEntity
  8
0
  6
Continuous
 62
     4
370
    18
100
AcDbLine
 10
172.8687280590299
 20
26.45631320087138
 30
0.0
 11
172.7134364606571
 21
27.03586886795613
 31
0.0
  0
LINE
  5
2A1
330
112
100
AcDbEntity
  8
0
  6
Continuous
 62
     4
370
    18
100
AcDbLine
 10
172.7134364606571
 20
27.03586886795613
 30
0.0
 11
168.4985362578088
 21
31.25076907080437
 31
0.0
  0
LINE
  5
2A2
330
112
100
AcDbEntity
  8
0
  6
Continuous
 62
     4
370
    18
100
AcDbLine
 10
172.8687280590299
 20
26.45631320087138
 30
0.0
 11
167.918980590724
 21
31.40606066917721
 31
0.0
  0
ENDBLK
  5
114
330
112
100
AcDbEntity
  8
0
100
AcDbBlockEnd
  0
BLOCK
  5
116
330
115
100
AcDbEntity
  8
0
100
AcDbBlockBegin
  2
DC_GROUP_ESB-115T_34
 70
     0
 10
0.0
 20
0.0
 30
0.0
  3
DC_GROUP_ESB-115T_34
  1

  0
LINE
  5
2A3
330
115
100
AcDbEntity
  8
0
  6
Continuous
 62
     4
370
    18
100
AcDbLine
 10
184.3419781210481
 20
-4.342548007522758
 30
0.0
 11
182.3749533782689
 21
2.998488272274152
 31
0.0
  0
LINE
  5
2A4
330
115
100
AcDbEntity
  8
0
  6
Continuous
 62
     4
370
    18
100
AcDbLine
 10
182.3749533782689
 20
2.998488272274152
 30
0.0
 11
181.4090275519799
 21
2.739669227171582
 31
0.0
  0
LINE
  5
2A5
330
115
100
AcDbEntity
  8
0
  6
Continuous
 62
     4
370
    18
100
AcDbLine
 10
184.3419781210481
 20
-4.342548007522758
 30
0.0
 11
183.376052294759
 21
-4.601367052625328
 31
0.0
  0
LINE
  5
2A6
330
115
100
AcDbEntity
  8
0
  6
Continuous
 62
     4
370
    18
100
AcDbLine
 10
183.376052294759
 20
-4.601367052625328
 30
0.0
 11
181.4090275519799
 21
2.739669227171582
 31
0.0
  0
LINE
  5
2A7
330
115
100
AcDbEntity
  8
0
  6
Continuous
 62
     4
370
    18
100
AcDbLine
 10
183.323790572598
 20
-0.5426203450730682
 30
0.0
 11
182.4272151004299
 21
-1.060258435278115
 31
0.0
  0
LINE
  5
2A8
330
115
100
AcDbEntity
  8
0
  6
Continuous
 62
     4
370
    18
100
AcDbLine
 10
182.4525990917998
 20
2.708710524387385
 30
0.0
 11
186.0265246490692
 21
3.666340991266757
 31
0.0
  0
LINE
  5
2A9
330
115
100
AcDbEntity
  8
0
  6
Continuous
 62
     4
370
    18
100
AcDbLine
 10
184.2643324075173
 20
-4.052770259636063
 30
0.0
 11
187.8382579647869
 21
-3.095139792756754
 31
0.0
  0
LINE
  5
2AA
330
115
100
AcDbEntity
  8
0
  6
Continuous
 62
     4
370
    18
100
AcDbLine
 10
186.0265246490692
 20
3.666340991266757
 30
0.0
 11
186.4507887804855
 21
3.242076688539193
 31
0.0
  0
LINE
  5
2AB
330
115
100
AcDbEntity
  8
0
  6
Continuous
 62
     4
370
    18
100
AcDbLine
 10
187.8382579647869
 20
-3.095139792756754
 30
0.0
 11
187.9935493291441
 21
-2.515584062967676
 31
0.0
  0
LINE
  5
2AC
330
115
100
AcDbEntity
  8
0
  6
Continuous
 62
     4
370
    18
100
AcDbLine
 10
187.9935493291441
 20
-2.515584062967676
 30
0.0
 11
186.4507887804855
 21
3.242076688539193
 31
0.0
  0
LINE
  5
2AD
330
115
100
AcDbEntity
  8
0
  6
Continuous
 62
     4
370
    18
100
AcDbLine
 10
187.8382579647869
 20
-3.095139792756754
 30
0.0
 11
186.0265246490692
 21
3.666340991266757
 31
0.0
  0
ENDBLK
  5
117
330
115
100
AcDbEntity
  8
0
100
AcDbBlockEnd
  0
BLOCK
  5
119
330
118
100
AcDbEntity
  8
0
100
AcDbBlockBegin
  2
DC_GROUP_ESB-115T_35
 70
     0
 10
0.0
 20
0.0
 30
0.0
  3
DC_GROUP_ESB-115T_35
  1

  0
LINE
  5
2AE
330
118
100
AcDbEntity
  8
0
  6
Continuous
 62
     3
370
    18
100
AcDbLine
 10
144.1196141052197
 20
40.7967465366892
 30
0.0
 11
145.0513626675887
 21
44.27407951132984
 31
0.0
  0
LINE
  5
2AF
330
118
100
AcDbEntity
  8
0
  6
Continuous
 62
     3
370
    18
100
AcDbLine
 10
145.0513626675887
 20
44.27407951132984
 30
0.0
 11
144.4856772426394
 21
44.83976493627908
 31
0.0
  0
LINE
  5
2B0
330
118
100
AcDbEntity
  8
0
  6
Continuous
 62
     3
370
    18
100
AcDbLine
 10
145.0513626675887
 20
44.27407951132984
 30
0.0
 11
138.2898818835652
 21
46.08581282704743
 31
0.0
  0
LINE
  5
2B1
330
118
100
AcDbEntity
  8
0
  6
Continuous
 62
     3
370
    18
100
AcDbLine
 10
137.3581333211961
 20
42.60847985240679
 30
0.0
 11
138.2898818835652
 21
46.08581282704743
 31
0.0
  0
LINE
  5
2B2
330
118
100
AcDbEntity
  8
0
  6
Continuous
 62
     3
370
    18
100
AcDbLine
 10
138.2898818835652
 20
46.08581282704743
 30
0.0
 11
139.0626225445965
 21
46.29286806312946
 31
0.0
  0
LINE
  5
2B3
330
118
100
AcDbEntity
  8
0
  6
Continuous
 62
     3
370
    18
100
AcDbLine
 10
144.4856772426394
 20
44.83976493627908
 30
0.0
 11
139.0626225445965
 21
46.29286806312946
 31
0.0
  0
LINE
  5
2B4
330
118
100
AcDbEntity
  8
0
  6
Continuous
 62
     3
370
    18
100
AcDbLine
 10
137.1166518646238
 20
42.67318461368242
 30
0.0
 11
136.9095966285419
 21
41.90044395265117
 31
0.0
  0
LINE
  5
2B5
330
118
100
AcDbEntity
  8
0
  6
Continuous
 62
     3
370
    18
100
AcDbLine
 10
144.1540403257099
 20
39.95930111438231
 30
0.0
 11
136.9095966285419
 21
41.90044395265117
 31
0.0
  0
LINE
  5
2B6
330
118
100
AcDbEntity
  8
0
  6
Continuous
 62
     3
370
    18
100
AcDbLine
 10
144.1540403257099
 20
39.95930111438231
 30
0.0
 11
144.3610955617919
 21
40.73204177541356
 31
0.0
  0
LINE
  5
2B7
330
118
100
AcDbEntity
  8
0
  6
Continuous
 62
     3
370
    18
100
AcDbLine
 10
144.3610955617919
 20
40.73204177541356
 30
0.0
 11
137.1166518646238
 21
42.67318461368242
 31
0.0
  0
ENDBLK
  5
11A
330
118
100
AcDbEntity
  8
0
100
AcDbBlockEnd
  0
BLOCK
  5
11C
330
11B
100
AcDbEntity
  8
0
100
AcDbBlockBegin
  2
DC_GROUP_ESB-115T_36
 70
     0
 10
0.0
 20
0.0
 30
0.0
  3
DC_GROUP_ESB-115T_36
  1

  0
CIRCLE
  5
2B8
330
11B
100
AcDbEntity
  8
0
  6
Continuous
 62
     3
370
    18
100
AcDbCircle
 10
-81.80436787172769
 20
-3.311718058910714
 30
0.0
 40
2.067000000000007
  0
CIRCLE
  5
2B9
330
11B
100
AcDbEntity
  8
0
  6
Continuous
 62
     4
370
    18
100
AcDbCircle
 10
-81.80436787172769
 20
-3.311718058910714
 30
0.0
 40
2.5
  0
ENDBLK
  5
11D
330
11B
100
AcDbEntity
  8
0
100
AcDbBlockEnd
  0
BLOCK
  5
11F
330
11E
100
AcDbEntity
  8
0
100
AcDbBlockBegin
  2
DC_GROUP_ESB-115T_37
 70
     0
 10
0.0
 20
0.0
 30
0.0
  3
DC_GROUP_ESB-115T_37
  1

  0
CIRCLE
  5
2BA
330
11E
100
AcDbEntity
  8
0
  6
Continuous
 62
     3
370
    18
100
AcDbCircle
 10
-178.3969505006345
 20
-29.19362256916272
 30
0.0
 40
2.067000000000007
  0
CIRCLE
  5
2BB
330
11E
100
AcDbEntity
  8
0
  6
Continuous
 62
     4
370
    18
100
AcDbCircle
 10
-178.3969505006345
 20
-29.19362256916272
 30
0.0
 40
2.5
  0
ENDBLK
  5
120
330
11E
100
AcDbEntity
  8
0
100
AcDbBlockEnd
  0
ENDSEC
  0
SECTION
  2
ENTITIES
  0
LINE
  5
2BC
330
1F
100
AcDbEntity
  8
0
  6
Continuous
 62
     4
370
    18
100
AcDbLine
 10
-130.1006591861812
 20
46.05140834253113
 30
0.0
 11
-130.1006591861812
 21
-79.46105380515115
 31
0.0
  0
CIRCLE
  5
2BD
330
1F
100
AcDbEntity
  8
0
  6
Continuous
 62
     4
370
    18
100
AcDbCircle
 10
-130.1006591861811
 20
-16.2526703140367
 30
0.0
 40
50.0
  0
LINE
  5
2BE
330
1F
100
AcDbEntity
  8
0
  6
Continuous
 62
     4
370
    18
100
AcDbLine
 10
-71.62215520739902
 20
-0.5834023983418462
 30
0.0
 11
-91.59378674337593
 21
-5.934784939938773
 31
0.0
  0
LINE
  5
2BF
330
1F
100
AcDbEntity
  8
0
  6
Continuous
 62
     4
370
    18
100
AcDbLine
 10
-168.6221517189886
 20
-26.57447312944398
 30
0.0
 11
-188.0359830535253
 21
-31.77639355752709
 31
0.0
  0
LINE
  5
2C0
330
1F
100
AcDbEntity
  8
0
  6
Continuous
 62
     4
370
    18
100
AcDbLine
 10
-189.104531530042
 20
-16.25293638279603
 30
0.0
 11
-67.52786331458
 21
-16.25293638279605
 31
0.0
  0
LINE
  5
2C1
330
1F
100
AcDbEntity
  8
0
  6
Continuous
 62
     4
370
    18
100
AcDbLine
 10
-160.3994031012283
 20
36.22602748358399
 30
0.0
 11
-149.8817025594333
 21
18.00883576640035
 31
0.0
  0
LINE
  5
2C2
330
1F
100
AcDbEntity
  8
0
  6
Continuous
 62
     4
370
    18
100
AcDbLine
 10
-182.5796230525611
 20
14.04580753225112
 30
0.0
 11
-164.3624313353776
 21
3.528106990456102
 31
0.0
  0
LINE
  5
2C3
330
1F
100
AcDbEntity
  8
0
  6
Continuous
 62
     4
370
    18
100
AcDbLine
 10
-182.5796230525611
 20
-46.55168029784321
 30
0.0
 11
-164.3624313353776
 21
-36.03397975604823
 31
0.0
  0
LINE
  5
2C4
330
1F
100
AcDbEntity
  8
0
  6
Continuous
 62
     4
370
    18
100
AcDbLine
 10
-160.3994031012284
 20
-68.7319002491761
 30
0.0
 11
-149.8817025594334
 21
-50.51470853199248
 31
0.0
  0
LINE
  5
2C5
330
1F
100
AcDbEntity
  8
0
  6
Continuous
 62
     4
370
    18
100
AcDbLine
 10
-99.80191527113395
 20
-68.73190024917616
 30
0.0
 11
-110.319615812929
 21
-50.51470853199247
 31
0.0
  0
LINE
  5
2C6
330
1F
100
AcDbEntity
  8
0
  6
Continuous
 62
     4
370
    18
100
AcDbLine
 10
-77.621695319801
 20
-46.55168029784329
 30
0.0
 11
-95.83888703698467
 21
-36.03397975604827
 31
0.0
  0
LINE
  5
2C7
330
1F
100
AcDbEntity
  8
0
  6
Continuous
 62
     4
370
    18
100
AcDbLine
 10
-77.62169531980098
 20
14.04580753225107
 30
0.0
 11
-95.83888703698466
 21
3.528106990456102
 31
0.0
  0
LINE
  5
2C8
330
1F
100
AcDbEntity
  8
0
  6
Continuous
 62
     4
370
    18
100
AcDbLine
 10
-99.80191527113385
 20
36.22602748358398
 30
0.0
 11
-110.3196158129289
 21
18.00883576640037
 31
0.0
  0
LINE
  5
2C9
330
1F
100
AcDbEntity
  8
0
  6
Continuous
 62
     4
370
    18
100
AcDbLine
 10
-155.1464793662516
 20
77.21937615097984
 30
0.0
 11
-144.2320104509914
 21
36.48602362159727
 31
0.0
  0
CIRCLE
  5
2CA
330
1F
100
AcDbEntity
  8
0
  6
Continuous
 62
     4
370
    18
100
AcDbCircle
 10
-130.1006591861812
 20
-16.25293638279603
 30
0.0
 40
32.5
  0
LINE
  5
2CB
330
1F
100
AcDbEntity
  8
0
  6
Continuous
 62
     4
370
    18
100
AcDbLine
 10
-53.46469337301729
 20
-16.25293638279603
 30
0.0
 11
35.38162448447487
 21
-16.25293638279604
 31
0.0
  0
LINE
  5
2CC
330
1F
100
AcDbEntity
  8
0
  6
Continuous
 62
     4
370
    18
100
AcDbLine
 10
-46.64699472671219
 20
33.74706361720399
 30
0.0
 11
34.3510032232912
 21
33.74706361720395
 31
0.0
  0
LINE
  5
2CD
330
1F
100
AcDbEntity
  8
0
  6
Continuous
 62
     4
370
    18
100
AcDbLine
 10
-48.33434397260254
 20
-66.25293638279604
 30
0.0
 11
24.26523702850227
 21
-66.25293638279604
 31
0.0
  0
LINE
  5
2CE
330
1F
100
AcDbEntity
  8
0
  6
Continuous
 62
     4
370
    18
100
AcDbLine
 10
-9.022716239585282
 20
-40.25293638279604
 30
0.0
 11
-50.30040565470348
 21
-40.25293638279604
 31
0.0
  0
LINE
  5
2CF
330
1F
100
AcDbEntity
  8
0
  6
Continuous
 62
     4
370
    18
100
AcDbLine
 10
22.94015429709249
 20
18.74706361720395
 30
0.0
 11
4.287852831535654
 21
18.74706361720395
 31
0.0
  0
LINE
  5
2D0
330
1F
100
AcDbEntity
  8
0
  6
Continuous
 62
     4
370
    18
100
AcDbLine
 10
-9.892387067994452
 20
-37.15293638279604
 30
0.0
 11
-33.81266446117002
 21
-37.15293638279604
 31
0.0
  0
LINE
  5
2D1
330
1F
100
AcDbEntity
  8
0
  6
Continuous
 62
     4
370
    18
100
AcDbLine
 10
-33.81266446117002
 20
-43.35293638279602
 30
0.0
 11
-9.892387067994456
 21
-43.35293638279603
 31
0.0
  0
LINE
  5
2D2
330
1F
100
AcDbEntity
  8
0
  6
Continuous
 62
     4
370
    18
100
AcDbLine
 10
13.48785283153566
 20
51.05228185755557
 30
0.0
 11
13.48785283153565
 21
38.47948893885072
 31
0.0
  0
LINE
  5
2D3
330
1F
100
AcDbEntity
  8
0
  6
Continuous
 62
     4
370
    18
100
AcDbLine
 10
-20.11214716846429
 20
79.46105380515114
 30
0.0
 11
-20.11214716846429
 21
39.158371812814
 31
0.0
  0
LINE
  5
2D4
330
1F
100
AcDbEntity
  8
0
  6
Continuous
 62
     4
370
    18
100
AcDbLine
 10
-17.91214716846433
 20
79.46105380515114
 30
0.0
 11
-17.91214716846433
 21
39.158371812814
 31
0.0
  0
LINE
  5
2D5
330
1F
100
AcDbEntity
  8
0
  6
Continuous
 62
     4
370
    18
100
AcDbLine
 10
125.2097310070566
 20
45.54462404250781
 30
0.0
 11
125.2097310070566
 21
-78.73491689418178
 31
0.0
  0
ARC
  5
2D6
330
1F
100
AcDbEntity
  8
0
  6
Continuous
 62
     4
370
    18
100
AcDbCircle
 10
125.2097310070566
 20
-16.25293638279607
 30
0.0
 40
17.5
100
AcDbArc
 50
161.7172450677443
 51
209.5813432705424
  0
ARC
  5
2D7
330
1F
100
AcDbEntity
  8
0
  6
Continuous
 62
     4
370
    18
100
AcDbCircle
 10
125.2097310070566
 20
-16.25293638279607
 30
0.0
 40
17.5
100
AcDbArc
 50
342.8146343889568
 51
29.66374885537552
  0
ARC
  5
2D8
330
1F
100
AcDbEntity
  8
0
  6
Continuous
 62
     4
370
    18
100
AcDbCircle
 10
125.2097310070566
 20
-16.25293638279607
 30
0.0
 40
35.0
100
AcDbArc
 50
153.4343984288198
 51
191.1882362427776
  0
ARC
  5
2D9
330
1F
100
AcDbEntity
  8
0
  6
Continuous
 62
     4
370
    18
100
AcDbCircle
 10
125.2097310070566
 20
-16.25293638279607
 30
0.0
 40
35.0
100
AcDbArc
 50
333.3624020127296
 51
12.83296322965076
  0
LINE
  5
2DA
330
1F
100
AcDbEntity
  8
0
  6
Continuous
 62
     4
370
    18
100
AcDbLine
 10
62.92668511449996
 20
-16.25293638279604
 30
0.0
 11
189.104531530042
 21
-16.25293638279609
 31
0.0
  0
LINE
  5
2DB
330
1F
100
AcDbEntity
  8
0
  6
Continuous
 62
     4
370
    18
100
AcDbLine
 10
95.02431957788953
 20
36.02972985989179
 30
0.0
 11
105.2635686704045
 21
18.2948302003024
 31
0.0
  0
LINE
  5
2DC
330
1F
100
AcDbEntity
  8
0
  6
Continuous
 62
     4
370
    18
100
AcDbLine
 10
72.92706476436885
 20
13.93247504637115
 30
0.0
 11
90.66196442395825
 21
3.693225953856185
 31
0.0
  0
LINE
  5
2DD
330
1F
100
AcDbEntity
  8
0
  6
Continuous
 62
     4
370
    18
100
AcDbLine
 10
72.92706476436881
 20
-46.4383478119632
 30
0.0
 11
90.66196442395824
 21
-36.19909871944826
 31
0.0
  0
LINE
  5
2DE
330
1F
100
AcDbEntity
  8
0
  6
Continuous
 62
     4
370
    18
100
AcDbLine
 10
95.02431957788939
 20
-68.53560262548385
 30
0.0
 11
105.2635686704044
 21
-50.80070296589448
 31
0.0
  0
LINE
  5
2DF
330
1F
100
AcDbEntity
  8
0
  6
Continuous
 62
     4
370
    18
100
AcDbLine
 10
155.3951424362238
 20
-68.53560262548392
 30
0.0
 11
145.1558933437088
 21
-50.80070296589453
 31
0.0
  0
LINE
  5
2E0
330
1F
100
AcDbEntity
  8
0
  6
Continuous
 62
     4
370
    18
100
AcDbLine
 10
177.4923972497445
 20
-46.43834781196328
 30
0.0
 11
159.7574975901551
 21
-36.19909871944834
 31
0.0
  0
LINE
  5
2E1
330
1F
100
AcDbEntity
  8
0
  6
Continuous
 62
     4
370
    18
100
AcDbLine
 10
177.4923972497445
 20
13.93247504637105
 30
0.0
 11
159.7574975901551
 21
3.693225953856114
 31
0.0
  0
LINE
  5
2E2
330
1F
100
AcDbEntity
  8
0
  6
Continuous
 62
     4
370
    18
100
AcDbLine
 10
155.3951424362239
 20
36.02972985989172
 30
0.0
 11
145.155893343709
 21
18.29483020030234
 31
0.0
  0
LINE
  5
2E3
330
1F
100
AcDbEntity
  8
0
  6
Continuous
 62
     4
370
    18
100
AcDbLine
 10
164.2068007322789
 20
22.74413334242604
 30
0.0
 11
171.2991497500005
 21
29.83648236014768
 31
0.0
  0
LINE
  5
2E4
330
1F
100
AcDbEntity
  8
0
  6
Continuous
 62
     4
370
    18
100
AcDbLine
 10
178.2666171972718
 20
-2.036386575217932
 30
0.0
 11
188.8520122596706
 21
0.7999614833162241
 31
0.0
  0
LINE
  5
2E5
330
1F
100
AcDbEntity
  8
0
  6
Continuous
 62
     4
370
    18
100
AcDbLine
 10
131.6419459291888
 20
7.752416511803553
 30
0.0
 11
150.4538067639992
 21
77.95923693223133
 31
0.0
  0
CIRCLE
  5
2E6
330
1F
100
AcDbEntity
  8
0
  6
Continuous
 62
     4
370
    18
100
AcDbCircle
 10
125.2097310070566
 20
-16.25293638279607
 30
0.0
 40
50.0
  0
CIRCLE
  5
2E7
330
1F
100
AcDbEntity
  8
0
  6
Continuous
 62
     4
370
    18
100
AcDbCircle
 10
-150.2886236888343
 20
59.08961194702124
 30
0.0
 40
1.100000000000009
  0
ARC
  5
2E8
330
1F
100
AcDbEntity
  8
0
  6
Continuous
 62
     4
370
    18
100
AcDbCircle
 10
-149.2533475084242
 20
55.22590864186493
 30
0.0
 40
1.100000000000001
100
AcDbArc
 50
15.00000000000228
 51
194.9999999999984
  0
LINE
  5
2E9
330
1F
100
AcDbEntity
  8
0
  6
Continuous
 62
     4
370
    18
100
AcDbLine
 10
-11.01214716846434
 20
41.24706361720398
 30
0.0
 11
-11.01214716846435
 21
36.24706361720398
 31
0.0
  0
LINE
  5
2EA
330
1F
100
AcDbEntity
  8
0
  6
Continuous
 62
     4
370
    18
100
AcDbLine
 10
-11.01214716846444
 20
31.24706361720398
 30
0.0
 11
-11.01214716846434
 21
-36.6333211405254
 31
0.0
  0
LINE
  5
2EB
330
1F
100
AcDbEntity
  8
0
  6
Continuous
 62
     4
370
    18
100
AcDbLine
 10
-11.01214716846436
 20
-43.87255162506671
 30
0.0
 11
-11.01214716846436
 21
-63.75293638279604
 31
0.0
  0
LINE
  5
2EC
330
1F
100
AcDbEntity
  8
0
  6
Continuous
 62
     4
370
    18
100
AcDbLine
 10
-11.01214716846437
 20
-68.75293638279602
 30
0.0
 11
-11.01214716846438
 21
-73.75293638279604
 31
0.0
  0
LINE
  5
2ED
330
1F
100
AcDbEntity
  8
0
  6
Continuous
 62
     4
370
    18
100
AcDbLine
 10
-10.71214716846433
 20
41.24706361720398
 30
0.0
 11
-10.71214716846434
 21
36.24706361720395
 31
0.0
  0
LINE
  5
2EE
330
1F
100
AcDbEntity
  8
0
  6
Continuous
 62
     4
370
    18
100
AcDbLine
 10
-10.71214716846433
 20
31.24706361720398
 30
0.0
 11
-10.71214716846435
 21
-61.35293638279602
 31
0.0
  0
LINE
  5
2EF
330
1F
100
AcDbEntity
  8
0
  6
Continuous
 62
     4
370
    18
100
AcDbLine
 10
-10.71214716846435
 20
-71.15293638279603
 30
0.0
 11
-10.71214716846436
 21
-73.75293638279604
 31
0.0
  0
LINE
  5
2F0
330
1F
100
AcDbEntity
  8
0
  6
Continuous
 62
     4
370
    18
100
AcDbLine
 10
17.98785283153564
 20
26.24706361720396
 30
0.0
 11
17.28785283153566
 21
26.24706361720396
 31
0.0
  0
LINE
  5
2F1
330
1F
100
AcDbEntity
  8
0
  6
Continuous
 62
     4
370
    18
100
AcDbLine
 10
17.28785283153564
 20
-58.75293638279604
 30
0.0
 11
17.98785283153562
 21
-58.75293638279604
 31
0.0
  0
ARC
  5
2F2
330
1F
100
AcDbEntity
  8
0
  6
Continuous
 62
     4
370
    18
100
AcDbCircle
 10
-20.11214716846437
 20
61.74706361720393
 30
0.0
 40
1.100000000000009
100
AcDbArc
 50
180.0000000000015
 51
359.9999999999985
  0
CIRCLE
  5
2F3
330
1F
100
AcDbEntity
  8
0
  6
Continuous
 62
     4
370
    18
100
AcDbCircle
 10
-17.91214716846435
 20
61.74706361720403
 30
0.0
 40
1.100000000000009
  0
CIRCLE
  5
2F4
330
1F
100
AcDbEntity
  8
0
  6
Continuous
 62
     4
370
    18
100
AcDbCircle
 10
-20.11214716846435
 20
57.74706361720393
 30
0.0
 40
1.099999999999991
  0
ARC
  5
2F5
330
1F
100
AcDbEntity
  8
0
  6
Continuous
 62
     4
370
    18
100
AcDbCircle
 10
-17.91214716846435
 20
57.74706361720393
 30
0.0
 40
1.100000000000001
100
AcDbArc
 50
0.0000000000022206
 51
179.9999999999985
  0
LINE
  5
2F6
330
1F
100
AcDbEntity
  8
0
  6
Continuous
 62
     4
370
    18
100
AcDbLine
 10
17.28785283153564
 20
-58.10293638279605
 30
0.0
 11
9.487852831535621
 21
-58.10293638279605
 31
0.0
  0
LINE
  5
2F7
330
1F
100
AcDbEntity
  8
0
  6
Continuous
 62
     4
370
    18
100
AcDbLine
 10
17.28785283153566
 20
25.59706361720396
 30
0.0
 11
9.487852831535651
 21
25.59706361720396
 31
0.0
  0
CIRCLE
  5
2F8
330
1F
100
AcDbEntity
  8
0
  6
Continuous
 62
     4
370
    18
100
AcDbCircle
 10
125.2097310070566
 20
33.74706361720395
 30
0.0
 40
2.0
  0
CIRCLE
  5
2F9
330
1F
100
AcDbEntity
  8
0
  6
Continuous
 62
     4
370
    18
100
AcDbCircle
 10
100.2097310070566
 20
27.04833380642584
 30
0.0
 40
2.5
  0
CIRCLE
  5
2FA
330
1F
100
AcDbEntity
  8
0
  6
Continuous
 62
     4
370
    18
100
AcDbCircle
 10
81.90846081783471
 20
8.747063617203963
 30
0.0
 40
2.0
  0
CIRCLE
  5
2FB
330
1F
100
AcDbEntity
  8
0
  6
Continuous
 62
     4
370
    18
100
AcDbCircle
 10
75.2097310070567
 20
-16.25293638279604
 30
0.0
 40
2.5
  0
CIRCLE
  5
2FC
330
1F
100
AcDbEntity
  8
0
  6
Continuous
 62
     4
370
    18
100
AcDbCircle
 10
81.90846081783471
 20
-41.25293638279605
 30
0.0
 40
2.0
  0
CIRCLE
  5
2FD
330
1F
100
AcDbEntity
  8
0
  6
Continuous
 62
     4
370
    18
100
AcDbCircle
 10
100.2097310070566
 20
-59.55420657201797
 30
0.0
 40
2.5
  0
CIRCLE
  5
2FE
330
1F
100
AcDbEntity
  8
0
  6
Continuous
 62
     4
370
    18
100
AcDbCircle
 10
125.2097310070566
 20
-66.25293638279608
 30
0.0
 40
2.0
  0
CIRCLE
  5
2FF
330
1F
100
AcDbEntity
  8
0
  6
Continuous
 62
     4
370
    18
100
AcDbCircle
 10
150.2097310070566
 20
-59.55420657201799
 30
0.0
 40
2.5
  0
CIRCLE
  5
300
330
1F
100
AcDbEntity
  8
0
  6
Continuous
 62
     4
370
    18
100
AcDbCircle
 10
168.5110011962786
 20
-41.2529363827961
 30
0.0
 40
2.0
  0
CIRCLE
  5
301
330
1F
100
AcDbEntity
  8
0
  6
Continuous
 62
     4
370
    18
100
AcDbCircle
 10
175.2097310070566
 20
-16.25293638279609
 30
0.0
 40
2.5
  0
CIRCLE
  5
302
330
1F
100
AcDbEntity
  8
0
  6
Continuous
 62
     4
370
    18
100
AcDbCircle
 10
168.5110011962786
 20
8.747063617203892
 30
0.0
 40
2.0
  0
CIRCLE
  5
303
330
1F
100
AcDbEntity
  8
0
  6
Continuous
 62
     4
370
    18
100
AcDbCircle
 10
150.2097310070566
 20
27.04833380642586
 30
0.0
 40
2.5
  0
CIRCLE
  5
304
330
1F
100
AcDbEntity
  8
0
  6
Continuous
 62
     4
370
    18
100
AcDbCircle
 10
125.2097310070566
 20
-16.25293638279603
 30
0.0
 40
23.6
  0
CIRCLE
  5
305
330
1F
100
AcDbEntity
  8
0
  6
Continuous
 62
     4
370
    18
100
AcDbCircle
 10
145.3979722960318
 20
59.08945819385393
 30
0.0
 40
1.100000000000009
  0
ARC
  5
306
330
1F
100
AcDbEntity
  8
0
  6
Continuous
 62
     4
370
    18
100
AcDbCircle
 10
144.3626961156216
 20
55.22575488869754
 30
0.0
 40
1.100000000000001
100
AcDbArc
 50
345.0000000000024
 51
164.9999999999988
  0
LINE
  5
307
330
1F
100
AcDbEntity
  8
0
  6
Continuous
 62
     4
370
    18
100
AcDbLine
 10
-130.1006591861812
 20
-5.252936382796094
 30
0.0
 11
-130.1006591861811
 21
-5.873701565641618
 31
0.0
  0
ARC
  5
308
330
1F
100
AcDbEntity
  8
0
  6
Continuous
 62
     4
370
    18
100
AcDbCircle
 10
125.2097310070566
 20
-16.25293638279607
 30
0.0
 40
11.0
100
AcDbArc
 50
71.4469954649792
 51
90.0
  0
LINE
  5
309
330
1F
100
AcDbEntity
  8
0
  6
Continuous
 62
     4
370
    18
100
AcDbLine
 10
1.78785283153567
 20
31.24706361720396
 30
0.0
 11
1.787852831535652
 21
33.72601503946106
 31
0.0
  0
LINE
  5
30A
330
1F
100
AcDbEntity
  8
0
  6
Continuous
 62
     4
370
    18
100
AcDbLine
 10
2.787852831535638
 20
31.24706361720398
 30
0.0
 11
2.787852831535647
 21
33.72601503946105
 31
0.0
  0
LINE
  5
30B
330
1F
100
AcDbEntity
  8
0
  6
Continuous
 62
     4
370
    18
100
AcDbLine
 10
5.787852831535673
 20
33.72601503946106
 30
0.0
 11
5.787852831535659
 21
31.24706361720398
 31
0.0
  0
LINE
  5
30C
330
1F
100
AcDbEntity
  8
0
  6
Continuous
 62
     4
370
    18
100
AcDbLine
 10
6.787852831535661
 20
31.24706361720398
 30
0.0
 11
6.787852831535641
 21
33.72601503946107
 31
0.0
  0
LINE
  5
30D
330
1F
100
AcDbEntity
  8
0
  6
Continuous
 62
     4
370
    18
100
AcDbLine
 10
1.787852831535655
 20
33.72601503946107
 30
0.0
 11
2.78785283153565
 21
33.72601503946106
 31
0.0
  0
LINE
  5
30E
330
1F
100
AcDbEntity
  8
0
  6
Continuous
 62
     4
370
    18
100
AcDbLine
 10
5.787852831535673
 20
33.72601503946106
 30
0.0
 11
6.787852831535671
 21
33.72601503946106
 31
0.0
  0
LINE
  5
30F
330
1F
100
AcDbEntity
  8
0
  6
Continuous
 62
     4
370
    18
100
AcDbLine
 10
1.787702313655032
 20
-61.35293638279602
 30
0.0
 11
1.787702313655013
 21
-66.23411100913589
 31
0.0
  0
LINE
  5
310
330
1F
100
AcDbEntity
  8
0
  6
Continuous
 62
     4
370
    18
100
AcDbLine
 10
2.787702313655029
 20
-61.35293638279603
 30
0.0
 11
2.787702313655011
 21
-66.23411100913589
 31
0.0
  0
LINE
  5
311
330
1F
100
AcDbEntity
  8
0
  6
Continuous
 62
     4
370
    18
100
AcDbLine
 10
5.787702313655021
 20
-61.35293638279602
 30
0.0
 11
5.787702313655
 21
-66.23411100913589
 31
0.0
  0
LINE
  5
312
330
1F
100
AcDbEntity
  8
0
  6
Continuous
 62
     4
370
    18
100
AcDbLine
 10
6.787702313655021
 20
-61.35293638279602
 30
0.0
 11
6.787702313655
 21
-66.23411100913589
 31
0.0
  0
LINE
  5
313
330
1F
100
AcDbEntity
  8
0
  6
Continuous
 62
     4
370
    18
100
AcDbLine
 10
1.787702313655013
 20
-66.23411100913589
 30
0.0
 11
2.787702313655011
 21
-66.23411100913589
 31
0.0
  0
LINE
  5
314
330
1F
100
AcDbEntity
  8
0
  6
Continuous
 62
     4
370
    18
100
AcDbLine
 10
5.787702313655
 20
-66.23411100913589
 30
0.0
 11
6.787702313655
 21
-66.23411100913589
 31
0.0
  0
LINE
  5
315
330
1F
100
AcDbEntity
  8
0
  6
Continuous
 62
     4
370
    18
100
AcDbLine
 10
-32.41214716846437
 20
-42.75293638279604
 30
0.0
 11
-11.91214716846436
 21
-42.75293638279604
 31
0.0
  0
LINE
  5
316
330
1F
100
AcDbEntity
  8
0
  6
Continuous
 62
     4
370
    18
100
AcDbLine
 10
-32.41214716846439
 20
-43.95293638279605
 30
0.0
 11
-11.91214716846436
 21
-43.95293638279604
 31
0.0
  0
LINE
  5
317
330
1F
100
AcDbEntity
  8
0
  6
Continuous
 62
     4
370
    18
100
AcDbLine
 10
18.88785283153565
 20
41.24706361720395
 30
0.0
 11
18.88785283153566
 21
42.84706361720394
 31
0.0
  0
LINE
  5
318
330
1F
100
AcDbEntity
  8
0
  6
Continuous
 62
     4
370
    18
100
AcDbLine
 10
18.88785283153566
 20
42.84706361720394
 30
0.0
 11
9.887852831535652
 21
42.84706361720394
 31
0.0
  0
LINE
  5
319
330
1F
100
AcDbEntity
  8
0
  6
Continuous
 62
     4
370
    18
100
AcDbLine
 10
7.887852831535652
 20
40.84706361720394
 30
0.0
 11
7.887852831535671
 21
15.84706361720394
 31
0.0
  0
LINE
  5
31A
330
1F
100
AcDbEntity
  8
0
  6
Continuous
 62
     4
370
    18
100
AcDbLine
 10
7.887852831535671
 20
15.84706361720394
 30
0.0
 11
9.48785283153566
 21
15.84706361720394
 31
0.0
  0
LINE
  5
31B
330
1F
100
AcDbEntity
  8
0
  6
Continuous
 62
     4
370
    18
100
AcDbLine
 10
9.48785283153566
 20
15.84706361720394
 30
0.0
 11
9.48785283153566
 21
40.24706361720395
 31
0.0
  0
LINE
  5
31C
330
1F
100
AcDbEntity
  8
0
  6
Continuous
 62
     4
370
    18
100
AcDbLine
 10
-12.50935717659751
 20
-43.29514186587992
 30
0.0
 11
-11.90935717659755
 21
-37.09514186587992
 31
0.0
  0
LINE
  5
31D
330
1F
100
AcDbEntity
  8
0
  6
Continuous
 62
     4
370
    18
100
AcDbLine
 10
-11.31493716033117
 20
-43.41073089971214
 30
0.0
 11
-10.71493716033118
 21
-37.21073089971215
 31
0.0
  0
LINE
  5
31E
330
1F
100
AcDbEntity
  8
0
  6
Continuous
 62
     4
370
    18
100
AcDbLine
 10
-33.00935717659755
 20
-43.29514186587991
 30
0.0
 11
-32.40935717659755
 21
-37.09514186587992
 31
0.0
  0
LINE
  5
31F
330
1F
100
AcDbEntity
  8
0
  6
Continuous
 62
     4
370
    18
100
AcDbLine
 10
-31.81493716033118
 20
-43.41073089971215
 30
0.0
 11
-31.21493716033118
 21
-37.21073089971215
 31
0.0
  0
LINE
  5
320
330
1F
100
AcDbEntity
  8
0
  6
Continuous
 62
     4
370
    18
100
AcDbLine
 10
-31.81214716846434
 20
-36.55293638279603
 30
0.0
 11
-11.31214716846436
 21
-36.55293638279603
 31
0.0
  0
LINE
  5
321
330
1F
100
AcDbEntity
  8
0
  6
Continuous
 62
     4
370
    18
100
AcDbLine
 10
-11.31214716846436
 20
-37.75293638279604
 30
0.0
 11
-31.81214716846436
 21
-37.75293638279604
 31
0.0
  0
LINE
  5
322
330
1F
100
AcDbEntity
  8
0
  6
Continuous
 62
     4
370
    18
100
AcDbLine
 10
17.28785283153568
 20
43.84706361720397
 30
0.0
 11
9.687852831535661
 21
43.84706361720393
 31
0.0
  0
LINE
  5
323
330
1F
100
AcDbEntity
  8
0
  6
Continuous
 62
     4
370
    18
100
AcDbLine
 10
9.687852831535661
 20
43.84706361720393
 30
0.0
 11
9.687852831535661
 21
42.84706361720393
 31
0.0
  0
LINE
  5
324
330
1F
100
AcDbEntity
  8
0
  6
Continuous
 62
     4
370
    18
100
AcDbLine
 10
17.28785283153568
 20
43.84706361720397
 30
0.0
 11
17.28785283153567
 21
42.84706361720394
 31
0.0
  0
LINE
  5
325
330
1F
100
AcDbEntity
  8
0
  6
Continuous
 62
     4
370
    18
100
AcDbLine
 10
13.35387823532009
 20
43.84706361720394
 30
0.0
 11
13.62182742775121
 21
42.84706361720394
 31
0.0
  0
LINE
  5
326
330
1F
100
AcDbEntity
  8
0
  6
Continuous
 62
     4
370
    18
100
AcDbLine
 10
9.98785283153564
 20
43.84706361720396
 30
0.0
 11
9.98785283153566
 21
47.54706361720395
 31
0.0
  0
LINE
  5
327
330
1F
100
AcDbEntity
  8
0
  6
Continuous
 62
     4
370
    18
100
AcDbLine
 10
16.98785283153564
 20
43.84706361720393
 30
0.0
 11
16.98785283153568
 21
47.54706361720396
 31
0.0
  0
LINE
  5
328
330
1F
100
AcDbEntity
  8
0
  6
Continuous
 62
     4
370
    18
100
AcDbLine
 10
9.98785283153566
 20
47.54706361720395
 30
0.0
 11
10.5074683160771
 21
47.84706361720396
 31
0.0
  0
LINE
  5
329
330
1F
100
AcDbEntity
  8
0
  6
Continuous
 62
     4
370
    18
100
AcDbLine
 10
16.98785283153568
 20
47.54706361720396
 30
0.0
 11
16.46823734699418
 21
47.84706361720394
 31
0.0
  0
LINE
  5
32A
330
1F
100
AcDbEntity
  8
0
  6
Continuous
 62
     4
370
    18
100
AcDbLine
 10
16.46823734699418
 20
47.84706361720394
 30
0.0
 11
10.5074683160771
 21
47.84706361720396
 31
0.0
  0
LINE
  5
32B
330
1F
100
AcDbEntity
  8
0
  6
Continuous
 62
     4
370
    18
100
AcDbLine
 10
16.98785283153568
 20
47.54706361720396
 30
0.0
 11
9.98785283153566
 21
47.54706361720395
 31
0.0
  0
ARC
  5
32C
330
1F
100
AcDbEntity
  8
0
  6
Continuous
 62
     4
370
    18
100
AcDbCircle
 10
10.48785283153565
 20
40.24706361720395
 30
0.0
 40
1.0
100
AcDbArc
 50
90.0
 51
180.0
  0
ARC
  5
32D
330
1F
100
AcDbEntity
  8
0
  6
Continuous
 62
     4
370
    18
100
AcDbCircle
 10
9.887852831535652
 20
40.84706361720394
 30
0.0
 40
2.0
100
AcDbArc
 50
90.0
 51
180.0
  0
LINE
  5
32E
330
1F
100
AcDbEntity
  8
0
  6
Continuous
 62
     4
370
    18
100
AcDbLine
 10
160.5650700663842
 20
29.70900439432951
 30
0.0
 11
171.1716717841823
 21
19.10240267653133
 31
0.0
  0
LINE
  5
32F
330
1F
100
AcDbEntity
  8
0
  6
Continuous
 62
     4
370
    18
100
AcDbLine
 10
170.8243206074484
 20
18.75505149979769
 30
0.0
 11
172.3737533121999
 21
20.30448420454805
 31
0.0
  0
LINE
  5
330
330
1F
100
AcDbEntity
  8
0
  6
Continuous
 62
     4
370
    18
100
AcDbLine
 10
161.7671515944016
 20
30.91108592234636
 30
0.0
 11
160.2177188896504
 21
29.36165321759576
 31
0.0
  0
LINE
  5
331
330
1F
100
AcDbEntity
  8
0
  6
Continuous
 62
     4
370
    18
100
AcDbLine
 10
161.7671515944011
 20
30.91108592234663
 30
0.0
 11
172.3737533121995
 21
20.3044842045484
 31
0.0
  0
LINE
  5
332
330
1F
100
AcDbEntity
  8
0
  6
Continuous
 62
     4
370
    18
100
AcDbLine
 10
178.8093231804093
 20
5.873602407766889
 30
0.0
 11
182.691608856947
 21
-8.615284986569108
 31
0.0
  0
LINE
  5
333
330
1F
100
AcDbEntity
  8
0
  6
Continuous
 62
     4
370
    18
100
AcDbLine
 10
182.2171183254943
 20
-8.742424341287922
 30
0.0
 11
184.3336827616385
 21
-8.175292609895394
 31
0.0
  0
LINE
  5
334
330
1F
100
AcDbEntity
  8
0
  6
Continuous
 62
     4
370
    18
100
AcDbLine
 10
180.4513970851008
 20
6.313594784440788
 30
0.0
 11
178.3348326489565
 21
5.746463053047883
 31
0.0
  0
LINE
  5
335
330
1F
100
AcDbEntity
  8
0
  6
Continuous
 62
     4
370
    18
100
AcDbLine
 10
180.4513970851006
 20
6.313594784441172
 30
0.0
 11
184.3336827616384
 21
-8.175292609894896
 31
0.0
  0
CIRCLE
  5
336
330
1F
100
AcDbEntity
  8
0
  6
Continuous
 62
     4
370
    18
100
AcDbCircle
 10
107.7097310070567
 20
-16.25293638279605
 30
0.0
 40
3.0
  0
CIRCLE
  5
337
330
1F
100
AcDbEntity
  8
0
  6
Continuous
 62
     4
370
    18
100
AcDbCircle
 10
142.7097310070567
 20
-16.25293638279608
 30
0.0
 40
3.0
  0
LINE
  5
338
330
1F
100
AcDbEntity
  8
0
  6
Continuous
 62
     4
370
    18
100
AcDbLine
 10
132.7202430485646
 20
40.75445093564154
 30
0.0
 11
129.4827348169509
 21
28.67190572533636
 31
0.0
  0
LINE
  5
339
330
1F
100
AcDbEntity
  8
0
  6
Continuous
 62
     4
370
    18
100
AcDbLine
 10
129.4827348169509
 20
28.67190572533636
 30
0.0
 11
132.311161941697
 21
23.77292623977
 31
0.0
  0
LINE
  5
33A
330
1F
100
AcDbEntity
  8
0
  6
Continuous
 62
     4
370
    18
100
AcDbLine
 10
132.311161941697
 20
23.77292623977
 30
0.0
 11
128.6876953102617
 21
10.24996467172308
 31
0.0
  0
LINE
  5
33B
330
1F
100
AcDbEntity
  8
0
  6
Continuous
 62
     4
370
    18
100
AcDbLine
 10
128.6876953102617
 20
10.24996467172308
 30
0.0
 11
135.4491760942852
 21
8.438231356005417
 31
0.0
  0
LINE
  5
33C
330
1F
100
AcDbEntity
  8
0
  6
Continuous
 62
     4
370
    18
100
AcDbLine
 10
135.4491760942852
 20
8.438231356005417
 30
0.0
 11
139.0726427257205
 21
21.9611929240524
 31
0.0
  0
LINE
  5
33D
330
1F
100
AcDbEntity
  8
0
  6
Continuous
 62
     4
370
    18
100
AcDbLine
 10
143.9716222112868
 20
24.78962004879855
 30
0.0
 11
139.0726427257205
 21
21.9611929240524
 31
0.0
  0
LINE
  5
33E
330
1F
100
AcDbEntity
  8
0
  6
Continuous
 62
     4
370
    18
100
AcDbLine
 10
143.9716222112868
 20
24.78962004879855
 30
0.0
 11
147.2091304429006
 21
36.87216525910377
 31
0.0
  0
CIRCLE
  5
33F
330
1F
100
AcDbEntity
  8
0
  6
Continuous
 62
    91
370
    18
100
AcDbCircle
 10
-81.8043678717277
 20
-3.311718058910678
 30
0.0
 40
4.5
  0
CIRCLE
  5
340
330
1F
100
AcDbEntity
  8
0
  6
Continuous
 62
    91
370
    18
100
AcDbCircle
 10
-178.3969505006345
 20
-29.19362256916273
 30
0.0
 40
4.5
  0
CIRCLE
  5
341
330
1F
100
AcDbEntity
  8
0
  6
Continuous
 62
    91
370
    18
100
AcDbCircle
 10
-178.3969505006345
 20
-29.19362256916273
 30
0.0
 40
2.75
  0
CIRCLE
  5
342
330
1F
100
AcDbEntity
  8
0
  6
Continuous
 62
    91
370
    18
100
AcDbCircle
 10
-81.8043678717277
 20
-3.311718058910678
 30
0.0
 40
2.75
  0
CIRCLE
  5
343
330
1F
100
AcDbEntity
  8
0
  6
Continuous
 62
    91
370
    18
100
AcDbCircle
 10
-130.1006591861811
 20
-16.2526703140367
 30
0.0
 40
57.5
  0
CIRCLE
  5
344
330
1F
100
AcDbEntity
  8
0
  6
Continuous
 62
    91
370
    18
100
AcDbCircle
 10
-130.1006591861811
 20
33.74732968596331
 30
0.0
 40
4.5
  0
CIRCLE
  5
345
330
1F
100
AcDbEntity
  8
0
  6
Continuous
 62
    91
370
    18
100
AcDbCircle
 10
-155.1007922205607
 20
27.04856422873065
 30
0.0
 40
4.5
  0
CIRCLE
  5
346
330
1F
100
AcDbEntity
  8
0
  6
Continuous
 62
    91
370
    18
100
AcDbCircle
 10
-173.4021597977078
 20
8.747196651583629
 30
0.0
 40
4.5
  0
CIRCLE
  5
347
330
1F
100
AcDbEntity
  8
0
  6
Continuous
 62
    91
370
    18
100
AcDbCircle
 10
-180.1009252549404
 20
-16.25293638279609
 30
0.0
 40
4.5
  0
CIRCLE
  5
348
330
1F
100
AcDbEntity
  8
0
  6
Continuous
 62
    91
370
    18
100
AcDbCircle
 10
-173.4021597977078
 20
-41.25306941717575
 30
0.0
 40
4.5
  0
CIRCLE
  5
349
330
1F
100
AcDbEntity
  8
0
  6
Continuous
 62
    91
370
    18
100
AcDbCircle
 10
-155.1007922205609
 20
-59.55443699432278
 30
0.0
 40
4.5
  0
CIRCLE
  5
34A
330
1F
100
AcDbEntity
  8
0
  6
Continuous
 62
    91
370
    18
100
AcDbCircle
 10
-130.1006591861811
 20
-66.25320245155542
 30
0.0
 40
4.5
  0
CIRCLE
  5
34B
330
1F
100
AcDbEntity
  8
0
  6
Continuous
 62
    91
370
    18
100
AcDbCircle
 10
-105.1005261518014
 20
-59.5544369943228
 30
0.0
 40
4.5
  0
CIRCLE
  5
34C
330
1F
100
AcDbEntity
  8
0
  6
Continuous
 62
    91
370
    18
100
AcDbCircle
 10
-86.79915857465441
 20
-41.25306941717579
 30
0.0
 40
4.5
  0
CIRCLE
  5
34D
330
1F
100
AcDbEntity
  8
0
  6
Continuous
 62
    91
370
    18
100
AcDbCircle
 10
-80.1003931174217
 20
-16.2529363827961
 30
0.0
 40
4.5
  0
CIRCLE
  5
34E
330
1F
100
AcDbEntity
  8
0
  6
Continuous
 62
    91
370
    18
100
AcDbCircle
 10
-86.79915857465436
 20
8.747196651583607
 30
0.0
 40
4.5
  0
CIRCLE
  5
34F
330
1F
100
AcDbEntity
  8
0
  6
Continuous
 62
    91
370
    18
100
AcDbCircle
 10
-105.1005261518014
 20
27.04856422873065
 30
0.0
 40
4.5
  0
LINE
  5
350
330
1F
100
AcDbEntity
  8
0
  6
Continuous
 62
    91
370
    18
100
AcDbLine
 10
-139.6020041180435
 20
40.45697292602955
 30
0.0
 11
-140.317288832399
 21
43.12645182188179
 31
0.0
  0
LINE
  5
351
330
1F
100
AcDbEntity
  8
0
  6
Continuous
 62
    91
370
    18
100
AcDbLine
 10
-140.317288832399
 20
43.12645182188179
 30
0.0
 11
-150.9424729215788
 21
40.27944232575406
 31
0.0
  0
LINE
  5
352
330
1F
100
AcDbEntity
  8
0
  6
Continuous
 62
    91
370
    18
100
AcDbLine
 10
-150.9424729215788
 20
40.27944232575406
 30
0.0
 11
-150.2271882072232
 21
37.60996342990181
 31
0.0
  0
LINE
  5
353
330
1F
100
AcDbEntity
  8
0
  6
Continuous
 62
    91
370
    18
100
AcDbLine
 10
-144.567362468071
 20
41.98764802343075
 30
0.0
 11
-148.1908290995063
 21
55.51060959147773
 31
0.0
  0
LINE
  5
354
330
1F
100
AcDbEntity
  8
0
  6
Continuous
 62
    91
370
    18
100
AcDbLine
 10
-146.6923992859069
 20
41.41824612420523
 30
0.0
 11
-150.3158659173422
 21
54.94120769225214
 31
0.0
  0
LINE
  5
355
330
1F
100
AcDbEntity
  8
0
  6
Continuous
 62
    91
370
    18
100
AcDbLine
 10
-149.2261052799163
 20
59.37431289663394
 30
0.0
 11
-152.3319338211465
 21
70.96542281210283
 31
0.0
  0
LINE
  5
356
330
1F
100
AcDbEntity
  8
0
  6
Continuous
 62
    91
370
    18
100
AcDbLine
 10
-152.3319338211465
 20
70.96542281210283
 30
0.0
 11
-154.4569706389825
 21
70.39602091287723
 31
0.0
  0
LINE
  5
357
330
1F
100
AcDbEntity
  8
0
  6
Continuous
 62
    91
370
    18
100
AcDbLine
 10
-151.3511420977523
 20
58.80491099740844
 30
0.0
 11
-154.4569706389825
 21
70.39602091287723
 31
0.0
  0
LINE
  5
358
330
1F
100
AcDbEntity
  8
0
  6
Continuous
 62
    91
370
    18
100
AcDbLine
 10
-153.877415143209
 20
70.55131233993883
 30
0.0
 11
-154.9126913236192
 21
74.41501564509504
 31
0.0
  0
LINE
  5
359
330
1F
100
AcDbEntity
  8
0
  6
Continuous
 62
    91
370
    18
100
AcDbLine
 10
-154.9126913236192
 20
74.41501564509504
 30
0.0
 11
-153.9467654973301
 21
74.67383469019764
 31
0.0
  0
LINE
  5
35A
330
1F
100
AcDbEntity
  8
0
  6
Continuous
 62
    91
370
    18
100
AcDbLine
 10
-153.9467654973301
 20
74.67383469019764
 30
0.0
 11
-152.91148931692
 21
70.81013138504133
 31
0.0
  0
LINE
  5
35B
330
1F
100
AcDbEntity
  8
0
  6
Continuous
 62
    91
370
    18
100
AcDbLine
 10
-138.1783029590828
 20
42.87128144054492
 30
0.0
 11
-137.6111712276892
 21
40.7547170044009
 31
0.0
  0
LINE
  5
35C
330
1F
100
AcDbEntity
  8
0
  6
Continuous
 62
    91
370
    18
100
AcDbLine
 10
-152.100058622025
 20
36.87243132786313
 30
0.0
 11
-152.667190353419
 21
38.98899576400709
 31
0.0
  0
LINE
  5
35D
330
1F
100
AcDbEntity
  8
0
  6
Continuous
 62
    91
370
    18
100
AcDbLine
 10
-138.1783029590824
 20
42.87128144054498
 30
0.0
 11
-140.1102113527206
 21
42.35362814661873
 31
0.0
  0
LINE
  5
35E
330
1F
100
AcDbEntity
  8
0
  6
Continuous
 62
    91
370
    18
100
AcDbLine
 10
-150.7353954419004
 20
39.50661865049102
 30
0.0
 11
-152.6671903534184
 21
38.9889957640072
 31
0.0
  0
LINE
  5
35F
330
1F
100
AcDbEntity
  8
0
  6
Continuous
 62
    91
370
    18
100
AcDbLine
 10
-43.51214716846435
 20
41.24706361720401
 30
0.0
 11
-11.01214716846434
 21
41.24706361720398
 31
0.0
  0
LINE
  5
360
330
1F
100
AcDbEntity
  8
0
  6
Continuous
 62
    91
370
    18
100
AcDbLine
 10
-11.01214716846438
 20
-37.6725516250667
 30
0.0
 11
-11.01214716846436
 21
-42.83332114052536
 31
0.0
  0
LINE
  5
361
330
1F
100
AcDbEntity
  8
0
  6
Continuous
 62
    91
370
    18
100
AcDbLine
 10
-44.51214716846435
 20
38.24706361720398
 30
0.0
 11
-39.31214716846431
 21
38.24706361720396
 31
0.0
  0
LINE
  5
362
330
1F
100
AcDbEntity
  8
0
  6
Continuous
 62
    91
370
    18
100
AcDbLine
 10
-39.31214716846431
 20
38.24706361720396
 30
0.0
 11
-39.31214716846434
 21
29.24706361720399
 31
0.0
  0
LINE
  5
363
330
1F
100
AcDbEntity
  8
0
  6
Continuous
 62
    91
370
    18
100
AcDbLine
 10
-39.31214716846434
 20
29.24706361720399
 30
0.0
 11
-44.51214716846433
 21
29.24706361720395
 31
0.0
  0
LINE
  5
364
330
1F
100
AcDbEntity
  8
0
  6
Continuous
 62
    91
370
    18
100
AcDbLine
 10
-39.31214716846436
 20
36.49706361720399
 30
0.0
 11
-11.01214716846436
 21
36.49706361720396
 31
0.0
  0
LINE
  5
365
330
1F
100
AcDbEntity
  8
0
  6
Continuous
 62
    91
370
    18
100
AcDbLine
 10
-39.31214716846436
 20
30.99706361720399
 30
0.0
 11
-11.01214716846435
 21
30.99706361720396
 31
0.0
  0
LINE
  5
366
330
1F
100
AcDbEntity
  8
0
  6
Continuous
 62
    91
370
    18
100
AcDbLine
 10
-44.51214716846436
 20
-61.75293638279604
 30
0.0
 11
-39.31214716846436
 21
-61.75293638279604
 31
0.0
  0
LINE
  5
367
330
1F
100
AcDbEntity
  8
0
  6
Continuous
 62
    91
370
    18
100
AcDbLine
 10
-39.31214716846436
 20
-61.75293638279604
 30
0.0
 11
-39.31214716846436
 21
-70.75293638279601
 31
0.0
  0
LINE
  5
368
330
1F
100
AcDbEntity
  8
0
  6
Continuous
 62
    91
370
    18
100
AcDbLine
 10
-39.31214716846436
 20
-70.75293638279601
 30
0.0
 11
-44.51214716846437
 21
-70.75293638279602
 31
0.0
  0
LINE
  5
369
330
1F
100
AcDbEntity
  8
0
  6
Continuous
 62
    91
370
    18
100
AcDbLine
 10
-39.31214716846438
 20
-63.50293638279602
 30
0.0
 11
-11.01214716846437
 21
-63.50293638279602
 31
0.0
  0
LINE
  5
36A
330
1F
100
AcDbEntity
  8
0
  6
Continuous
 62
    91
370
    18
100
AcDbLine
 10
-11.01214716846436
 20
-69.00293638279602
 30
0.0
 11
-39.31214716846437
 21
-69.00293638279602
 31
0.0
  0
LINE
  5
36B
330
1F
100
AcDbEntity
  8
0
  6
Continuous
 62
    91
370
    18
100
AcDbLine
 10
-22.78009636089542
 20
-34.25293638279602
 30
0.0
 11
-11.01214716846434
 21
-34.25293638279604
 31
0.0
  0
LINE
  5
36C
330
1F
100
AcDbEntity
  8
0
  6
Continuous
 62
    91
370
    18
100
AcDbLine
 10
-22.7800963608954
 20
1.747063617203978
 30
0.0
 11
-11.0121471684644
 21
1.747063617203963
 31
0.0
  0
LINE
  5
36D
330
1F
100
AcDbEntity
  8
0
  6
Continuous
 62
    91
370
    18
100
AcDbLine
 10
-33.01214716846435
 20
-36.55293638279603
 30
0.0
 11
-33.0121471684644
 21
-43.35293638279604
 31
0.0
  0
LINE
  5
36E
330
1F
100
AcDbEntity
  8
0
  6
Continuous
 62
    91
370
    18
100
AcDbLine
 10
-44.51214716846436
 20
-36.35293638279602
 30
0.0
 11
-11.01214716846434
 21
-36.35293638279603
 31
0.0
  0
LINE
  5
36F
330
1F
100
AcDbEntity
  8
0
  6
Continuous
 62
    91
370
    18
100
AcDbLine
 10
-11.01214716846436
 20
-44.15293638279603
 30
0.0
 11
-44.51214716846436
 21
-44.15293638279603
 31
0.0
  0
LINE
  5
370
330
1F
100
AcDbEntity
  8
0
  6
Continuous
 62
    91
370
    18
100
AcDbLine
 10
-10.71214716846433
 20
41.24706361720398
 30
0.0
 11
-2.712147168464323
 21
41.24706361720396
 31
0.0
  0
LINE
  5
371
330
1F
100
AcDbEntity
  8
0
  6
Continuous
 62
    91
370
    18
100
AcDbLine
 10
-2.712147168464355
 20
36.24706361720398
 30
0.0
 11
-2.712147168464323
 21
41.24706361720396
 31
0.0
  0
LINE
  5
372
330
1F
100
AcDbEntity
  8
0
  6
Continuous
 62
    91
370
    18
100
AcDbLine
 10
-2.712147168464337
 20
31.24706361720396
 30
0.0
 11
-2.712147168464334
 21
27.24706361720396
 31
0.0
  0
LINE
  5
373
330
1F
100
AcDbEntity
  8
0
  6
Continuous
 62
    91
370
    18
100
AcDbLine
 10
-2.712147168464334
 20
27.24706361720396
 30
0.0
 11
1.787852831535673
 21
27.24706361720398
 31
0.0
  0
LINE
  5
374
330
1F
100
AcDbEntity
  8
0
  6
Continuous
 62
    91
370
    18
100
AcDbLine
 10
1.787852831535666
 20
28.84706361720394
 30
0.0
 11
2.787852831535666
 21
28.84706361720394
 31
0.0
  0
LINE
  5
375
330
1F
100
AcDbEntity
  8
0
  6
Continuous
 62
    91
370
    18
100
AcDbLine
 10
2.787852831535634
 20
27.24706361720395
 30
0.0
 11
5.787852831535659
 21
27.24706361720396
 31
0.0
  0
LINE
  5
376
330
1F
100
AcDbEntity
  8
0
  6
Continuous
 62
    91
370
    18
100
AcDbLine
 10
5.787852831535661
 20
28.84706361720396
 30
0.0
 11
6.787852831535661
 21
28.84706361720397
 31
0.0
  0
LINE
  5
377
330
1F
100
AcDbEntity
  8
0
  6
Continuous
 62
    91
370
    18
100
AcDbLine
 10
-0.212147168464341
 20
14.74706361720398
 30
0.0
 11
-6.912147168464376
 21
14.74706361720396
 31
0.0
  0
LINE
  5
378
330
1F
100
AcDbEntity
  8
0
  6
Continuous
 62
    91
370
    18
100
AcDbLine
 10
-10.71214716846434
 20
1.747063617203963
 30
0.0
 11
-6.912147168464356
 21
1.747063617203942
 31
0.0
  0
LINE
  5
379
330
1F
100
AcDbEntity
  8
0
  6
Continuous
 62
    91
370
    18
100
AcDbLine
 10
-2.712297686344986
 20
-73.75293638279602
 30
0.0
 11
-2.712297686344964
 21
-71.15293638279601
 31
0.0
  0
LINE
  5
37A
330
1F
100
AcDbEntity
  8
0
  6
Continuous
 62
    91
370
    18
100
AcDbLine
 10
-2.712297686344968
 20
-61.35293638279602
 30
0.0
 11
-2.712297686344968
 21
-59.75293638279604
 31
0.0
  0
LINE
  5
37B
330
1F
100
AcDbEntity
  8
0
  6
Continuous
 62
    91
370
    18
100
AcDbLine
 10
-0.212297686344975
 20
-47.25293638279604
 30
0.0
 11
-6.912147168464376
 21
-47.25293638279604
 31
0.0
  0
LINE
  5
37C
330
1F
100
AcDbEntity
  8
0
  6
Continuous
 62
    91
370
    18
100
AcDbLine
 10
-6.890297686344985
 20
-34.25293638279604
 30
0.0
 11
-10.71214716846435
 21
-34.25293638279604
 31
0.0
  0
LINE
  5
37D
330
1F
100
AcDbEntity
  8
0
  6
Continuous
 62
    91
370
    18
100
AcDbLine
 10
-3.012147168464362
 20
9.547063617203968
 30
0.0
 11
-0.212147168464341
 21
9.547063617203968
 31
0.0
  0
LINE
  5
37E
330
1F
100
AcDbEntity
  8
0
  6
Continuous
 62
    91
370
    18
100
AcDbLine
 10
0.7878528315356572
 20
9.547063617203968
 30
0.0
 11
3.787852831535649
 21
9.547063617203968
 31
0.0
  0
LINE
  5
37F
330
1F
100
AcDbEntity
  8
0
  6
Continuous
 62
    91
370
    18
100
AcDbLine
 10
4.787852831535645
 20
9.547063617203968
 30
0.0
 11
11.98785283153568
 21
9.547063617203946
 31
0.0
  0
LINE
  5
380
330
1F
100
AcDbEntity
  8
0
  6
Continuous
 62
    91
370
    18
100
AcDbLine
 10
11.98785283153568
 20
9.547063617203946
 30
0.0
 11
11.98785283153566
 21
6.247063617203942
 31
0.0
  0
LINE
  5
381
330
1F
100
AcDbEntity
  8
0
  6
Continuous
 62
    91
370
    18
100
AcDbLine
 10
11.98785283153563
 20
-38.75293638279604
 30
0.0
 11
11.98785283153564
 21
-42.05293638279604
 31
0.0
  0
LINE
  5
382
330
1F
100
AcDbEntity
  8
0
  6
Continuous
 62
    91
370
    18
100
AcDbLine
 10
11.98785283153564
 20
-42.05293638279604
 30
0.0
 11
4.809702313655038
 21
-42.05293638279604
 31
0.0
  0
LINE
  5
383
330
1F
100
AcDbEntity
  8
0
  6
Continuous
 62
    91
370
    18
100
AcDbLine
 10
3.787702313655039
 20
-42.05293638279604
 30
0.0
 11
0.7877023136550187
 21
-42.05293638279604
 31
0.0
  0
LINE
  5
384
330
1F
100
AcDbEntity
  8
0
  6
Continuous
 62
    91
370
    18
100
AcDbLine
 10
-0.1902976863449481
 20
-42.05293638279604
 30
0.0
 11
-3.012147168464376
 21
-42.05293638279605
 31
0.0
  0
LINE
  5
385
330
1F
100
AcDbEntity
  8
0
  6
Continuous
 62
    91
370
    18
100
AcDbLine
 10
-3.012147168464376
 20
-42.05293638279605
 30
0.0
 11
-3.012147168464362
 21
9.547063617203968
 31
0.0
  0
LINE
  5
386
330
1F
100
AcDbEntity
  8
0
  6
Continuous
 62
    91
370
    18
100
AcDbLine
 10
-3.012147168464337
 20
7.347063617203958
 30
0.0
 11
11.98785283153565
 21
7.347063617203943
 31
0.0
  0
LINE
  5
387
330
1F
100
AcDbEntity
  8
0
  6
Continuous
 62
    91
370
    18
100
AcDbLine
 10
11.98785283153565
 20
-39.85293638279605
 30
0.0
 11
-3.012147168464369
 21
-39.85293638279603
 31
0.0
  0
LINE
  5
388
330
1F
100
AcDbEntity
  8
0
  6
Continuous
 62
    91
370
    18
100
AcDbLine
 10
1.78785283153567
 20
31.24706361720396
 30
0.0
 11
1.787852831535655
 21
9.547063617203968
 31
0.0
  0
LINE
  5
389
330
1F
100
AcDbEntity
  8
0
  6
Continuous
 62
    91
370
    18
100
AcDbLine
 10
-1.212147168464366
 20
9.547063617203968
 30
0.0
 11
-1.212147168464355
 21
27.24706361720396
 31
0.0
  0
LINE
  5
38A
330
1F
100
AcDbEntity
  8
0
  6
Continuous
 62
    91
370
    18
100
AcDbLine
 10
-0.2121471684643592
 20
27.24706361720396
 30
0.0
 11
-0.212147168464337
 21
7.747063617203963
 31
0.0
  0
LINE
  5
38B
330
1F
100
AcDbEntity
  8
0
  6
Continuous
 62
    91
370
    18
100
AcDbLine
 10
0.7878528315356634
 20
7.747063617203963
 30
0.0
 11
0.7878528315356421
 21
27.24706361720396
 31
0.0
  0
LINE
  5
38C
330
1F
100
AcDbEntity
  8
0
  6
Continuous
 62
    91
370
    18
100
AcDbLine
 10
2.787852831535655
 20
9.547063617203975
 30
0.0
 11
2.787852831535668
 21
31.24706361720398
 31
0.0
  0
LINE
  5
38D
330
1F
100
AcDbEntity
  8
0
  6
Continuous
 62
    91
370
    18
100
AcDbLine
 10
5.787852831535659
 20
31.24706361720398
 30
0.0
 11
5.787852831535645
 21
9.547063617203968
 31
0.0
  0
LINE
  5
38E
330
1F
100
AcDbEntity
  8
0
  6
Continuous
 62
    91
370
    18
100
AcDbLine
 10
4.78785283153565
 20
7.747063617203942
 30
0.0
 11
4.787852831535655
 21
27.24706361720395
 31
0.0
  0
LINE
  5
38F
330
1F
100
AcDbEntity
  8
0
  6
Continuous
 62
    91
370
    18
100
AcDbLine
 10
3.787852831535663
 20
27.24706361720396
 30
0.0
 11
3.787852831535655
 21
7.747063617203963
 31
0.0
  0
LINE
  5
390
330
1F
100
AcDbEntity
  8
0
  6
Continuous
 62
    91
370
    18
100
AcDbLine
 10
6.787852831535641
 20
9.547063617203968
 30
0.0
 11
6.787852831535661
 21
31.24706361720398
 31
0.0
  0
LINE
  5
391
330
1F
100
AcDbEntity
  8
0
  6
Continuous
 62
    91
370
    18
100
AcDbLine
 10
0.7878528315356457
 20
14.74706361720391
 30
0.0
 11
3.787852831535652
 21
14.74706361720396
 31
0.0
  0
LINE
  5
392
330
1F
100
AcDbEntity
  8
0
  6
Continuous
 62
    91
370
    18
100
AcDbLine
 10
4.787852831535645
 20
14.74706361720396
 30
0.0
 11
6.787852831535641
 21
14.74706361720396
 31
0.0
  0
LINE
  5
393
330
1F
100
AcDbEntity
  8
0
  6
Continuous
 62
    91
370
    18
100
AcDbLine
 10
-2.712297686344968
 20
-59.75293638279604
 30
0.0
 11
1.787702313655032
 21
-59.75293638279604
 31
0.0
  0
LINE
  5
394
330
1F
100
AcDbEntity
  8
0
  6
Continuous
 62
    91
370
    18
100
AcDbLine
 10
-1.212297686344957
 20
-59.75293638279604
 30
0.0
 11
-1.212297686344946
 21
-42.05293638279604
 31
0.0
  0
LINE
  5
395
330
1F
100
AcDbEntity
  8
0
  6
Continuous
 62
    91
370
    18
100
AcDbLine
 10
1.787702313655013
 20
-42.05293638279605
 30
0.0
 11
1.787702313655032
 21
-61.35293638279602
 31
0.0
  0
LINE
  5
396
330
1F
100
AcDbEntity
  8
0
  6
Continuous
 62
    91
370
    18
100
AcDbLine
 10
0.7877023136550365
 20
-59.75293638279604
 30
0.0
 11
0.7877023136550152
 21
-40.25293638279604
 31
0.0
  0
LINE
  5
397
330
1F
100
AcDbEntity
  8
0
  6
Continuous
 62
    91
370
    18
100
AcDbLine
 10
0.7877023136550152
 20
-40.25293638279604
 30
0.0
 11
-0.2122976863449821
 21
-40.25293638279604
 31
0.0
  0
LINE
  5
398
330
1F
100
AcDbEntity
  8
0
  6
Continuous
 62
    91
370
    18
100
AcDbLine
 10
-0.2122976863449821
 20
-40.25293638279604
 30
0.0
 11
-0.2122976863449613
 21
-59.75293638279604
 31
0.0
  0
LINE
  5
399
330
1F
100
AcDbEntity
  8
0
  6
Continuous
 62
    91
370
    18
100
AcDbLine
 10
2.787702313655043
 20
-42.05293638279605
 30
0.0
 11
2.787702313655029
 21
-61.35293638279603
 31
0.0
  0
LINE
  5
39A
330
1F
100
AcDbEntity
  8
0
  6
Continuous
 62
    91
370
    18
100
AcDbLine
 10
5.787702313655036
 20
-42.05293638279604
 30
0.0
 11
5.787702313655021
 21
-61.35293638279602
 31
0.0
  0
LINE
  5
39B
330
1F
100
AcDbEntity
  8
0
  6
Continuous
 62
    91
370
    18
100
AcDbLine
 10
4.787702313655025
 20
-59.75293638279604
 30
0.0
 11
4.787702313655032
 21
-40.25293638279604
 31
0.0
  0
LINE
  5
39C
330
1F
100
AcDbEntity
  8
0
  6
Continuous
 62
    91
370
    18
100
AcDbLine
 10
4.787702313655032
 20
-40.25293638279604
 30
0.0
 11
3.787702313655004
 21
-40.25293638279605
 31
0.0
  0
LINE
  5
39D
330
1F
100
AcDbEntity
  8
0
  6
Continuous
 62
    91
370
    18
100
AcDbLine
 10
3.787702313655004
 20
-40.25293638279605
 30
0.0
 11
3.787702313655029
 21
-59.75293638279604
 31
0.0
  0
LINE
  5
39E
330
1F
100
AcDbEntity
  8
0
  6
Continuous
 62
    91
370
    18
100
AcDbLine
 10
6.787702313655021
 20
-61.35293638279602
 30
0.0
 11
6.78770231365503
 21
-42.05293638279604
 31
0.0
  0
LINE
  5
39F
330
1F
100
AcDbEntity
  8
0
  6
Continuous
 62
    91
370
    18
100
AcDbLine
 10
0.7877023136550525
 20
-47.25293638279604
 30
0.0
 11
3.787702313655043
 21
-47.25293638279604
 31
0.0
  0
LINE
  5
3A0
330
1F
100
AcDbEntity
  8
0
  6
Continuous
 62
    91
370
    18
100
AcDbLine
 10
4.787702313655039
 20
-47.25293638279604
 30
0.0
 11
6.78770231365503
 21
-47.25293638279604
 31
0.0
  0
LINE
  5
3A1
330
1F
100
AcDbEntity
  8
0
  6
Continuous
 62
    91
370
    18
100
AcDbLine
 10
-11.01214716846437
 20
-61.35293638279602
 30
0.0
 11
9.487852831535621
 21
-61.35293638279602
 31
0.0
  0
LINE
  5
3A2
330
1F
100
AcDbEntity
  8
0
  6
Continuous
 62
    91
370
    18
100
AcDbLine
 10
9.487852831535632
 20
-71.15293638279603
 30
0.0
 11
-11.01214716846436
 21
-71.15293638279601
 31
0.0
  0
LINE
  5
3A3
330
1F
100
AcDbEntity
  8
0
  6
Continuous
 62
    91
370
    18
100
AcDbLine
 10
9.487852831535632
 20
-63.70293638279601
 30
0.0
 11
-11.01214716846435
 21
-63.702936382796
 31
0.0
  0
LINE
  5
3A4
330
1F
100
AcDbEntity
  8
0
  6
Continuous
 62
    91
370
    18
100
AcDbLine
 10
-11.01214716846437
 20
-68.80293638279602
 30
0.0
 11
9.487852831535621
 21
-68.80293638279602
 31
0.0
  0
LINE
  5
3A5
330
1F
100
AcDbEntity
  8
0
  6
Continuous
 62
    91
370
    18
100
AcDbLine
 10
20.48785283153567
 20
41.24706361720395
 30
0.0
 11
20.48785283153563
 21
36.24706361720393
 31
0.0
  0
LINE
  5
3A6
330
1F
100
AcDbEntity
  8
0
  6
Continuous
 62
    91
370
    18
100
AcDbLine
 10
20.48785283153563
 20
31.24706361720396
 30
0.0
 11
20.48785283153565
 21
6.247063617203935
 31
0.0
  0
LINE
  5
3A7
330
1F
100
AcDbEntity
  8
0
  6
Continuous
 62
    91
370
    18
100
AcDbLine
 10
20.48785283153563
 20
-38.75293638279604
 30
0.0
 11
20.4878528315356
 21
-73.75293638279605
 31
0.0
  0
LINE
  5
3A8
330
1F
100
AcDbEntity
  8
0
  6
Continuous
 62
    91
370
    18
100
AcDbLine
 10
20.4878528315356
 20
-73.75293638279605
 30
0.0
 11
10.48785283153564
 21
-73.75293638279605
 31
0.0
  0
LINE
  5
3A9
330
1F
100
AcDbEntity
  8
0
  6
Continuous
 62
    91
370
    18
100
AcDbLine
 10
9.48785283153564
 20
-72.75293638279602
 30
0.0
 11
9.48785283153564
 21
-68.25293638279602
 31
0.0
  0
LINE
  5
3AA
330
1F
100
AcDbEntity
  8
0
  6
Continuous
 62
    91
370
    18
100
AcDbLine
 10
9.487852831535632
 20
-64.25293638279604
 30
0.0
 11
9.487852831535651
 21
-44.75293638279604
 31
0.0
  0
LINE
  5
3AB
330
1F
100
AcDbEntity
  8
0
  6
Continuous
 62
    91
370
    18
100
AcDbLine
 10
9.48785283153567
 20
24.24706361720396
 30
0.0
 11
9.48785283153566
 21
31.24706361720395
 31
0.0
  0
LINE
  5
3AC
330
1F
100
AcDbEntity
  8
0
  6
Continuous
 62
    91
370
    18
100
AcDbLine
 10
9.48785283153567
 20
36.24706361720396
 30
0.0
 11
9.48785283153567
 21
40.24706361720395
 31
0.0
  0
LINE
  5
3AD
330
1F
100
AcDbEntity
  8
0
  6
Continuous
 62
    91
370
    18
100
AcDbLine
 10
10.48785283153567
 20
41.24706361720395
 30
0.0
 11
20.48785283153567
 21
41.24706361720395
 31
0.0
  0
LINE
  5
3AE
330
1F
100
AcDbEntity
  8
0
  6
Continuous
 62
    91
370
    18
100
AcDbLine
 10
20.48785283153565
 20
28.74706361720395
 30
0.0
 11
17.98785283153567
 21
28.74706361720395
 31
0.0
  0
LINE
  5
3AF
330
1F
100
AcDbEntity
  8
0
  6
Continuous
 62
    91
370
    18
100
AcDbLine
 10
17.98785283153567
 20
28.74706361720395
 30
0.0
 11
17.98785283153564
 21
6.247063617203935
 31
0.0
  0
LINE
  5
3B0
330
1F
100
AcDbEntity
  8
0
  6
Continuous
 62
    91
370
    18
100
AcDbLine
 10
17.98785283153564
 20
-38.75293638279605
 30
0.0
 11
17.98785283153564
 21
-61.25293638279605
 31
0.0
  0
LINE
  5
3B1
330
1F
100
AcDbEntity
  8
0
  6
Continuous
 62
    91
370
    18
100
AcDbLine
 10
20.48785283153562
 20
-61.25293638279604
 30
0.0
 11
17.98785283153564
 21
-61.25293638279605
 31
0.0
  0
LINE
  5
3B2
330
1F
100
AcDbEntity
  8
0
  6
Continuous
 62
    91
370
    18
100
AcDbLine
 10
17.98785283153564
 20
25.59706361720396
 30
0.0
 11
17.28785283153566
 21
25.59706361720396
 31
0.0
  0
LINE
  5
3B3
330
1F
100
AcDbEntity
  8
0
  6
Continuous
 62
    91
370
    18
100
AcDbLine
 10
17.28785283153564
 20
-58.10293638279605
 30
0.0
 11
17.98785283153562
 21
-58.10293638279605
 31
0.0
  0
LINE
  5
3B4
330
1F
100
AcDbEntity
  8
0
  6
Continuous
 62
    91
370
    18
100
AcDbLine
 10
6.78770231365503
 20
-44.75293638279604
 30
0.0
 11
17.30970231365503
 21
-44.75293638279604
 31
0.0
  0
LINE
  5
3B5
330
1F
100
AcDbEntity
  8
0
  6
Continuous
 62
    91
370
    18
100
AcDbLine
 10
6.787852831535661
 20
24.24706361720395
 30
0.0
 11
9.48785283153567
 21
24.24706361720396
 31
0.0
  0
LINE
  5
3B6
330
1F
100
AcDbEntity
  8
0
  6
Continuous
 62
    91
370
    18
100
AcDbLine
 10
9.487852831535651
 20
26.24706361720396
 30
0.0
 11
17.28785283153566
 21
26.24706361720395
 31
0.0
  0
LINE
  5
3B7
330
1F
100
AcDbEntity
  8
0
  6
Continuous
 62
    91
370
    18
100
AcDbLine
 10
17.28785283153566
 20
26.24706361720395
 30
0.0
 11
17.28785283153563
 21
6.247063617203942
 31
0.0
  0
LINE
  5
3B8
330
1F
100
AcDbEntity
  8
0
  6
Continuous
 62
    91
370
    18
100
AcDbLine
 10
17.28785283153564
 20
-38.75293638279604
 30
0.0
 11
17.28785283153564
 21
-58.75293638279602
 31
0.0
  0
LINE
  5
3B9
330
1F
100
AcDbEntity
  8
0
  6
Continuous
 62
    91
370
    18
100
AcDbLine
 10
9.487852831535621
 20
-56.75293638279603
 30
0.0
 11
6.787702313655021
 21
-56.75293638279602
 31
0.0
  0
LINE
  5
3BA
330
1F
100
AcDbEntity
  8
0
  6
Continuous
 62
    91
370
    18
100
AcDbLine
 10
6.809702313655031
 20
12.24706361720394
 30
0.0
 11
17.30970231365505
 21
12.24706361720394
 31
0.0
  0
LINE
  5
3BB
330
1F
100
AcDbEntity
  8
0
  6
Continuous
 62
    91
370
    18
100
AcDbLine
 10
6.787852831535661
 20
21.49706361720395
 30
0.0
 11
17.28785283153564
 21
21.49706361720395
 31
0.0
  0
LINE
  5
3BC
330
1F
100
AcDbEntity
  8
0
  6
Continuous
 62
    91
370
    18
100
AcDbLine
 10
17.28785283153565
 20
15.99706361720393
 30
0.0
 11
6.787852831535661
 21
15.99706361720394
 31
0.0
  0
LINE
  5
3BD
330
1F
100
AcDbEntity
  8
0
  6
Continuous
 62
    91
370
    18
100
AcDbLine
 10
-0.212147168464337
 20
7.747063617203963
 30
0.0
 11
0.7878528315356634
 21
7.747063617203963
 31
0.0
  0
LINE
  5
3BE
330
1F
100
AcDbEntity
  8
0
  6
Continuous
 62
    91
370
    18
100
AcDbLine
 10
3.787852831535655
 20
7.747063617203963
 30
0.0
 11
4.78785283153565
 21
7.747063617203942
 31
0.0
  0
CIRCLE
  5
3BF
330
1F
100
AcDbEntity
  8
0
  6
Continuous
 62
    91
370
    18
100
AcDbCircle
 10
-11.31214716846436
 20
-37.15293638279604
 30
0.0
 40
0.6
  0
ARC
  5
3C0
330
1F
100
AcDbEntity
  8
0
  6
Continuous
 62
    91
370
    18
100
AcDbCircle
 10
-10.71214716846437
 20
-43.35293638279604
 30
0.0
 40
0.6
100
AcDbArc
 50
90.0
 51
270.0
  0
CIRCLE
  5
3C1
330
1F
100
AcDbEntity
  8
0
  6
Continuous
 62
    91
370
    18
100
AcDbCircle
 10
-11.91214716846436
 20
-43.35293638279603
 30
0.0
 40
0.6
  0
ARC
  5
3C2
330
1F
100
AcDbEntity
  8
0
  6
Continuous
 62
    91
370
    18
100
AcDbCircle
 10
-33.01214716846435
 20
-37.15293638279604
 30
0.0
 40
0.6
100
AcDbArc
 50
270.0
 51
90.0
  0
CIRCLE
  5
3C3
330
1F
100
AcDbEntity
  8
0
  6
Continuous
 62
    91
370
    18
100
AcDbCircle
 10
-31.81214716846434
 20
-37.15293638279604
 30
0.0
 40
0.6
  0
CIRCLE
  5
3C4
330
1F
100
AcDbEntity
  8
0
  6
Continuous
 62
    91
370
    18
100
AcDbCircle
 10
-32.41214716846439
 20
-43.35293638279604
 30
0.0
 40
0.6
  0
LINE
  5
3C5
330
1F
100
AcDbEntity
  8
0
  6
Continuous
 62
    91
370
    18
100
AcDbLine
 10
-10.71214716846436
 20
-73.75293638279604
 30
0.0
 11
-2.712297686344947
 21
-73.75293638279602
 31
0.0
  0
LINE
  5
3C6
330
1F
100
AcDbEntity
  8
0
  6
Continuous
 62
    91
370
    18
100
AcDbLine
 10
-11.01214716846436
 20
-73.75293638279604
 30
0.0
 11
-43.51214716846437
 21
-73.75293638279602
 31
0.0
  0
LINE
  5
3C7
330
1F
100
AcDbEntity
  8
0
  6
Continuous
 62
    91
370
    18
100
AcDbLine
 10
-13.51214716846436
 20
41.24706361720396
 30
0.0
 11
-13.51214716846432
 21
43.74706361720396
 31
0.0
  0
LINE
  5
3C8
330
1F
100
AcDbEntity
  8
0
  6
Continuous
 62
    91
370
    18
100
AcDbLine
 10
-13.51214716846432
 20
43.74706361720396
 30
0.0
 11
-24.5121471684643
 21
43.74706361720393
 31
0.0
  0
LINE
  5
3C9
330
1F
100
AcDbEntity
  8
0
  6
Continuous
 62
    91
370
    18
100
AcDbLine
 10
-24.5121471684643
 20
43.74706361720393
 30
0.0
 11
-24.51214716846435
 21
41.24706361720398
 31
0.0
  0
LINE
  5
3CA
330
1F
100
AcDbEntity
  8
0
  6
Continuous
 62
    91
370
    18
100
AcDbLine
 10
-16.81214716846434
 20
43.74706361720393
 30
0.0
 11
-16.81214716846433
 21
57.74706361720393
 31
0.0
  0
LINE
  5
3CB
330
1F
100
AcDbEntity
  8
0
  6
Continuous
 62
    91
370
    18
100
AcDbLine
 10
-21.2121471684643
 20
57.74706361720393
 30
0.0
 11
-21.2121471684643
 21
43.74706361720395
 31
0.0
  0
LINE
  5
3CC
330
1F
100
AcDbEntity
  8
0
  6
Continuous
 62
    91
370
    18
100
AcDbLine
 10
-19.01214716846432
 20
43.74706361720396
 30
0.0
 11
-19.01214716846435
 21
57.74706361720393
 31
0.0
  0
LINE
  5
3CD
330
1F
100
AcDbEntity
  8
0
  6
Continuous
 62
    91
370
    18
100
AcDbLine
 10
-16.81214716846431
 20
61.74706361720393
 30
0.0
 11
-16.81214716846433
 21
73.74706361720393
 31
0.0
  0
LINE
  5
3CE
330
1F
100
AcDbEntity
  8
0
  6
Continuous
 62
    91
370
    18
100
AcDbLine
 10
-16.81214716846433
 20
73.74706361720393
 30
0.0
 11
-21.2121471684643
 21
73.74706361720393
 31
0.0
  0
LINE
  5
3CF
330
1F
100
AcDbEntity
  8
0
  6
Continuous
 62
    91
370
    18
100
AcDbLine
 10
-21.2121471684643
 20
73.74706361720393
 30
0.0
 11
-21.21214716846433
 21
61.74706361720393
 31
0.0
  0
LINE
  5
3D0
330
1F
100
AcDbEntity
  8
0
  6
Continuous
 62
    91
370
    18
100
AcDbLine
 10
-19.01214716846431
 20
61.74706361720393
 30
0.0
 11
-19.01214716846434
 21
73.74706361720393
 31
0.0
  0
LINE
  5
3D1
330
1F
100
AcDbEntity
  8
0
  6
Continuous
 62
    91
370
    18
100
AcDbLine
 10
-18.41214716846434
 20
73.74706361720393
 30
0.0
 11
-18.41214716846432
 21
77.74706361720393
 31
0.0
  0
LINE
  5
3D2
330
1F
100
AcDbEntity
  8
0
  6
Continuous
 62
    91
370
    18
100
AcDbLine
 10
-18.41214716846432
 20
77.74706361720393
 30
0.0
 11
-17.41214716846435
 21
77.74706361720393
 31
0.0
  0
LINE
  5
3D3
330
1F
100
AcDbEntity
  8
0
  6
Continuous
 62
    91
370
    18
100
AcDbLine
 10
-17.41214716846435
 20
77.74706361720393
 30
0.0
 11
-17.41214716846432
 21
73.74706361720393
 31
0.0
  0
LINE
  5
3D4
330
1F
100
AcDbEntity
  8
0
  6
Continuous
 62
    91
370
    18
100
AcDbLine
 10
-19.61214716846428
 20
73.74706361720393
 30
0.0
 11
-19.6121471684643
 21
77.74706361720393
 31
0.0
  0
LINE
  5
3D5
330
1F
100
AcDbEntity
  8
0
  6
Continuous
 62
    91
370
    18
100
AcDbLine
 10
-19.6121471684643
 20
77.74706361720393
 30
0.0
 11
-20.61214716846434
 21
77.74706361720393
 31
0.0
  0
LINE
  5
3D6
330
1F
100
AcDbEntity
  8
0
  6
Continuous
 62
    91
370
    18
100
AcDbLine
 10
-20.61214716846434
 20
77.74706361720393
 30
0.0
 11
-20.6121471684643
 21
73.74706361720393
 31
0.0
  0
LINE
  5
3D7
330
1F
100
AcDbEntity
  8
0
  6
Continuous
 62
    91
370
    18
100
AcDbLine
 10
2.787702313655032
 20
-59.75293638279604
 30
0.0
 11
5.787702313655025
 21
-59.75293638279604
 31
0.0
  0
LINE
  5
3D8
330
1F
100
AcDbEntity
  8
0
  6
Continuous
 62
    91
370
    18
100
AcDbLine
 10
9.48785283153567
 20
36.49706361720396
 30
0.0
 11
20.48785283153563
 21
36.49706361720396
 31
0.0
  0
LINE
  5
3D9
330
1F
100
AcDbEntity
  8
0
  6
Continuous
 62
    91
370
    18
100
AcDbLine
 10
9.48785283153566
 20
30.99706361720396
 30
0.0
 11
20.48785283153563
 21
30.99706361720396
 31
0.0
  0
LINE
  5
3DA
330
1F
100
AcDbEntity
  8
0
  6
Continuous
 62
    91
370
    18
100
AcDbLine
 10
17.28785283153564
 20
-58.75293638279604
 30
0.0
 11
9.487852831535621
 21
-58.75293638279604
 31
0.0
  0
LINE
  5
3DB
330
1F
100
AcDbEntity
  8
0
  6
Continuous
 62
    91
370
    18
100
AcDbLine
 10
-10.71214716846434
 20
28.84706361720394
 30
0.0
 11
-2.712147168464337
 21
28.84706361720394
 31
0.0
  0
LINE
  5
3DC
330
1F
100
AcDbEntity
  8
0
  6
Continuous
 62
    91
370
    18
100
AcDbLine
 10
-2.712147168464355
 20
38.64706361720395
 30
0.0
 11
-10.71214716846433
 21
38.64706361720394
 31
0.0
  0
LINE
  5
3DD
330
1F
100
AcDbEntity
  8
0
  6
Continuous
 62
    91
370
    18
100
AcDbLine
 10
9.48785283153567
 20
40.24706361720395
 30
0.0
 11
10.48785283153567
 21
41.24706361720395
 31
0.0
  0
LINE
  5
3DE
330
1F
100
AcDbEntity
  8
0
  6
Continuous
 62
    91
370
    18
100
AcDbLine
 10
10.48785283153564
 20
-73.75293638279605
 30
0.0
 11
9.48785283153564
 21
-72.75293638279602
 31
0.0
  0
LINE
  5
3DF
330
1F
100
AcDbEntity
  8
0
  6
Continuous
 62
    91
370
    18
100
AcDbLine
 10
-44.51214716846435
 20
40.24706361720401
 30
0.0
 11
-44.51214716846438
 21
1.747063617203985
 31
0.0
  0
LINE
  5
3E0
330
1F
100
AcDbEntity
  8
0
  6
Continuous
 62
    91
370
    18
100
AcDbLine
 10
-44.51214716846438
 20
-34.25293638279602
 30
0.0
 11
-44.51214716846437
 21
-72.75293638279602
 31
0.0
  0
LINE
  5
3E1
330
1F
100
AcDbEntity
  8
0
  6
Continuous
 62
    91
370
    18
100
AcDbLine
 10
-43.51214716846435
 20
41.24706361720401
 30
0.0
 11
-44.51214716846435
 21
40.24706361720401
 31
0.0
  0
LINE
  5
3E2
330
1F
100
AcDbEntity
  8
0
  6
Continuous
 62
    91
370
    18
100
AcDbLine
 10
-43.51214716846437
 20
-73.75293638279602
 30
0.0
 11
-44.51214716846437
 21
-72.75293638279602
 31
0.0
  0
CIRCLE
  5
3E3
330
1F
100
AcDbEntity
  8
0
  6
Continuous
 62
    91
370
    18
100
AcDbCircle
 10
125.2097310070566
 20
-16.25293638279607
 30
0.0
 40
45.0
  0
CIRCLE
  5
3E4
330
1F
100
AcDbEntity
  8
0
  6
Continuous
 62
    91
370
    18
100
AcDbCircle
 10
125.2097310070566
 20
-16.25293638279607
 30
0.0
 40
25.8
  0
CIRCLE
  5
3E5
330
1F
100
AcDbEntity
  8
0
  6
Continuous
 62
    91
370
    18
100
AcDbCircle
 10
125.2097310070566
 20
-16.25293638279607
 30
0.0
 40
41.84999999999999
  0
CIRCLE
  5
3E6
330
1F
100
AcDbEntity
  8
0
  6
Continuous
 62
    91
370
    18
100
AcDbCircle
 10
125.2097310070566
 20
-16.25293638279607
 30
0.0
 40
42.5
  0
CIRCLE
  5
3E7
330
1F
100
AcDbEntity
  8
0
  6
Continuous
 62
    91
370
    18
100
AcDbCircle
 10
125.2097310070566
 20
-16.25293638279607
 30
0.0
 40
28.5
  0
LINE
  5
3E8
330
1F
100
AcDbEntity
  8
0
  6
Continuous
 62
    91
370
    18
100
AcDbLine
 10
132.8473824032836
 20
41.22894146709427
 30
0.0
 11
147.3362697976197
 21
37.34665579055647
 31
0.0
  0
LINE
  5
3E9
330
1F
100
AcDbEntity
  8
0
  6
Continuous
 62
    91
370
    18
100
AcDbLine
 10
147.2091304429004
 20
36.87216525910378
 30
0.0
 11
147.7762621742944
 21
38.98872969524774
 31
0.0
  0
LINE
  5
3EA
330
1F
100
AcDbEntity
  8
0
  6
Continuous
 62
    91
370
    18
100
AcDbLine
 10
133.2873747799583
 20
42.87101537178559
 30
0.0
 11
132.7202430485648
 21
40.75445093564157
 31
0.0
  0
LINE
  5
3EB
330
1F
100
AcDbEntity
  8
0
  6
Continuous
 62
    91
370
    18
100
AcDbLine
 10
133.2873747799579
 20
42.87101537178565
 30
0.0
 11
147.7762621742939
 21
38.98872969524786
 31
0.0
  0
CIRCLE
  5
3EC
330
1F
100
AcDbEntity
  8
0
  6
Continuous
 62
    91
370
    18
100
AcDbCircle
 10
125.2097310070566
 20
33.74706361720395
 30
0.0
 40
2.5
  0
CIRCLE
  5
3ED
330
1F
100
AcDbEntity
  8
0
  6
Continuous
 62
    91
370
    18
100
AcDbCircle
 10
125.2097310070566
 20
33.74706361720395
 30
0.0
 40
2.75
  0
CIRCLE
  5
3EE
330
1F
100
AcDbEntity
  8
0
  6
Continuous
 62
    91
370
    18
100
AcDbCircle
 10
160.2097310070566
 20
-16.25293638279609
 30
0.0
 40
2.75
  0
CIRCLE
  5
3EF
330
1F
100
AcDbEntity
  8
0
  6
Continuous
 62
    91
370
    18
100
AcDbCircle
 10
90.20973100705669
 20
-16.25293638279604
 30
0.0
 40
2.75
  0
CIRCLE
  5
3F0
330
1F
100
AcDbEntity
  8
0
  6
Continuous
 62
    91
370
    18
100
AcDbCircle
 10
100.2097310070566
 20
27.04833380642584
 30
0.0
 40
2.1
  0
CIRCLE
  5
3F1
330
1F
100
AcDbEntity
  8
0
  6
Continuous
 62
    91
370
    18
100
AcDbCircle
 10
81.90846081783471
 20
8.747063617203963
 30
0.0
 40
2.5
  0
CIRCLE
  5
3F2
330
1F
100
AcDbEntity
  8
0
  6
Continuous
 62
    91
370
    18
100
AcDbCircle
 10
81.90846081783471
 20
8.747063617203963
 30
0.0
 40
2.75
  0
CIRCLE
  5
3F3
330
1F
100
AcDbEntity
  8
0
  6
Continuous
 62
    91
370
    18
100
AcDbCircle
 10
75.2097310070567
 20
-16.25293638279604
 30
0.0
 40
2.1
  0
CIRCLE
  5
3F4
330
1F
100
AcDbEntity
  8
0
  6
Continuous
 62
    91
370
    18
100
AcDbCircle
 10
81.90846081783471
 20
-41.25293638279605
 30
0.0
 40
2.5
  0
CIRCLE
  5
3F5
330
1F
100
AcDbEntity
  8
0
  6
Continuous
 62
    91
370
    18
100
AcDbCircle
 10
81.90846081783471
 20
-41.25293638279605
 30
0.0
 40
2.75
  0
CIRCLE
  5
3F6
330
1F
100
AcDbEntity
  8
0
  6
Continuous
 62
    91
370
    18
100
AcDbCircle
 10
100.2097310070566
 20
-59.55420657201797
 30
0.0
 40
2.1
  0
CIRCLE
  5
3F7
330
1F
100
AcDbEntity
  8
0
  6
Continuous
 62
    91
370
    18
100
AcDbCircle
 10
125.2097310070566
 20
-66.25293638279608
 30
0.0
 40
2.5
  0
CIRCLE
  5
3F8
330
1F
100
AcDbEntity
  8
0
  6
Continuous
 62
    91
370
    18
100
AcDbCircle
 10
125.2097310070566
 20
-66.25293638279608
 30
0.0
 40
2.75
  0
CIRCLE
  5
3F9
330
1F
100
AcDbEntity
  8
0
  6
Continuous
 62
    91
370
    18
100
AcDbCircle
 10
150.2097310070566
 20
-59.55420657201799
 30
0.0
 40
2.1
  0
CIRCLE
  5
3FA
330
1F
100
AcDbEntity
  8
0
  6
Continuous
 62
    91
370
    18
100
AcDbCircle
 10
168.5110011962786
 20
-41.2529363827961
 30
0.0
 40
2.5
  0
CIRCLE
  5
3FB
330
1F
100
AcDbEntity
  8
0
  6
Continuous
 62
    91
370
    18
100
AcDbCircle
 10
168.5110011962786
 20
-41.2529363827961
 30
0.0
 40
2.75
  0
CIRCLE
  5
3FC
330
1F
100
AcDbEntity
  8
0
  6
Continuous
 62
    91
370
    18
100
AcDbCircle
 10
175.2097310070566
 20
-16.25293638279609
 30
0.0
 40
2.1
  0
CIRCLE
  5
3FD
330
1F
100
AcDbEntity
  8
0
  6
Continuous
 62
    91
370
    18
100
AcDbCircle
 10
168.5110011962786
 20
8.747063617203892
 30
0.0
 40
2.5
  0
CIRCLE
  5
3FE
330
1F
100
AcDbEntity
  8
0
  6
Continuous
 62
    91
370
    18
100
AcDbCircle
 10
168.5110011962786
 20
8.747063617203892
 30
0.0
 40
2.75
  0
CIRCLE
  5
3FF
330
1F
100
AcDbEntity
  8
0
  6
Continuous
 62
    91
370
    18
100
AcDbCircle
 10
150.2097310070566
 20
27.04833380642586
 30
0.0
 40
2.1
  0
LINE
  5
400
330
1F
100
AcDbEntity
  8
0
  6
Continuous
 62
    91
370
    18
100
AcDbLine
 10
142.8369552098522
 20
45.28153867350781
 30
0.0
 11
145.4252145245397
 21
54.94105393908484
 31
0.0
  0
LINE
  5
401
330
1F
100
AcDbEntity
  8
0
  6
Continuous
 62
    91
370
    18
100
AcDbLine
 10
140.7119183920162
 20
45.85094057273335
 30
0.0
 11
143.3001777067036
 21
55.51045583831034
 31
0.0
  0
LINE
  5
402
330
1F
100
AcDbEntity
  8
0
  6
Continuous
 62
    91
370
    18
100
AcDbLine
 10
144.3354538871137
 20
59.37415914346664
 30
0.0
 11
147.441282428344
 21
70.96526905893543
 31
0.0
  0
LINE
  5
403
330
1F
100
AcDbEntity
  8
0
  6
Continuous
 62
    91
370
    18
100
AcDbLine
 10
146.4604907049497
 20
58.80475724424113
 30
0.0
 11
149.5663192461799
 21
70.39586715970994
 31
0.0
  0
LINE
  5
404
330
1F
100
AcDbEntity
  8
0
  6
Continuous
 62
    91
370
    18
100
AcDbLine
 10
149.5663192461799
 20
70.39586715970994
 30
0.0
 11
147.441282428344
 21
70.96526905893543
 31
0.0
  0
LINE
  5
405
330
1F
100
AcDbEntity
  8
0
  6
Continuous
 62
    91
370
    18
100
AcDbLine
 10
148.0208379241175
 20
70.80997763187393
 30
0.0
 11
149.0561141045276
 21
74.67368093703024
 31
0.0
  0
LINE
  5
406
330
1F
100
AcDbEntity
  8
0
  6
Continuous
 62
    91
370
    18
100
AcDbLine
 10
149.0561141045276
 20
74.67368093703024
 30
0.0
 11
150.0220399308166
 21
74.41486189192773
 31
0.0
  0
LINE
  5
407
330
1F
100
AcDbEntity
  8
0
  6
Continuous
 62
    91
370
    18
100
AcDbLine
 10
150.0220399308166
 20
74.41486189192773
 30
0.0
 11
148.9867637504065
 21
70.55115858677144
 31
0.0
  0
LINE
  5
408
330
1F
100
AcDbEntity
  8
0
  6
Continuous
 62
    91
370
    18
100
AcDbLine
 10
-6.912147168464376
 20
-47.25293638279604
 30
0.0
 11
-6.912147168464376
 21
14.74706361720396
 31
0.0
  0
CIRCLE
  5
409
330
1F
100
AcDbEntity
  8
0
  6
Continuous
 62
    91
370
    18
100
AcDbCircle
 10
142.7097310070567
 20
-16.25293638279608
 30
0.0
 40
2.5
  0
CIRCLE
  5
40A
330
1F
100
AcDbEntity
  8
0
  6
Continuous
 62
    91
370
    18
100
AcDbCircle
 10
107.7097310070567
 20
-16.25293638279605
 30
0.0
 40
2.5
  0
CIRCLE
  5
40B
330
1F
100
AcDbEntity
  8
0
  6
Continuous
 62
     3
370
    18
100
AcDbCircle
 10
-130.1006591861812
 20
-16.25293638279603
 30
0.0
 40
40.0
  0
CIRCLE
  5
40C
330
1F
100
AcDbEntity
  8
0
  6
Continuous
 62
     3
370
    18
100
AcDbCircle
 10
-130.1006591861812
 20
-16.25293638279603
 30
0.0
 40
14.0
  0
CIRCLE
  5
40D
330
1F
100
AcDbEntity
  8
0
  6
Continuous
 62
     3
370
    18
100
AcDbCircle
 10
-162.6006591861812
 20
-16.25293638279603
 30
0.0
 40
2.1
  0
CIRCLE
  5
40E
330
1F
100
AcDbEntity
  8
0
  6
Continuous
 62
     3
370
    18
100
AcDbCircle
 10
-97.60065918618115
 20
-16.25293638279604
 30
0.0
 40
2.1
  0
CIRCLE
  5
40F
330
1F
100
AcDbEntity
  8
0
  6
Continuous
 62
     3
370
    18
100
AcDbCircle
 10
-130.1009562144915
 20
-16.25293638279603
 30
0.0
 40
16.0
  0
LINE
  5
410
330
1F
100
AcDbEntity
  8
0
  6
Continuous
 62
     3
370
    18
100
AcDbLine
 10
-22.7800963608954
 20
1.747063617203978
 30
0.0
 11
-22.7800963608954
 21
-34.25293638279602
 31
0.0
  0
CIRCLE
  5
411
330
1F
100
AcDbEntity
  8
0
  6
Continuous
 62
     3
370
    18
100
AcDbCircle
 10
125.2097310070566
 20
-16.25293638279603
 30
0.0
 40
57.5
  0
CIRCLE
  5
412
330
1F
100
AcDbEntity
  8
0
  6
Continuous
 62
     3
370
    18
100
AcDbCircle
 10
125.2097310070566
 20
-16.25293638279603
 30
0.0
 40
22.5
  0
TEXT
  5
414
330
1F
100
AcDbEntity
  8
0
 62
     7
100
AcDbText
 10
-181.3486115945439
 20
-39.95266393970314
 30
0.0
 40
3.0
  1
※
 50
299.9999999999997
 41
0.6151538461538469
  7
dcStyle0
 72
     5
 11
-180.1486115945439
 21
-42.0311249087858
 31
0.0
100
AcDbText
  0
TEXT
  5
415
330
1F
100
AcDbEntity
  8
0
 62
     7
100
AcDbText
 10
-174.8252322106777
 20
12.9826835664958
 30
0.0
 40
3.000000000000001
  1
※
 50
59.99999999999977
 41
0.6151538461538504
  7
dcStyle0
 72
     5
 11
-173.6252322106776
 21
15.06114453557846
 31
0.0
100
AcDbText
  0
LINE
  5
416
330
1F
100
AcDbEntity
  8
0
  6
Continuous
 62
    91
370
    25
100
AcDbLine
 10
31.98785283153568
 20
5.247063617203985
 30
0.0
 11
31.98785283153566
 21
-37.75293638279601
 31
0.0
  0
LINE
  5
417
330
1F
100
AcDbEntity
  8
0
  6
Continuous
 62
    91
370
    25
100
AcDbLine
 10
11.98785283153569
 20
-38.75293638279606
 30
0.0
 11
30.98785283153566
 21
-38.752936382796
 31
0.0
  0
LINE
  5
418
330
1F
100
AcDbEntity
  8
0
  6
Continuous
 62
    91
370
    25
100
AcDbLine
 10
11.98785283153568
 20
6.247063617203985
 30
0.0
 11
30.98785283153568
 21
6.247063617203985
 31
0.0
  0
LINE
  5
419
330
1F
100
AcDbEntity
  8
0
  6
Continuous
 62
    91
370
    25
100
AcDbLine
 10
31.98785283153568
 20
-2.252936382796065
 30
0.0
 11
-3.012147168464345
 21
-2.252936382796094
 31
0.0
  0
LINE
  5
41A
330
1F
100
AcDbEntity
  8
0
  6
Continuous
 62
    91
370
    25
100
AcDbLine
 10
31.98785283153567
 20
-5.824609575488964
 30
0.0
 11
-3.012147168464374
 21
-5.824609575488992
 31
0.0
  0
LINE
  5
41B
330
1F
100
AcDbEntity
  8
0
  6
Continuous
 62
    91
370
    25
100
AcDbLine
 10
31.98785283153566
 20
-27.25293638279607
 30
0.0
 11
-3.012147168464372
 21
-27.25293638279609
 31
0.0
  0
LINE
  5
41C
330
1F
100
AcDbEntity
  8
0
  6
Continuous
 62
    91
370
    25
100
AcDbLine
 10
30.98785283153568
 20
6.247063617203985
 30
0.0
 11
31.98785283153568
 21
5.247063617203985
 31
0.0
  0
LINE
  5
41D
330
1F
100
AcDbEntity
  8
0
  6
Continuous
 62
    91
370
    25
100
AcDbLine
 10
30.98785283153566
 20
-38.752936382796
 30
0.0
 11
31.98785283153566
 21
-37.75293638279601
 31
0.0
  0
INSERT
  5
41E
330
1F
100
AcDbEntity
  8
0
  6
Continuous
100
AcDbBlockReference
  2
DC_GROUP_ESB-115T_1
 10
0.0
 20
0.0
 30
0.0
  0
INSERT
  5
41F
330
1F
100
AcDbEntity
  8
0
  6
Continuous
100
AcDbBlockReference
  2
DC_GROUP_ESB-115T_2
 10
0.0
 20
0.0
 30
0.0
  0
INSERT
  5
420
330
1F
100
AcDbEntity
  8
0
  6
Continuous
100
AcDbBlockReference
  2
DC_GROUP_ESB-115T_3
 10
0.0
 20
0.0
 30
0.0
  0
INSERT
  5
421
330
1F
100
AcDbEntity
  8
0
  6
Continuous
100
AcDbBlockReference
  2
DC_GROUP_ESB-115T_4
 10
0.0
 20
0.0
 30
0.0
  0
INSERT
  5
422
330
1F
100
AcDbEntity
  8
0
  6
Continuous
100
AcDbBlockReference
  2
DC_GROUP_ESB-115T_5
 10
0.0
 20
0.0
 30
0.0
  0
INSERT
  5
423
330
1F
100
AcDbEntity
  8
0
  6
Continuous
100
AcDbBlockReference
  2
DC_GROUP_ESB-115T_6
 10
0.0
 20
0.0
 30
0.0
  0
INSERT
  5
424
330
1F
100
AcDbEntity
  8
0
  6
Continuous
100
AcDbBlockReference
  2
DC_GROUP_ESB-115T_7
 10
0.0
 20
0.0
 30
0.0
  0
INSERT
  5
425
330
1F
100
AcDbEntity
  8
0
  6
Continuous
100
AcDbBlockReference
  2
DC_GROUP_ESB-115T_8
 10
0.0
 20
0.0
 30
0.0
  0
INSERT
  5
426
330
1F
100
AcDbEntity
  8
0
  6
Continuous
100
AcDbBlockReference
  2
DC_GROUP_ESB-115T_9
 10
0.0
 20
0.0
 30
0.0
  0
INSERT
  5
427
330
1F
100
AcDbEntity
  8
0
  6
Continuous
100
AcDbBlockReference
  2
DC_GROUP_ESB-115T_10
 10
0.0
 20
0.0
 30
0.0
  0
INSERT
  5
428
330
1F
100
AcDbEntity
  8
0
  6
Continuous
100
AcDbBlockReference
  2
DC_GROUP_ESB-115T_11
 10
0.0
 20
0.0
 30
0.0
  0
INSERT
  5
429
330
1F
100
AcDbEntity
  8
0
  6
Continuous
100
AcDbBlockReference
  2
DC_GROUP_ESB-115T_12
 10
0.0
 20
0.0
 30
0.0
  0
INSERT
  5
42A
330
1F
100
AcDbEntity
  8
0
  6
Continuous
100
AcDbBlockReference
  2
DC_GROUP_ESB-115T_13
 10
0.0
 20
0.0
 30
0.0
  0
INSERT
  5
42B
330
1F
100
AcDbEntity
  8
0
  6
Continuous
100
AcDbBlockReference
  2
DC_GROUP_ESB-115T_14
 10
0.0
 20
0.0
 30
0.0
  0
INSERT
  5
42C
330
1F
100
AcDbEntity
  8
0
  6
Continuous
100
AcDbBlockReference
  2
DC_GROUP_ESB-115T_15
 10
0.0
 20
0.0
 30
0.0
  0
INSERT
  5
42D
330
1F
100
AcDbEntity
  8
0
  6
Continuous
100
AcDbBlockReference
  2
DC_GROUP_ESB-115T_16
 10
0.0
 20
0.0
 30
0.0
  0
INSERT
  5
42E
330
1F
100
AcDbEntity
  8
0
  6
Continuous
100
AcDbBlockReference
  2
DC_GROUP_ESB-115T_17
 10
0.0
 20
0.0
 30
0.0
  0
INSERT
  5
42F
330
1F
100
AcDbEntity
  8
0
  6
Continuous
100
AcDbBlockReference
  2
DC_GROUP_ESB-115T_18
 10
0.0
 20
0.0
 30
0.0
  0
INSERT
  5
430
330
1F
100
AcDbEntity
  8
0
  6
Continuous
100
AcDbBlockReference
  2
DC_GROUP_ESB-115T_19
 10
0.0
 20
0.0
 30
0.0
  0
INSERT
  5
431
330
1F
100
AcDbEntity
  8
0
  6
Continuous
100
AcDbBlockReference
  2
DC_GROUP_ESB-115T_20
 10
0.0
 20
0.0
 30
0.0
  0
INSERT
  5
432
330
1F
100
AcDbEntity
  8
0
  6
Continuous
100
AcDbBlockReference
  2
DC_GROUP_ESB-115T_21
 10
0.0
 20
0.0
 30
0.0
  0
INSERT
  5
433
330
1F
100
AcDbEntity
  8
0
  6
Continuous
100
AcDbBlockReference
  2
DC_GROUP_ESB-115T_22
 10
0.0
 20
0.0
 30
0.0
  0
INSERT
  5
434
330
1F
100
AcDbEntity
  8
0
  6
Continuous
100
AcDbBlockReference
  2
DC_GROUP_ESB-115T_23
 10
0.0
 20
0.0
 30
0.0
  0
INSERT
  5
435
330
1F
100
AcDbEntity
  8
0
  6
Continuous
100
AcDbBlockReference
  2
DC_GROUP_ESB-115T_24
 10
0.0
 20
0.0
 30
0.0
  0
INSERT
  5
436
330
1F
100
AcDbEntity
  8
0
  6
Continuous
100
AcDbBlockReference
  2
DC_GROUP_ESB-115T_25
 10
0.0
 20
0.0
 30
0.0
  0
INSERT
  5
437
330
1F
100
AcDbEntity
  8
0
  6
Continuous
100
AcDbBlockReference
  2
DC_GROUP_ESB-115T_26
 10
0.0
 20
0.0
 30
0.0
  0
INSERT
  5
438
330
1F
100
AcDbEntity
  8
0
  6
Continuous
100
AcDbBlockReference
  2
DC_GROUP_ESB-115T_27
 10
0.0
 20
0.0
 30
0.0
  0
INSERT
  5
439
330
1F
100
AcDbEntity
  8
0
  6
Continuous
100
AcDbBlockReference
  2
DC_GROUP_ESB-115T_28
 10
0.0
 20
0.0
 30
0.0
  0
INSERT
  5
43A
330
1F
100
AcDbEntity
  8
0
  6
Continuous
100
AcDbBlockReference
  2
DC_GROUP_ESB-115T_29
 10
0.0
 20
0.0
 30
0.0
  0
INSERT
  5
43B
330
1F
100
AcDbEntity
  8
0
  6
Continuous
100
AcDbBlockReference
  2
DC_GROUP_ESB-115T_30
 10
0.0
 20
0.0
 30
0.0
  0
INSERT
  5
43C
330
1F
100
AcDbEntity
  8
0
  6
Continuous
100
AcDbBlockReference
  2
DC_GROUP_ESB-115T_31
 10
0.0
 20
0.0
 30
0.0
  0
INSERT
  5
43D
330
1F
100
AcDbEntity
  8
0
  6
Continuous
100
AcDbBlockReference
  2
DC_GROUP_ESB-115T_33
 10
0.0
 20
0.0
 30
0.0
  0
INSERT
  5
43E
330
1F
100
AcDbEntity
  8
0
  6
Continuous
100
AcDbBlockReference
  2
DC_GROUP_ESB-115T_34
 10
0.0
 20
0.0
 30
0.0
  0
INSERT
  5
43F
330
1F
100
AcDbEntity
  8
0
  6
Continuous
100
AcDbBlockReference
  2
DC_GROUP_ESB-115T_35
 10
0.0
 20
0.0
 30
0.0
  0
INSERT
  5
440
330
1F
100
AcDbEntity
  8
0
  6
Continuous
100
AcDbBlockReference
  2
DC_GROUP_ESB-115T_36
 10
0.0
 20
0.0
 30
0.0
  0
INSERT
  5
441
330
1F
100
AcDbEntity
  8
0
  6
Continuous
100
AcDbBlockReference
  2
DC_GROUP_ESB-115T_37
 10
0.0
 20
0.0
 30
0.0
  0
ARC
  5
442
330
1F
100
AcDbEntity
  8
0
  6
Continuous
 62
     3
370
    25
100
AcDbCircle
 10
-130.1009562144915
 20
-16.25293638279603
 30
0.0
 40
11.0
100
AcDbArc
 50
108.5530045350211
 51
71.44699546497901
  0
LINE
  5
443
330
1F
100
AcDbEntity
  8
0
  6
Continuous
 62
     3
370
    25
100
AcDbLine
 10
121.7097310070566
 20
-2.252936382796065
 30
0.0
 11
128.7097310070566
 21
-2.252936382796065
 31
0.0
  0
LINE
  5
444
330
1F
100
AcDbEntity
  8
0
  6
Continuous
 62
     3
370
    25
100
AcDbLine
 10
121.7097310070566
 20
-2.252936382796065
 30
0.0
 11
121.7097310070566
 21
-5.824609575489134
 31
0.0
  0
LINE
  5
445
330
1F
100
AcDbEntity
  8
0
  6
Continuous
 62
     3
370
    25
100
AcDbLine
 10
128.7097310070566
 20
-2.252936382796065
 30
0.0
 11
128.7097310070566
 21
-5.824609575489134
 31
0.0
  0
ARC
  5
446
330
1F
100
AcDbEntity
  8
0
  6
Continuous
 62
     3
370
    25
100
AcDbCircle
 10
125.2097310070566
 20
-16.25293638279607
 30
0.0
 40
11.0
100
AcDbArc
 50
108.553004535021
 51
71.44699546497901
  0
LINE
  5
447
330
1F
100
AcDbEntity
  8
0
  6
Continuous
 62
     3
370
    25
100
AcDbLine
 10
-133.6009562144914
 20
-2.697571366921267
 30
0.0
 11
-133.6009562144914
 21
-5.824609575489106
 31
0.0
  0
LINE
  5
448
330
1F
100
AcDbEntity
  8
0
  6
Continuous
 62
     3
370
    25
100
AcDbLine
 10
-126.6009562144915
 20
-2.697417982161312
 30
0.0
 11
-126.6009562144915
 21
-5.824609575489106
 31
0.0
  0
VIEWPORT
  5
B1
330
1B
100
AcDbEntity
 67
     1
  8
0
100
AcDbViewport
 10
0.0
 20
0.0
 30
0.0
 40
1134.627189180252
 41
476.7663228309069
 68
     1
 69
     1
 12
0.0
 22
0.0
 13
0.0
 23
0.0
 14
0.5
 24
0.5
 15
0.0
 25
0.0
 16
0.0
 26
0.0
 36
1.0
 17
0.0
 27
0.0
 37
0.0
 42
50.0
 43
0.0
 44
0.0
 45
476.7663228309069
 50
0.0
 51
0.0
 72
   100
 90
   557152
  1

281
     0
 71
     1
 74
     0
110
0.0
120
0.0
130
0.0
111
1.0
121
0.0
131
0.0
112
0.0
122
1.0
132
0.0
 79
     0
146
0.0
170
     0
 61
     5
348
2F
292
     1
282
     1
141
0.0
142
0.0
 63
   256
  0
ENDSEC
  0
SECTION
  2
OBJECTS
  0
DICTIONARY
  5
C
330
0
100
AcDbDictionary
281
     1
  3
ACAD_DETAILVIEWSTYLE
350
480
  3
ACAD_GROUP
350
D
  3
ACAD_LAYOUT
350
1A
  3
ACAD_MATERIAL
350
43
  3
ACAD_MLEADERSTYLE
350
6B
  3
ACAD_MLINESTYLE
350
17
  3
ACAD_PLOTSETTINGS
350
19
  3
ACAD_PLOTSTYLENAME
350
E
  3
ACAD_SCALELIST
350
47
  3
ACAD_SECTIONVIEWSTYLE
350
481
  3
ACAD_TABLESTYLE
350
69
  3
ACAD_VISUALSTYLE
350
2A
  3
ACDB_RECOMPOSE_DATA
350
47D
  3
AcDbVariableDictionary
350
449
  0
SUN
  5
6D
330
29
100
AcDbSun
 90
        1
290
     0
 63
     7
421
 16777215
 40
1.0
291
     1
 91
  2455826
 92
 54000000
292
     0
 70
     2
 71
   256
280
     1
  0
DICTIONARY
  5
480
102
{ACAD_REACTORS
330
C
102
}
330
C
100
AcDbDictionary
281
     1
  0
DICTIONARY
  5
D
102
{ACAD_REACTORS
330
C
102
}
330
C
100
AcDbDictionary
281
     1
  0
DICTIONARY
  5
1A
102
{ACAD_REACTORS
330
C
102
}
330
C
100
AcDbDictionary
281
     1
  3
Layout1
350
1E
  3
Layout2
350
26
  3
Model
350
22
  0
DICTIONARY
  5
43
102
{ACAD_REACTORS
330
C
102
}
330
C
100
AcDbDictionary
281
     1
  3
ByBlock
350
45
  3
ByLayer
350
44
  3
Global
350
46
  0
DICTIONARY
  5
6B
102
{ACAD_REACTORS
330
C
102
}
330
C
100
AcDbDictionary
281
     1
  3
Standard
350
6C
  0
DICTIONARY
  5
17
102
{ACAD_REACTORS
330
C
102
}
330
C
100
AcDbDictionary
281
     1
  3
Standard
350
18
  0
DICTIONARY
  5
19
102
{ACAD_REACTORS
330
C
102
}
330
C
100
AcDbDictionary
281
     1
  0
ACDBDICTIONARYWDFLT
  5
E
102
{ACAD_REACTORS
330
C
102
}
330
C
100
AcDbDictionary
281
     1
  3
Normal
350
F
100
AcDbDictionaryWithDefault
340
F
  0
DICTIONARY
  5
47
102
{ACAD_REACTORS
330
C
102
}
330
C
100
AcDbDictionary
281
     1
  3
A0
350
48
  3
A1
350
49
  3
A2
350
4A
  3
A3
350
4B
  3
A4
350
4C
  3
A5
350
4D
  3
A6
350
4E
  3
A7
350
4F
  3
A8
350
50
  3
A9
350
51
  3
B0
350
52
  3
B1
350
53
  3
B2
350
54
  3
B3
350
55
  3
B4
350
56
  3
B5
350
57
  3
B6
350
58
  3
B7
350
59
  3
B8
350
5A
  3
B9
350
5B
  3
C0
350
5C
  3
C1
350
5D
  3
C2
350
5E
  3
C3
350
5F
  3
C4
350
60
  3
C5
350
61
  3
C6
350
62
  3
C7
350
63
  3
C8
350
64
  3
C9
350
65
  3
D0
350
66
  3
D1
350
67
  3
D2
350
68
  0
DICTIONARY
  5
481
102
{ACAD_REACTORS
330
C
102
}
330
C
100
AcDbDictionary
281
     1
  0
DICTIONARY
  5
69
102
{ACAD_REACTORS
330
C
102
}
330
C
100
AcDbDictionary
281
     1
  3
Standard
350
6A
  0
DICTIONARY
  5
2A
102
{ACAD_REACTORS
330
C
102
}
330
C
100
AcDbDictionary
281
     1
  3
2dWireframe
350
2F
  3
Basic
350
32
  3
Brighten
350
36
  3
ColorChange
350
3A
  3
Conceptual
350
34
  3
Dim
350
35
  3
EdgeColorOff
350
3D
  3
Facepattern
350
39
  3
Flat
350
2B
  3
FlatWithEdges
350
2C
  3
Gouraud
350
2D
  3
GouraudWithEdges
350
2E
  3
Hidden
350
31
  3
JitterOff
350
3B
  3
Linepattern
350
38
  3
OverhangOff
350
3C
  3
Realistic
350
33
  3
Shaded
350
42
  3
Shaded with edges
350
41
  3
Shades of Gray
350
3E
  3
Sketchy
350
3F
  3
Thicken
350
37
  3
Wireframe
350
30
  3
X-Ray
350
40
  0
XRECORD
  5
47D
102
{ACAD_REACTORS
330
C
102
}
330
C
100
AcDbXrecord
280
     1
 90
        1
330
6A
  0
DICTIONARY
  5
449
102
{ACAD_REACTORS
330
C
102
}
330
C
100
AcDbDictionary
281
     1
  3
CANNOSCALE
350
44A
  3
CMLEADERSTYLE
350
47F
  3
CTABLESTYLE
350
47E
  0
LAYOUT
  5
1E
102
{ACAD_REACTORS
330
1A
102
}
330
1A
100
AcDbPlotSettings
  1

  2
none_device
  4

  6

 40
0.0
 41
0.0
 42
0.0
 43
0.0
 44
0.0
 45
0.0
 46
0.0
 47
0.0
 48
0.0
 49
0.0
140
0.0
141
0.0
142
1.0
143
1.0
 70
   688
 72
     0
 73
     0
 74
     5
  7

 75
    16
 76
     0
 77
     2
 78
   300
147
1.0
148
0.0
149
0.0
100
AcDbLayout
  1
Layout1
 70
     0
 71
     1
 10
0.0
 20
0.0
 11
12.0
 21
9.0
 12
0.0
 22
0.0
 32
0.0
 14
1.000000000000000E+20
 24
1.000000000000000E+20
 34
1.000000000000000E+20
 15
-1.000000000000000E+20
 25
-1.000000000000000E+20
 35
-1.000000000000000E+20
146
0.0
 13
0.0
 23
0.0
 33
0.0
 16
1.0
 26
0.0
 36
0.0
 17
0.0
 27
1.0
 37
0.0
 76
     0
330
1B
331
B1
  0
LAYOUT
  5
26
102
{ACAD_REACTORS
330
1A
102
}
330
1A
100
AcDbPlotSettings
  1

  2
none_device
  4

  6

 40
0.0
 41
0.0
 42
0.0
 43
0.0
 44
0.0
 45
0.0
 46
0.0
 47
0.0
 48
0.0
 49
0.0
140
0.0
141
0.0
142
1.0
143
1.0
 70
   688
 72
     0
 73
     0
 74
     5
  7

 75
    16
 76
     0
 77
     2
 78
   300
147
1.0
148
0.0
149
0.0
100
AcDbLayout
  1
Layout2
 70
     1
 71
     2
 10
0.0
 20
0.0
 11
0.0
 21
0.0
 12
0.0
 22
0.0
 32
0.0
 14
0.0
 24
0.0
 34
0.0
 15
0.0
 25
0.0
 35
0.0
146
0.0
 13
0.0
 23
0.0
 33
0.0
 16
1.0
 26
0.0
 36
0.0
 17
0.0
 27
1.0
 37
0.0
 76
     0
330
23
  0
LAYOUT
  5
22
102
{ACAD_REACTORS
330
1A
102
}
330
1A
100
AcDbPlotSettings
  1

  2
DWG to PDF.pc3
  4
ISO_A0_(841.00_x_1189.00_MM)
  6

 40
5.0
 41
17.0
 42
5.0
 43
17.0
 44
841.0
 45
1189.0
 46
0.0
 47
0.0
 48
0.0
 49
0.0
140
0.0
141
0.0
142
1.0
143
0.3333333333333333
 70
  1712
 72
     1
 73
     1
 74
     1
  7

 75
    16
 76
     0
 77
     2
 78
   300
147
3.0
148
0.0
149
0.0
100
AcDbLayout
  1
Model
 70
     1
 71
     0
 10
-198.1666666666667
 20
-140.1666666666667
 11
198.1666666666667
 21
140.1666666666667
 12
0.0
 22
0.0
 32
0.0
 14
-567.3135945901258
 24
-238.3831614154535
 34
0.0
 15
567.3135945901258
 25
238.3831614154535
 35
0.0
146
0.0
 13
0.0
 23
0.0
 33
0.0
 16
1.0
 26
0.0
 36
0.0
 17
0.0
 27
1.0
 37
0.0
 76
     0
330
1F
331
29
  0
MATERIAL
  5
45
102
{ACAD_REACTORS
330
43
102
}
330
43
100
AcDbMaterial
  1
ByBlock
 72
     1
 94
      127
  0
MATERIAL
  5
44
102
{ACAD_REACTORS
330
43
102
}
330
43
100
AcDbMaterial
  1
ByLayer
 72
     1
 94
      127
  0
MATERIAL
  5
46
102
{ACAD_REACTORS
330
43
102
}
330
43
100
AcDbMaterial
  1
Global
 72
     1
 94
      127
  0
MLEADERSTYLE
  5
6C
102
{ACAD_REACTORS
330
6B
102
}
330
6B
100
AcDbMLeaderStyle
179
     2
170
     2
171
     1
172
     0
 90
        2
 40
0.0
 41
0.0
173
     1
 91
-1056964608
340
14
 92
       -2
290
     1
 42
0.09
291
     1
 43
0.36
  3
Standard
341
0
 44
0.18
300

342
11
174
     1
178
     6
175
     1
176
     0
 93
-1056964608
 45
0.18
292
     0
297
     0
 46
0.18
343
0
 94
-1056964608
 47
1.0
 49
1.0
140
1.0
293
     1
141
0.0
294
     1
177
     0
142
1.0
295
     0
296
     0
143
0.125
271
     0
272
     9
273
     9
  0
MLINESTYLE
  5
18
102
{ACAD_REACTORS
330
17
102
}
330
17
100
AcDbMlineStyle
  2
Standard
 70
     0
  3

 62
   256
 51
90.0
 52
90.0
 71
     2
 49
0.5
 62
   256
  6
BYLAYER
 49
-0.5
 62
   256
  6
BYLAYER
  0
ACDBPLACEHOLDER
  5
F
102
{ACAD_REACTORS
330
E
102
}
330
E
  0
SCALE
  5
48
102
{ACAD_REACTORS
330
47
102
}
330
47
100
AcDbScale
 70
     0
300
1:1
140
1.0
141
1.0
290
     1
  0
SCALE
  5
49
102
{ACAD_REACTORS
330
47
102
}
330
47
100
AcDbScale
 70
     0
300
1:2
140
1.0
141
2.0
290
     0
  0
SCALE
  5
4A
102
{ACAD_REACTORS
330
47
102
}
330
47
100
AcDbScale
 70
     0
300
1:4
140
1.0
141
4.0
290
     0
  0
SCALE
  5
4B
102
{ACAD_REACTORS
330
47
102
}
330
47
100
AcDbScale
 70
     0
300
1:5
140
1.0
141
5.0
290
     0
  0
SCALE
  5
4C
102
{ACAD_REACTORS
330
47
102
}
330
47
100
AcDbScale
 70
     0
300
1:8
140
1.0
141
8.0
290
     0
  0
SCALE
  5
4D
102
{ACAD_REACTORS
330
47
102
}
330
47
100
AcDbScale
 70
     0
300
1:10
140
1.0
141
10.0
290
     0
  0
SCALE
  5
4E
102
{ACAD_REACTORS
330
47
102
}
330
47
100
AcDbScale
 70
     0
300
1:16
140
1.0
141
16.0
290
     0
  0
SCALE
  5
4F
102
{ACAD_REACTORS
330
47
102
}
330
47
100
AcDbScale
 70
     0
300
1:20
140
1.0
141
20.0
290
     0
  0
SCALE
  5
50
102
{ACAD_REACTORS
330
47
102
}
330
47
100
AcDbScale
 70
     0
300
1:30
140
1.0
141
30.0
290
     0
  0
SCALE
  5
51
102
{ACAD_REACTORS
330
47
102
}
330
47
100
AcDbScale
 70
     0
300
1:40
140
1.0
141
40.0
290
     0
  0
SCALE
  5
52
102
{ACAD_REACTORS
330
47
102
}
330
47
100
AcDbScale
 70
     0
300
1:50
140
1.0
141
50.0
290
     0
  0
SCALE
  5
53
102
{ACAD_REACTORS
330
47
102
}
330
47
100
AcDbScale
 70
     0
300
1:100
140
1.0
141
100.0
290
     0
  0
SCALE
  5
54
102
{ACAD_REACTORS
330
47
102
}
330
47
100
AcDbScale
 70
     0
300
2:1
140
2.0
141
1.0
290
     0
  0
SCALE
  5
55
102
{ACAD_REACTORS
330
47
102
}
330
47
100
AcDbScale
 70
     0
300
4:1
140
4.0
141
1.0
290
     0
  0
SCALE
  5
56
102
{ACAD_REACTORS
330
47
102
}
330
47
100
AcDbScale
 70
     0
300
8:1
140
8.0
141
1.0
290
     0
  0
SCALE
  5
57
102
{ACAD_REACTORS
330
47
102
}
330
47
100
AcDbScale
 70
     0
300
10:1
140
10.0
141
1.0
290
     0
  0
SCALE
  5
58
102
{ACAD_REACTORS
330
47
102
}
330
47
100
AcDbScale
 70
     0
300
100:1
140
100.0
141
1.0
290
     0
  0
SCALE
  5
59
102
{ACAD_REACTORS
330
47
102
}
330
47
100
AcDbScale
 70
     0
300
1/128" = 1'-0"
140
0.0078125
141
12.0
290
     0
  0
SCALE
  5
5A
102
{ACAD_REACTORS
330
47
102
}
330
47
100
AcDbScale
 70
     0
300
1/64" = 1'-0"
140
0.015625
141
12.0
290
     0
  0
SCALE
  5
5B
102
{ACAD_REACTORS
330
47
102
}
330
47
100
AcDbScale
 70
     0
300
1/32" = 1'-0"
140
0.03125
141
12.0
290
     0
  0
SCALE
  5
5C
102
{ACAD_REACTORS
330
47
102
}
330
47
100
AcDbScale
 70
     0
300
1/16" = 1'-0"
140
0.0625
141
12.0
290
     0
  0
SCALE
  5
5D
102
{ACAD_REACTORS
330
47
102
}
330
47
100
AcDbScale
 70
     0
300
3/32" = 1'-0"
140
0.09375
141
12.0
290
     0
  0
SCALE
  5
5E
102
{ACAD_REACTORS
330
47
102
}
330
47
100
AcDbScale
 70
     0
300
1/8" = 1'-0"
140
0.125
141
12.0
290
     0
  0
SCALE
  5
5F
102
{ACAD_REACTORS
330
47
102
}
330
47
100
AcDbScale
 70
     0
300
3/16" = 1'-0"
140
0.1875
141
12.0
290
     0
  0
SCALE
  5
60
102
{ACAD_REACTORS
330
47
102
}
330
47
100
AcDbScale
 70
     0
300
1/4" = 1'-0"
140
0.25
141
12.0
290
     0
  0
SCALE
  5
61
102
{ACAD_REACTORS
330
47
102
}
330
47
100
AcDbScale
 70
     0
300
3/8" = 1'-0"
140
0.375
141
12.0
290
     0
  0
SCALE
  5
62
102
{ACAD_REACTORS
330
47
102
}
330
47
100
AcDbScale
 70
     0
300
1/2" = 1'-0"
140
0.5
141
12.0
290
     0
  0
SCALE
  5
63
102
{ACAD_REACTORS
330
47
102
}
330
47
100
AcDbScale
 70
     0
300
3/4" = 1'-0"
140
0.75
141
12.0
290
     0
  0
SCALE
  5
64
102
{ACAD_REACTORS
330
47
102
}
330
47
100
AcDbScale
 70
     0
300
1" = 1'-0"
140
1.0
141
12.0
290
     0
  0
SCALE
  5
65
102
{ACAD_REACTORS
330
47
102
}
330
47
100
AcDbScale
 70
     0
300
1-1/2" = 1'-0"
140
1.5
141
12.0
290
     0
  0
SCALE
  5
66
102
{ACAD_REACTORS
330
47
102
}
330
47
100
AcDbScale
 70
     0
300
3" = 1'-0"
140
3.0
141
12.0
290
     0
  0
SCALE
  5
67
102
{ACAD_REACTORS
330
47
102
}
330
47
100
AcDbScale
 70
     0
300
6" = 1'-0"
140
6.0
141
12.0
290
     0
  0
SCALE
  5
68
102
{ACAD_REACTORS
330
47
102
}
330
47
100
AcDbScale
 70
     0
300
1'-0" = 1'-0"
140
12.0
141
12.0
290
     0
  0
TABLESTYLE
  5
6A
102
{ACAD_REACTORS
330
69
102
}
102
{ACAD_XDICTIONARY
360
47B
102
}
330
69
100
AcDbTableStyle
  3
Standard
 70
     0
 71
     0
 40
0.06
 41
0.06
280
     0
281
     0
  7
Standard
140
0.18
170
     2
 62
     0
 63
   257
283
     0
 90
        4
 91
        0
  1

274
    -2
284
     1
 64
     0
275
    -2
285
     1
 65
     0
276
    -2
286
     1
 66
     0
277
    -2
287
     1
 67
     0
278
    -2
288
     1
 68
     0
279
    -2
289
     1
 69
     0
  7
Standard
140
0.25
170
     5
 62
     0
 63
   257
283
     0
 90
        4
 91
        0
  1

274
    -2
284
     1
 64
     0
275
    -2
285
     1
 65
     0
276
    -2
286
     1
 66
     0
277
    -2
287
     1
 67
     0
278
    -2
288
     1
 68
     0
279
    -2
289
     1
 69
     0
  7
Standard
140
0.18
170
     5
 62
     0
 63
   257
283
     0
 90
        4
 91
        0
  1

274
    -2
284
     1
 64
     0
275
    -2
285
     1
 65
     0
276
    -2
286
     1
 66
     0
277
    -2
287
     1
 67
     0
278
    -2
288
     1
 68
     0
279
    -2
289
     1
 69
     0
  0
VISUALSTYLE
  5
2F
102
{ACAD_REACTORS
330
2A
102
}
102
{ACAD_XDICTIONARY
360
453
102
}
330
2A
100
AcDbVisualStyle
  2
2dWireframe
 70
     4
177
     2
291
     0
 71
     0
176
     1
 72
     2
176
     1
 73
     0
176
     1
 90
        0
176
     1
 40
0.6
176
     1
 41
30.0
176
     1
 62
     5
 63
     7
421
 16777215
176
     1
 74
     1
176
     1
 91
        4
176
     1
 64
     7
176
     1
 65
   257
176
     1
 75
     1
176
     1
175
     1
176
     1
 42
1.0
176
     1
 92
        0
176
     1
 66
   257
176
     1
 43
1.0
176
     1
 76
     1
176
     1
 77
     6
176
     1
 78
     2
176
     1
 67
     7
176
     1
 79
     5
176
     1
170
     0
176
     1
171
     0
176
     1
290
     0
176
     1
 93
        1
176
     1
 44
0.0
176
     1
173
     0
176
     1
  0
VISUALSTYLE
  5
32
102
{ACAD_REACTORS
330
2A
102
}
102
{ACAD_XDICTIONARY
360
459
102
}
330
2A
100
AcDbVisualStyle
  2
Basic
 70
     7
177
     2
291
     1
 71
     1
176
     1
 72
     0
176
     1
 73
     1
176
     1
 90
        0
176
     1
 40
0.6
176
     1
 41
30.0
176
     1
 62
     5
 63
     7
421
 16777215
176
     1
 74
     0
176
     1
 91
        4
176
     1
 64
     7
176
     1
 65
   257
176
     1
 75
     1
176
     1
175
     1
176
     1
 42
1.0
176
     1
 92
        8
176
     1
 66
     7
176
     1
 43
1.0
176
     1
 76
     1
176
     1
 77
     6
176
     1
 78
     2
176
     1
 67
     7
176
     1
 79
     5
176
     1
170
     0
176
     1
171
     0
176
     1
290
     0
176
     1
 93
        1
176
     1
 44
0.0
176
     1
173
     0
176
     1
  0
VISUALSTYLE
  5
36
102
{ACAD_REACTORS
330
2A
102
}
102
{ACAD_XDICTIONARY
360
461
102
}
330
2A
100
AcDbVisualStyle
  2
Brighten
 70
    12
177
     2
291
     1
 71
     2
176
     1
 72
     2
176
     1
 73
     0
176
     1
 90
        0
176
     1
 40
0.6
176
     1
 41
30.0
176
     1
 62
     5
 63
     7
421
 16777215
176
     1
 74
     1
176
     1
 91
        4
176
     1
 64
     7
176
     1
 65
   257
176
     1
 75
     1
176
     1
175
     1
176
     1
 42
1.0
176
     1
 92
        8
176
     1
 66
     7
176
     1
 43
1.0
176
     1
 76
     1
176
     1
 77
     6
176
     1
 78
     2
176
     1
 67
     7
176
     1
 79
     5
176
     1
170
     0
176
     1
171
     0
176
     1
290
     0
176
     1
 93
        1
176
     1
 44
50.0
176
     1
173
     0
176
     1
  0
VISUALSTYLE
  5
3A
102
{ACAD_REACTORS
330
2A
102
}
102
{ACAD_XDICTIONARY
360
469
102
}
330
2A
100
AcDbVisualStyle
  2
ColorChange
 70
    16
177
     2
291
     1
 71
     2
176
     1
 72
     2
176
     1
 73
     3
176
     1
 90
        0
176
     1
 40
0.6
176
     1
 41
30.0
176
     1
 62
     5
 63
     8
421
  8421504
176
     1
 74
     1
176
     1
 91
        4
176
     1
 64
     7
176
     1
 65
   257
176
     1
 75
     1
176
     1
175
     1
176
     1
 42
1.0
176
     1
 92
        8
176
     1
 66
     8
424
  8421504
176
     1
 43
1.0
176
     1
 76
     1
176
     1
 77
     6
176
     1
 78
     2
176
     1
 67
     7
176
     1
 79
     5
176
     1
170
     0
176
     1
171
     0
176
     1
290
     0
176
     1
 93
        1
176
     1
 44
0.0
176
     1
173
     0
176
     1
  0
VISUALSTYLE
  5
34
102
{ACAD_REACTORS
330
2A
102
}
102
{ACAD_XDICTIONARY
360
45D
102
}
330
2A
100
AcDbVisualStyle
  2
Conceptual
 70
     9
177
     2
291
     0
 71
     3
176
     1
 72
     2
176
     1
 73
     0
176
     1
 90
        0
176
     1
 40
0.6
176
     1
 41
30.0
176
     1
 62
     5
 63
     7
421
 16777215
176
     1
 74
     2
176
     1
 91
        2
176
     1
 64
     7
176
     1
 65
   257
176
     1
 75
     1
176
     1
175
     1
176
     1
 42
179.0
176
     1
 92
        8
176
     1
 66
     7
176
     1
 43
1.0
176
     1
 76
     1
176
     1
 77
     6
176
     1
 78
     2
176
     1
 67
     7
176
     1
 79
     3
176
     1
170
     0
176
     1
171
     0
176
     1
290
     0
176
     1
 93
        1
176
     1
 44
0.0
176
     1
173
     0
176
     1
  0
VISUALSTYLE
  5
35
102
{ACAD_REACTORS
330
2A
102
}
102
{ACAD_XDICTIONARY
360
45F
102
}
330
2A
100
AcDbVisualStyle
  2
Dim
 70
    11
177
     2
291
     1
 71
     2
176
     1
 72
     2
176
     1
 73
     0
176
     1
 90
        0
176
     1
 40
0.6
176
     1
 41
30.0
176
     1
 62
     5
 63
     7
421
 16777215
176
     1
 74
     1
176
     1
 91
        4
176
     1
 64
     7
176
     1
 65
   257
176
     1
 75
     1
176
     1
175
     1
176
     1
 42
1.0
176
     1
 92
        8
176
     1
 66
     7
176
     1
 43
1.0
176
     1
 76
     1
176
     1
 77
     6
176
     1
 78
     2
176
     1
 67
     7
176
     1
 79
     5
176
     1
170
     0
176
     1
171
     0
176
     1
290
     0
176
     1
 93
        1
176
     1
 44
-50.0
176
     1
173
     0
176
     1
  0
VISUALSTYLE
  5
3D
102
{ACAD_REACTORS
330
2A
102
}
102
{ACAD_XDICTIONARY
360
46F
102
}
330
2A
100
AcDbVisualStyle
  2
EdgeColorOff
 70
    22
177
     2
291
     1
 71
     2
176
     0
 72
     2
176
     0
 73
     0
176
     0
 90
        0
176
     0
 40
0.6
176
     0
 41
30.0
176
     0
 62
     5
 63
     7
421
 16777215
176
     0
 74
     1
176
     0
 91
        4
176
     0
 64
     7
176
     0
 65
   257
176
     0
 75
     1
176
     0
175
     1
176
     0
 42
1.0
176
     0
 92
        8
176
     2
 66
     7
176
     0
 43
1.0
176
     0
 76
     1
176
     0
 77
     6
176
     0
 78
     2
176
     0
 67
     7
176
     0
 79
     5
176
     0
170
     0
176
     0
171
     0
176
     0
290
     0
176
     0
 93
        1
176
     0
 44
0.0
176
     0
173
     0
176
     0
  0
VISUALSTYLE
  5
39
102
{ACAD_REACTORS
330
2A
102
}
102
{ACAD_XDICTIONARY
360
467
102
}
330
2A
100
AcDbVisualStyle
  2
Facepattern
 70
    15
177
     2
291
     1
 71
     2
176
     1
 72
     2
176
     1
 73
     0
176
     1
 90
        0
176
     1
 40
0.6
176
     1
 41
30.0
176
     1
 62
     5
 63
     7
421
 16777215
176
     1
 74
     1
176
     1
 91
        4
176
     1
 64
     7
176
     1
 65
   257
176
     1
 75
     1
176
     1
175
     1
176
     1
 42
1.0
176
     1
 92
        8
176
     1
 66
     7
176
     1
 43
1.0
176
     1
 76
     1
176
     1
 77
     6
176
     1
 78
     2
176
     1
 67
     7
176
     1
 79
     5
176
     1
170
     0
176
     1
171
     0
176
     1
290
     0
176
     1
 93
        1
176
     1
 44
0.0
176
     1
173
     0
176
     1
  0
VISUALSTYLE
  5
2B
102
{ACAD_REACTORS
330
2A
102
}
102
{ACAD_XDICTIONARY
360
44B
102
}
330
2A
100
AcDbVisualStyle
  2
Flat
 70
     0
177
     2
291
     1
 71
     2
176
     1
 72
     1
176
     1
 73
     1
176
     1
 90
        2
176
     1
 40
0.6
176
     1
 41
30.0
176
     1
 62
     5
 63
     7
421
 16777215
176
     1
 74
     0
176
     1
 91
        0
176
     1
 64
     7
176
     1
 65
   257
176
     1
 75
     1
176
     1
175
     1
176
     1
 42
1.0
176
     1
 92
        8
176
     1
 66
     7
176
     1
 43
1.0
176
     1
 76
     1
176
     1
 77
     6
176
     1
 78
     2
176
     1
 67
     7
176
     1
 79
     5
176
     1
170
     0
176
     1
171
     0
176
     1
290
     0
176
     1
 93
       13
176
     1
 44
0.0
176
     1
173
     0
176
     1
  0
VISUALSTYLE
  5
2C
102
{ACAD_REACTORS
330
2A
102
}
102
{ACAD_XDICTIONARY
360
44D
102
}
330
2A
100
AcDbVisualStyle
  2
FlatWithEdges
 70
     1
177
     2
291
     1
 71
     2
176
     1
 72
     1
176
     1
 73
     1
176
     1
 90
        2
176
     1
 40
0.6
176
     1
 41
30.0
176
     1
 62
     5
 63
     7
421
 16777215
176
     1
 74
     1
176
     1
 91
        0
176
     1
 64
     7
176
     1
 65
   257
176
     1
 75
     1
176
     1
175
     1
176
     1
 42
1.0
176
     1
 92
        0
176
     1
 66
   257
176
     1
 43
1.0
176
     1
 76
     1
176
     1
 77
     6
176
     1
 78
     2
176
     1
 67
     7
176
     1
 79
     5
176
     1
170
     0
176
     1
171
     0
176
     1
290
     0
176
     1
 93
       13
176
     1
 44
0.0
176
     1
173
     0
176
     1
  0
VISUALSTYLE
  5
2D
102
{ACAD_REACTORS
330
2A
102
}
102
{ACAD_XDICTIONARY
360
44F
102
}
330
2A
100
AcDbVisualStyle
  2
Gouraud
 70
     2
177
     2
291
     1
 71
     2
176
     1
 72
     2
176
     1
 73
     1
176
     1
 90
        2
176
     1
 40
0.6
176
     1
 41
30.0
176
     1
 62
     5
 63
     7
421
 16777215
176
     1
 74
     0
176
     1
 91
        0
176
     1
 64
     7
176
     1
 65
   257
176
     1
 75
     1
176
     1
175
     1
176
     1
 42
1.0
176
     1
 92
        0
176
     1
 66
     7
176
     1
 43
1.0
176
     1
 76
     1
176
     1
 77
     6
176
     1
 78
     2
176
     1
 67
     7
176
     1
 79
     5
176
     1
170
     0
176
     1
171
     0
176
     1
290
     0
176
     1
 93
       13
176
     1
 44
0.0
176
     1
173
     0
176
     1
  0
VISUALSTYLE
  5
2E
102
{ACAD_REACTORS
330
2A
102
}
102
{ACAD_XDICTIONARY
360
451
102
}
330
2A
100
AcDbVisualStyle
  2
GouraudWithEdges
 70
     3
177
     2
291
     1
 71
     2
176
     1
 72
     2
176
     1
 73
     1
176
     1
 90
        2
176
     1
 40
0.6
176
     1
 41
30.0
176
     1
 62
     5
 63
     7
421
 16777215
176
     1
 74
     1
176
     1
 91
        0
176
     1
 64
     7
176
     1
 65
   257
176
     1
 75
     1
176
     1
175
     1
176
     1
 42
1.0
176
     1
 92
        0
176
     1
 66
   257
176
     1
 43
1.0
176
     1
 76
     1
176
     1
 77
     6
176
     1
 78
     2
176
     1
 67
     7
176
     1
 79
     5
176
     1
170
     0
176
     1
171
     0
176
     1
290
     0
176
     1
 93
       13
176
     1
 44
0.0
176
     1
173
     0
176
     1
  0
VISUALSTYLE
  5
31
102
{ACAD_REACTORS
330
2A
102
}
102
{ACAD_XDICTIONARY
360
457
102
}
330
2A
100
AcDbVisualStyle
  2
Hidden
 70
     6
177
     2
291
     0
 71
     1
176
     1
 72
     2
176
     1
 73
     2
176
     1
 90
        0
176
     1
 40
0.6
176
     1
 41
30.0
176
     1
 62
     5
 63
     7
421
 16777215
176
     1
 74
     2
176
     1
 91
        2
176
     1
 64
     7
176
     1
 65
   257
176
     1
 75
     2
176
     1
175
     1
176
     1
 42
40.0
176
     1
 92
        0
176
     1
 66
   257
176
     1
 43
1.0
176
     1
 76
     1
176
     1
 77
     6
176
     1
 78
     2
176
     1
 67
     7
176
     1
 79
     3
176
     1
170
     0
176
     1
171
     0
176
     1
290
     0
176
     1
 93
        1
176
     1
 44
0.0
176
     1
173
     0
176
     1
  0
VISUALSTYLE
  5
3B
102
{ACAD_REACTORS
330
2A
102
}
102
{ACAD_XDICTIONARY
360
46B
102
}
330
2A
100
AcDbVisualStyle
  2
JitterOff
 70
    20
177
     2
291
     1
 71
     2
176
     0
 72
     2
176
     0
 73
     0
176
     0
 90
        0
176
     0
 40
0.6
176
     0
 41
30.0
176
     0
 62
     5
 63
     7
421
 16777215
176
     0
 74
     1
176
     0
 91
        4
176
     0
 64
     7
176
     0
 65
   257
176
     0
 75
     1
176
     0
175
     1
176
     0
 42
1.0
176
     0
 92
       10
176
     2
 66
     7
176
     0
 43
1.0
176
     0
 76
     1
176
     0
 77
     6
176
     0
 78
     2
176
     0
 67
     7
176
     0
 79
     5
176
     0
170
     0
176
     0
171
     0
176
     0
290
     0
176
     0
 93
        1
176
     0
 44
0.0
176
     0
173
     0
176
     0
  0
VISUALSTYLE
  5
38
102
{ACAD_REACTORS
330
2A
102
}
102
{ACAD_XDICTIONARY
360
465
102
}
330
2A
100
AcDbVisualStyle
  2
Linepattern
 70
    14
177
     2
291
     1
 71
     2
176
     1
 72
     2
176
     1
 73
     0
176
     1
 90
        0
176
     1
 40
0.6
176
     1
 41
30.0
176
     1
 62
     5
 63
     7
421
 16777215
176
     1
 74
     1
176
     1
 91
        4
176
     1
 64
     7
176
     1
 65
   257
176
     1
 75
     7
176
     1
175
     7
176
     1
 42
1.0
176
     1
 92
        8
176
     1
 66
     7
176
     1
 43
1.0
176
     1
 76
     1
176
     1
 77
     6
176
     1
 78
     2
176
     1
 67
     7
176
     1
 79
     5
176
     1
170
     0
176
     1
171
     0
176
     1
290
     0
176
     1
 93
        1
176
     1
 44
0.0
176
     1
173
     0
176
     1
  0
VISUALSTYLE
  5
3C
102
{ACAD_REACTORS
330
2A
102
}
102
{ACAD_XDICTIONARY
360
46D
102
}
330
2A
100
AcDbVisualStyle
  2
OverhangOff
 70
    21
177
     2
291
     1
 71
     2
176
     0
 72
     2
176
     0
 73
     0
176
     0
 90
        0
176
     0
 40
0.6
176
     0
 41
30.0
176
     0
 62
     5
 63
     7
421
 16777215
176
     0
 74
     1
176
     0
 91
        4
176
     0
 64
     7
176
     0
 65
   257
176
     0
 75
     1
176
     0
175
     1
176
     0
 42
1.0
176
     0
 92
        9
176
     2
 66
     7
176
     0
 43
1.0
176
     0
 76
     1
176
     0
 77
     6
176
     0
 78
     2
176
     0
 67
     7
176
     0
 79
     5
176
     0
170
     0
176
     0
171
     0
176
     0
290
     0
176
     0
 93
        1
176
     0
 44
0.0
176
     0
173
     0
176
     0
  0
VISUALSTYLE
  5
33
102
{ACAD_REACTORS
330
2A
102
}
102
{ACAD_XDICTIONARY
360
45B
102
}
330
2A
100
AcDbVisualStyle
  2
Realistic
 70
     8
177
     2
291
     0
 71
     2
176
     1
 72
     3
176
     1
 73
     0
176
     1
 90
        2
176
     1
 40
0.6
176
     1
 41
30.0
176
     1
 62
     5
 63
     7
421
 16777215
176
     1
 74
     0
176
     1
 91
        0
176
     1
 64
     7
176
     1
 65
   257
176
     1
 75
     1
176
     1
175
     1
176
     1
 42
1.0
176
     1
 92
        8
176
     1
 66
   257
176
     1
 43
1.0
176
     1
 76
     1
176
     1
 77
     6
176
     1
 78
     2
176
     1
 67
     7
176
     1
 79
     3
176
     1
170
     0
176
     1
171
     0
176
     1
290
     0
176
     1
 93
       13
176
     1
 44
0.0
176
     1
173
     0
176
     1
  0
VISUALSTYLE
  5
42
102
{ACAD_REACTORS
330
2A
102
}
102
{ACAD_XDICTIONARY
360
479
102
}
330
2A
100
AcDbVisualStyle
  2
Shaded
 70
    27
177
     2
291
     0
 71
     2
176
     1
 72
     2
176
     1
 73
     1
176
     1
 90
        2
176
     1
 40
0.6
176
     1
 41
30.0
176
     1
 62
     5
 63
     7
421
 16777215
176
     1
 74
     0
176
     1
 91
        4
176
     1
 64
     7
176
     1
 65
   257
176
     1
 75
     1
176
     1
175
     1
176
     1
 42
1.0
176
     1
 92
        8
176
     1
 66
   257
176
     1
 43
1.0
176
     1
 76
     1
176
     1
 77
     6
176
     1
 78
     2
176
     1
 67
     8
425
  7895160
176
     1
 79
     3
176
     1
170
     0
176
     1
171
     0
176
     1
290
     0
176
     1
 93
        5
176
     1
 44
0.0
176
     1
173
     0
176
     1
  0
VISUALSTYLE
  5
41
102
{ACAD_REACTORS
330
2A
102
}
102
{ACAD_XDICTIONARY
360
477
102
}
330
2A
100
AcDbVisualStyle
  2
Shaded with edges
 70
    26
177
     2
291
     0
 71
     2
176
     1
 72
     2
176
     1
 73
     1
176
     1
 90
        2
176
     1
 40
0.6
176
     1
 41
30.0
176
     1
 62
     5
 63
     7
421
 16777215
176
     1
 74
     1
176
     1
 91
       10
176
     1
 64
     7
176
     1
 65
   257
176
     1
 75
     2
176
     1
175
     1
176
     1
 42
1.0
176
     1
 92
        8
176
     1
 66
   257
176
     1
 43
1.0
176
     1
 76
     1
176
     1
 77
     6
176
     1
 78
     2
176
     1
 67
     7
176
     1
 79
     3
176
     1
170
     0
176
     1
171
     0
176
     1
290
     0
176
     1
 93
        5
176
     1
 44
0.0
176
     1
173
     0
176
     1
  0
VISUALSTYLE
  5
3E
102
{ACAD_REACTORS
330
2A
102
}
102
{ACAD_XDICTIONARY
360
471
102
}
330
2A
100
AcDbVisualStyle
  2
Shades of Gray
 70
    23
177
     2
291
     0
 71
     2
176
     1
 72
     2
176
     1
 73
     3
176
     1
 90
        0
176
     1
 40
0.6
176
     1
 41
30.0
176
     1
 62
     5
 63
     7
421
 16777215
176
     1
 74
     2
176
     1
 91
        2
176
     1
 64
     7
176
     1
 65
     7
176
     1
 75
     1
176
     1
175
     1
176
     1
 42
40.0
176
     1
 92
        8
176
     1
 66
     7
176
     1
 43
1.0
176
     1
 76
     1
176
     1
 77
     6
176
     1
 78
     2
176
     1
 67
     7
176
     1
 79
     3
176
     1
170
     0
176
     1
171
     0
176
     1
290
     0
176
     1
 93
        1
176
     1
 44
0.0
176
     1
173
     0
176
     1
  0
VISUALSTYLE
  5
3F
102
{ACAD_REACTORS
330
2A
102
}
102
{ACAD_XDICTIONARY
360
473
102
}
330
2A
100
AcDbVisualStyle
  2
Sketchy
 70
    24
177
     2
291
     0
 71
     1
176
     1
 72
     2
176
     1
 73
     2
176
     1
 90
        0
176
     1
 40
0.6
176
     1
 41
30.0
176
     1
 62
     5
 63
     7
421
 16777215
176
     1
 74
     2
176
     1
 91
        2
176
     1
 64
     7
176
     1
 65
     7
176
     1
 75
     1
176
     1
175
     1
176
     1
 42
40.0
176
     1
 92
       11
176
     1
 66
     7
176
     1
 43
1.0
176
     1
 76
     1
176
     1
 77
     6
176
     1
 78
     2
176
     1
 67
     7
176
     1
 79
     6
176
     1
170
     0
176
     1
171
     0
176
     1
290
     0
176
     1
 93
        1
176
     1
 44
0.0
176
     1
173
     0
176
     1
  0
VISUALSTYLE
  5
37
102
{ACAD_REACTORS
330
2A
102
}
102
{ACAD_XDICTIONARY
360
463
102
}
330
2A
100
AcDbVisualStyle
  2
Thicken
 70
    13
177
     2
291
     1
 71
     2
176
     1
 72
     2
176
     1
 73
     0
176
     1
 90
        0
176
     1
 40
0.6
176
     1
 41
30.0
176
     1
 62
     5
 63
     7
421
 16777215
176
     1
 74
     1
176
     1
 91
        4
176
     1
 64
     7
176
     1
 65
   257
176
     1
 75
     1
176
     1
175
     1
176
     1
 42
1.0
176
     1
 92
       12
176
     1
 66
     7
176
     1
 43
1.0
176
     1
 76
     1
176
     1
 77
     6
176
     1
 78
     2
176
     1
 67
     7
176
     1
 79
     5
176
     1
170
     0
176
     1
171
     0
176
     1
290
     0
176
     1
 93
        1
176
     1
 44
0.0
176
     1
173
     0
176
     1
  0
VISUALSTYLE
  5
30
102
{ACAD_REACTORS
330
2A
102
}
102
{ACAD_XDICTIONARY
360
455
102
}
330
2A
100
AcDbVisualStyle
  2
Wireframe
 70
     5
177
     2
291
     0
 71
     0
176
     1
 72
     2
176
     1
 73
     0
176
     1
 90
        0
176
     1
 40
0.6
176
     1
 41
30.0
176
     1
 62
     5
 63
     7
421
 16777215
176
     1
 74
     1
176
     1
 91
        4
176
     1
 64
     7
176
     1
 65
   257
176
     1
 75
     1
176
     1
175
     1
176
     1
 42
1.0
176
     1
 92
        0
176
     1
 66
   257
176
     1
 43
1.0
176
     1
 76
     1
176
     1
 77
     6
176
     1
 78
     2
176
     1
 67
     7
176
     1
 79
     3
176
     1
170
     0
176
     1
171
     0
176
     1
290
     0
176
     1
 93
        1
176
     1
 44
0.0
176
     1
173
     0
176
     1
  0
VISUALSTYLE
  5
40
102
{ACAD_REACTORS
330
2A
102
}
102
{ACAD_XDICTIONARY
360
475
102
}
330
2A
100
AcDbVisualStyle
  2
X-Ray
 70
    25
177
     2
291
     0
 71
     2
176
     1
 72
     2
176
     1
 73
     1
176
     1
 90
        1
176
     1
 40
0.5
176
     1
 41
30.0
176
     1
 62
     5
 63
     7
421
 16777215
176
     1
 74
     1
176
     1
 91
        0
176
     1
 64
     7
176
     1
 65
   257
176
     1
 75
     1
176
     1
175
     1
176
     1
 42
1.0
176
     1
 92
        8
176
     1
 66
     7
176
     1
 43
1.0
176
     1
 76
     1
176
     1
 77
     6
176
     1
 78
     2
176
     1
 67
     7
176
     1
 79
     3
176
     1
170
     0
176
     1
171
     0
176
     1
290
     0
176
     1
 93
       13
176
     1
 44
0.0
176
     1
173
     0
176
     1
  0
DICTIONARYVAR
  5
44A
102
{ACAD_REACTORS
330
449
102
}
330
449
100
DictionaryVariables
280
     0
  1
1:1
  0
DICTIONARYVAR
  5
47F
102
{ACAD_REACTORS
330
449
102
}
330
449
100
DictionaryVariables
280
     0
  1
Standard
  0
DICTIONARYVAR
  5
47E
102
{ACAD_REACTORS
330
449
102
}
330
449
100
DictionaryVariables
280
     0
  1
Standard
  0
DICTIONARY
  5
47B
330
6A
100
AcDbDictionary
280
     1
281
     1
  3
ACAD_ROUNDTRIP_2008_TABLESTYLE_CELLSTYLEMAP
360
47C
  0
DICTIONARY
  5
453
330
2F
100
AcDbDictionary
280
     1
281
     1
  3
ACAD_XREC_ROUNDTRIP
360
454
  0
DICTIONARY
  5
459
330
32
100
AcDbDictionary
280
     1
281
     1
  3
ACAD_XREC_ROUNDTRIP
360
45A
  0
DICTIONARY
  5
461
330
36
100
AcDbDictionary
280
     1
281
     1
  3
ACAD_XREC_ROUNDTRIP
360
462
  0
DICTIONARY
  5
469
330
3A
100
AcDbDictionary
280
     1
281
     1
  3
ACAD_XREC_ROUNDTRIP
360
46A
  0
DICTIONARY
  5
45D
330
34
100
AcDbDictionary
280
     1
281
     1
  3
ACAD_XREC_ROUNDTRIP
360
45E
  0
DICTIONARY
  5
45F
330
35
100
AcDbDictionary
280
     1
281
     1
  3
ACAD_XREC_ROUNDTRIP
360
460
  0
DICTIONARY
  5
46F
330
3D
100
AcDbDictionary
280
     1
281
     1
  3
ACAD_XREC_ROUNDTRIP
360
470
  0
DICTIONARY
  5
467
330
39
100
AcDbDictionary
280
     1
281
     1
  3
ACAD_XREC_ROUNDTRIP
360
468
  0
DICTIONARY
  5
44B
330
2B
100
AcDbDictionary
280
     1
281
     1
  3
ACAD_XREC_ROUNDTRIP
360
44C
  0
DICTIONARY
  5
44D
330
2C
100
AcDbDictionary
280
     1
281
     1
  3
ACAD_XREC_ROUNDTRIP
360
44E
  0
DICTIONARY
  5
44F
330
2D
100
AcDbDictionary
280
     1
281
     1
  3
ACAD_XREC_ROUNDTRIP
360
450
  0
DICTIONARY
  5
451
330
2E
100
AcDbDictionary
280
     1
281
     1
  3
ACAD_XREC_ROUNDTRIP
360
452
  0
DICTIONARY
  5
457
330
31
100
AcDbDictionary
280
     1
281
     1
  3
ACAD_XREC_ROUNDTRIP
360
458
  0
DICTIONARY
  5
46B
330
3B
100
AcDbDictionary
280
     1
281
     1
  3
ACAD_XREC_ROUNDTRIP
360
46C
  0
DICTIONARY
  5
465
330
38
100
AcDbDictionary
280
     1
281
     1
  3
ACAD_XREC_ROUNDTRIP
360
466
  0
DICTIONARY
  5
46D
330
3C
100
AcDbDictionary
280
     1
281
     1
  3
ACAD_XREC_ROUNDTRIP
360
46E
  0
DICTIONARY
  5
45B
330
33
100
AcDbDictionary
280
     1
281
     1
  3
ACAD_XREC_ROUNDTRIP
360
45C
  0
DICTIONARY
  5
479
330
42
100
AcDbDictionary
280
     1
281
     1
  3
ACAD_XREC_ROUNDTRIP
360
47A
  0
DICTIONARY
  5
477
330
41
100
AcDbDictionary
280
     1
281
     1
  3
ACAD_XREC_ROUNDTRIP
360
478
  0
DICTIONARY
  5
471
330
3E
100
AcDbDictionary
280
     1
281
     1
  3
ACAD_XREC_ROUNDTRIP
360
472
  0
DICTIONARY
  5
473
330
3F
100
AcDbDictionary
280
     1
281
     1
  3
ACAD_XREC_ROUNDTRIP
360
474
  0
DICTIONARY
  5
463
330
37
100
AcDbDictionary
280
     1
281
     1
  3
ACAD_XREC_ROUNDTRIP
360
464
  0
DICTIONARY
  5
455
330
30
100
AcDbDictionary
280
     1
281
     1
  3
ACAD_XREC_ROUNDTRIP
360
456
  0
DICTIONARY
  5
475
330
40
100
AcDbDictionary
280
     1
281
     1
  3
ACAD_XREC_ROUNDTRIP
360
476
  0
CELLSTYLEMAP
  5
47C
102
{ACAD_REACTORS
330
47B
102
}
330
47B
100
AcDbCellStyleMap
 90
        3
300
CELLSTYLE
  1
TABLEFORMAT_BEGIN
 90
        5
170
     1
 91
        0
 92
    32768
 62
   257
 93
        1
300
CONTENTFORMAT
  1
CONTENTFORMAT_BEGIN
 90
        0
 91
        0
 92
        4
 93
        0
300

 40
0.0
140
1.0
 94
        5
 62
     0
340
11
144
0.25
309
CONTENTFORMAT_END
171
     1
301
MARGIN
  1
CELLMARGIN_BEGIN
 40
0.06
 40
0.06
 40
0.06
 40
0.06
 40
0.06
 40
0.06
309
CELLMARGIN_END
 94
        6
 95
        1
302
GRIDFORMAT
  1
GRIDFORMAT_BEGIN
 90
        0
 91
        1
 62
     0
 92
       -2
340
14
 93
        0
 40
0.045
309
GRIDFORMAT_END
 95
        2
302
GRIDFORMAT
  1
GRIDFORMAT_BEGIN
 90
        0
 91
        1
 62
     0
 92
       -2
340
14
 93
        0
 40
0.045
309
GRIDFORMAT_END
 95
        4
302
GRIDFORMAT
  1
GRIDFORMAT_BEGIN
 90
        0
 91
        1
 62
     0
 92
       -2
340
14
 93
        0
 40
0.045
309
GRIDFORMAT_END
 95
        8
302
GRIDFORMAT
  1
GRIDFORMAT_BEGIN
 90
        0
 91
        1
 62
     0
 92
       -2
340
14
 93
        0
 40
0.045
309
GRIDFORMAT_END
 95
       16
302
GRIDFORMAT
  1
GRIDFORMAT_BEGIN
 90
        0
 91
        1
 62
     0
 92
       -2
340
14
 93
        0
 40
0.045
309
GRIDFORMAT_END
 95
       32
302
GRIDFORMAT
  1
GRIDFORMAT_BEGIN
 90
        0
 91
        1
 62
     0
 92
       -2
340
14
 93
        0
 40
0.045
309
GRIDFORMAT_END
309
TABLEFORMAT_END
  1
CELLSTYLE_BEGIN
 90
        1
 91
        1
300
_TITLE
309
CELLSTYLE_END
300
CELLSTYLE
  1
TABLEFORMAT_BEGIN
 90
        5
170
     1
 91
        0
 92
        0
 62
   257
 93
        1
300
CONTENTFORMAT
  1
CONTENTFORMAT_BEGIN
 90
        0
 91
        0
 92
        4
 93
        0
300

 40
0.0
140
1.0
 94
        5
 62
     0
340
11
144
0.18
309
CONTENTFORMAT_END
171
     1
301
MARGIN
  1
CELLMARGIN_BEGIN
 40
0.06
 40
0.06
 40
0.06
 40
0.06
 40
0.06
 40
0.06
309
CELLMARGIN_END
 94
        6
 95
        1
302
GRIDFORMAT
  1
GRIDFORMAT_BEGIN
 90
        0
 91
        1
 62
     0
 92
       -2
340
14
 93
        0
 40
0.045
309
GRIDFORMAT_END
 95
        2
302
GRIDFORMAT
  1
GRIDFORMAT_BEGIN
 90
        0
 91
        1
 62
     0
 92
       -2
340
14
 93
        0
 40
0.045
309
GRIDFORMAT_END
 95
        4
302
GRIDFORMAT
  1
GRIDFORMAT_BEGIN
 90
        0
 91
        1
 62
     0
 92
       -2
340
14
 93
        0
 40
0.045
309
GRIDFORMAT_END
 95
        8
302
GRIDFORMAT
  1
GRIDFORMAT_BEGIN
 90
        0
 91
        1
 62
     0
 92
       -2
340
14
 93
        0
 40
0.045
309
GRIDFORMAT_END
 95
       16
302
GRIDFORMAT
  1
GRIDFORMAT_BEGIN
 90
        0
 91
        1
 62
     0
 92
       -2
340
14
 93
        0
 40
0.045
309
GRIDFORMAT_END
 95
       32
302
GRIDFORMAT
  1
GRIDFORMAT_BEGIN
 90
        0
 91
        1
 62
     0
 92
       -2
340
14
 93
        0
 40
0.045
309
GRIDFORMAT_END
309
TABLEFORMAT_END
  1
CELLSTYLE_BEGIN
 90
        2
 91
        1
300
_HEADER
309
CELLSTYLE_END
300
CELLSTYLE
  1
TABLEFORMAT_BEGIN
 90
        5
170
     1
 91
        0
 92
        0
 62
   257
 93
        1
300
CONTENTFORMAT
  1
CONTENTFORMAT_BEGIN
 90
        0
 91
        0
 92
        4
 93
        0
300

 40
0.0
140
1.0
 94
        2
 62
     0
340
11
144
0.18
309
CONTENTFORMAT_END
171
     1
301
MARGIN
  1
CELLMARGIN_BEGIN
 40
0.06
 40
0.06
 40
0.06
 40
0.06
 40
0.06
 40
0.06
309
CELLMARGIN_END
 94
        6
 95
        1
302
GRIDFORMAT
  1
GRIDFORMAT_BEGIN
 90
        0
 91
        1
 62
     0
 92
       -2
340
14
 93
        0
 40
0.045
309
GRIDFORMAT_END
 95
        2
302
GRIDFORMAT
  1
GRIDFORMAT_BEGIN
 90
        0
 91
        1
 62
     0
 92
       -2
340
14
 93
        0
 40
0.045
309
GRIDFORMAT_END
 95
        4
302
GRIDFORMAT
  1
GRIDFORMAT_BEGIN
 90
        0
 91
        1
 62
     0
 92
       -2
340
14
 93
        0
 40
0.045
309
GRIDFORMAT_END
 95
        8
302
GRIDFORMAT
  1
GRIDFORMAT_BEGIN
 90
        0
 91
        1
 62
     0
 92
       -2
340
14
 93
        0
 40
0.045
309
GRIDFORMAT_END
 95
       16
302
GRIDFORMAT
  1
GRIDFORMAT_BEGIN
 90
        0
 91
        1
 62
     0
 92
       -2
340
14
 93
        0
 40
0.045
309
GRIDFORMAT_END
 95
       32
302
GRIDFORMAT
  1
GRIDFORMAT_BEGIN
 90
        0
 91
        1
 62
     0
 92
       -2
340
14
 93
        0
 40
0.045
309
GRIDFORMAT_END
309
TABLEFORMAT_END
  1
CELLSTYLE_BEGIN
 90
        3
 91
        2
300
_DATA
309
CELLSTYLE_END
  0
XRECORD
  5
454
102
{ACAD_REACTORS
330
453
102
}
330
453
100
AcDbXrecord
280
     1
102
RTVSPost2010Prop28
280
     1
102
RTVSPost2010PropOp28
 70
     1
102
RTVSPost2010Prop29
280
     1
102
RTVSPost2010PropOp29
 70
     1
102
RTVSPost2010Prop30
280
     0
102
RTVSPost2010PropOp30
 70
     1
102
RTVSPost2010Prop31
280
     0
102
RTVSPost2010PropOp31
 70
     1
102
RTVSPost2010Prop32
280
     0
102
RTVSPost2010PropOp32
 70
     1
102
RTVSPost2010Prop33
280
     0
102
RTVSPost2010PropOp33
 70
     1
102
RTVSPost2010Prop34
280
     0
102
RTVSPost2010PropOp34
 70
     1
102
RTVSPost2010Prop35
280
     0
102
RTVSPost2010PropOp35
 70
     1
102
RTVSPost2010Prop36
280
     0
102
RTVSPost2010PropOp36
 70
     1
102
RTVSPost2010Prop37
 90
       50
102
RTVSPost2010PropOp37
 70
     1
102
RTVSPost2010Prop38
140
0.0
102
RTVSPost2010PropOp38
 70
     1
102
RTVSPost2010Prop39
140
1.0
102
RTVSPost2010PropOp39
 70
     1
102
RTVSPost2010Prop40
 90
        0
102
RTVSPost2010PropOp40
 70
     1
102
RTVSPost2010Prop41ColorIndex
 90
       18
102
RTVSPost2010Prop41ColorRGB
 90
        0
102
RTVSPost2010PropOp41
 70
     1
102
RTVSPost2010Prop42
 90
       50
102
RTVSPost2010PropOp42
 70
     1
102
RTVSPost2010Prop43
 90
        3
102
RTVSPost2010PropOp43
 70
     1
102
RTVSPost2010Prop44ColorIndex
 90
        5
102
RTVSPost2010Prop44ColorRGB
 90
      255
102
RTVSPost2010PropOp44
 70
     1
102
RTVSPost2010Prop45
280
     0
102
RTVSPost2010PropOp45
 70
     1
102
RTVSPost2010Prop46
 90
       50
102
RTVSPost2010PropOp46
 70
     1
102
RTVSPost2010Prop47
 90
       50
102
RTVSPost2010PropOp47
 70
     1
102
RTVSPost2010Prop48
 90
       50
102
RTVSPost2010PropOp48
 70
     1
102
RTVSPost2010Prop49
280
     0
102
RTVSPost2010PropOp49
 70
     1
102
RTVSPost2010Prop50
 90
       50
102
RTVSPost2010PropOp50
 70
     1
102
RTVSPost2010Prop51ColorIndex
 90
      256
102
RTVSPost2010Prop51ColorRGB
 90
-16777216
102
RTVSPost2010PropOp51
 70
     0
102
RTVSPost2010Prop52
140
1.0
102
RTVSPost2010PropOp52
 70
     0
102
RTVSPost2010Prop53
 90
        2
102
RTVSPost2010PropOp53
 70
     1
102
RTVSPost2010Prop54
  1
strokes_ogs.tif
102
RTVSPost2010PropOp54
 70
     1
102
RTVSPost2010Prop55
280
     0
102
RTVSPost2010PropOp55
 70
     1
102
RTVSPost2010Prop56
140
1.0
102
RTVSPost2010PropOp56
 70
     1
102
RTVSPost2010Prop57
140
1.0
102
RTVSPost2010PropOp57
 70
     1
  0
XRECORD
  5
45A
102
{ACAD_REACTORS
330
459
102
}
330
459
100
AcDbXrecord
280
     1
102
RTVSPost2010Prop28
280
     0
102
RTVSPost2010PropOp28
 70
     1
102
RTVSPost2010Prop29
280
     1
102
RTVSPost2010PropOp29
 70
     1
102
RTVSPost2010Prop30
280
     1
102
RTVSPost2010PropOp30
 70
     1
102
RTVSPost2010Prop31
280
     0
102
RTVSPost2010PropOp31
 70
     1
102
RTVSPost2010Prop32
280
     0
102
RTVSPost2010PropOp32
 70
     1
102
RTVSPost2010Prop33
280
     0
102
RTVSPost2010PropOp33
 70
     1
102
RTVSPost2010Prop34
280
     0
102
RTVSPost2010PropOp34
 70
     1
102
RTVSPost2010Prop35
280
     0
102
RTVSPost2010PropOp35
 70
     1
102
RTVSPost2010Prop36
280
     0
102
RTVSPost2010PropOp36
 70
     1
102
RTVSPost2010Prop37
 90
       50
102
RTVSPost2010PropOp37
 70
     1
102
RTVSPost2010Prop38
140
0.0
102
RTVSPost2010PropOp38
 70
     1
102
RTVSPost2010Prop39
140
1.0
102
RTVSPost2010PropOp39
 70
     1
102
RTVSPost2010Prop40
 90
        0
102
RTVSPost2010PropOp40
 70
     1
102
RTVSPost2010Prop41ColorIndex
 90
       18
102
RTVSPost2010Prop41ColorRGB
 90
        0
102
RTVSPost2010PropOp41
 70
     1
102
RTVSPost2010Prop42
 90
       50
102
RTVSPost2010PropOp42
 70
     1
102
RTVSPost2010Prop43
 90
        3
102
RTVSPost2010PropOp43
 70
     1
102
RTVSPost2010Prop44ColorIndex
 90
        5
102
RTVSPost2010Prop44ColorRGB
 90
      255
102
RTVSPost2010PropOp44
 70
     1
102
RTVSPost2010Prop45
280
     0
102
RTVSPost2010PropOp45
 70
     1
102
RTVSPost2010Prop46
 90
       50
102
RTVSPost2010PropOp46
 70
     1
102
RTVSPost2010Prop47
 90
       50
102
RTVSPost2010PropOp47
 70
     1
102
RTVSPost2010Prop48
 90
       50
102
RTVSPost2010PropOp48
 70
     1
102
RTVSPost2010Prop49
280
     0
102
RTVSPost2010PropOp49
 70
     1
102
RTVSPost2010Prop50
 90
       50
102
RTVSPost2010PropOp50
 70
     1
102
RTVSPost2010Prop51ColorIndex
 90
      256
102
RTVSPost2010Prop51ColorRGB
 90
-16777216
102
RTVSPost2010PropOp51
 70
     0
102
RTVSPost2010Prop52
140
1.0
102
RTVSPost2010PropOp52
 70
     0
102
RTVSPost2010Prop53
 90
        2
102
RTVSPost2010PropOp53
 70
     1
102
RTVSPost2010Prop54
  1
strokes_ogs.tif
102
RTVSPost2010PropOp54
 70
     1
102
RTVSPost2010Prop55
280
     0
102
RTVSPost2010PropOp55
 70
     1
102
RTVSPost2010Prop56
140
1.0
102
RTVSPost2010PropOp56
 70
     1
102
RTVSPost2010Prop57
140
1.0
102
RTVSPost2010PropOp57
 70
     1
  0
XRECORD
  5
462
102
{ACAD_REACTORS
330
461
102
}
330
461
100
AcDbXrecord
280
     1
102
RTVSPost2010Prop28
280
     0
102
RTVSPost2010PropOp28
 70
     1
102
RTVSPost2010Prop29
280
     1
102
RTVSPost2010PropOp29
 70
     1
102
RTVSPost2010Prop30
280
     1
102
RTVSPost2010PropOp30
 70
     1
102
RTVSPost2010Prop31
280
     0
102
RTVSPost2010PropOp31
 70
     1
102
RTVSPost2010Prop32
280
     0
102
RTVSPost2010PropOp32
 70
     1
102
RTVSPost2010Prop33
280
     0
102
RTVSPost2010PropOp33
 70
     1
102
RTVSPost2010Prop34
280
     0
102
RTVSPost2010PropOp34
 70
     1
102
RTVSPost2010Prop35
280
     0
102
RTVSPost2010PropOp35
 70
     1
102
RTVSPost2010Prop36
280
     0
102
RTVSPost2010PropOp36
 70
     1
102
RTVSPost2010Prop37
 90
       50
102
RTVSPost2010PropOp37
 70
     1
102
RTVSPost2010Prop38
140
0.0
102
RTVSPost2010PropOp38
 70
     1
102
RTVSPost2010Prop39
140
1.0
102
RTVSPost2010PropOp39
 70
     1
102
RTVSPost2010Prop40
 90
        0
102
RTVSPost2010PropOp40
 70
     1
102
RTVSPost2010Prop41ColorIndex
 90
       18
102
RTVSPost2010Prop41ColorRGB
 90
        0
102
RTVSPost2010PropOp41
 70
     1
102
RTVSPost2010Prop42
 90
       50
102
RTVSPost2010PropOp42
 70
     1
102
RTVSPost2010Prop43
 90
        3
102
RTVSPost2010PropOp43
 70
     1
102
RTVSPost2010Prop44ColorIndex
 90
        5
102
RTVSPost2010Prop44ColorRGB
 90
      255
102
RTVSPost2010PropOp44
 70
     1
102
RTVSPost2010Prop45
280
     0
102
RTVSPost2010PropOp45
 70
     1
102
RTVSPost2010Prop46
 90
       50
102
RTVSPost2010PropOp46
 70
     1
102
RTVSPost2010Prop47
 90
       50
102
RTVSPost2010PropOp47
 70
     1
102
RTVSPost2010Prop48
 90
       50
102
RTVSPost2010PropOp48
 70
     1
102
RTVSPost2010Prop49
280
     0
102
RTVSPost2010PropOp49
 70
     1
102
RTVSPost2010Prop50
 90
       50
102
RTVSPost2010PropOp50
 70
     1
102
RTVSPost2010Prop51ColorIndex
 90
      256
102
RTVSPost2010Prop51ColorRGB
 90
-16777216
102
RTVSPost2010PropOp51
 70
     0
102
RTVSPost2010Prop52
140
1.0
102
RTVSPost2010PropOp52
 70
     0
102
RTVSPost2010Prop53
 90
        2
102
RTVSPost2010PropOp53
 70
     1
102
RTVSPost2010Prop54
  1
strokes_ogs.tif
102
RTVSPost2010PropOp54
 70
     1
102
RTVSPost2010Prop55
280
     0
102
RTVSPost2010PropOp55
 70
     1
102
RTVSPost2010Prop56
140
1.0
102
RTVSPost2010PropOp56
 70
     1
102
RTVSPost2010Prop57
140
1.0
102
RTVSPost2010PropOp57
 70
     1
  0
XRECORD
  5
46A
102
{ACAD_REACTORS
330
469
102
}
330
469
100
AcDbXrecord
280
     1
102
RTVSPost2010Prop28
280
     0
102
RTVSPost2010PropOp28
 70
     1
102
RTVSPost2010Prop29
280
     1
102
RTVSPost2010PropOp29
 70
     1
102
RTVSPost2010Prop30
280
     1
102
RTVSPost2010PropOp30
 70
     1
102
RTVSPost2010Prop31
280
     0
102
RTVSPost2010PropOp31
 70
     1
102
RTVSPost2010Prop32
280
     0
102
RTVSPost2010PropOp32
 70
     1
102
RTVSPost2010Prop33
280
     0
102
RTVSPost2010PropOp33
 70
     1
102
RTVSPost2010Prop34
280
     0
102
RTVSPost2010PropOp34
 70
     1
102
RTVSPost2010Prop35
280
     0
102
RTVSPost2010PropOp35
 70
     1
102
RTVSPost2010Prop36
280
     0
102
RTVSPost2010PropOp36
 70
     1
102
RTVSPost2010Prop37
 90
       50
102
RTVSPost2010PropOp37
 70
     1
102
RTVSPost2010Prop38
140
0.0
102
RTVSPost2010PropOp38
 70
     1
102
RTVSPost2010Prop39
140
1.0
102
RTVSPost2010PropOp39
 70
     1
102
RTVSPost2010Prop40
 90
        0
102
RTVSPost2010PropOp40
 70
     1
102
RTVSPost2010Prop41ColorIndex
 90
       18
102
RTVSPost2010Prop41ColorRGB
 90
        0
102
RTVSPost2010PropOp41
 70
     1
102
RTVSPost2010Prop42
 90
       50
102
RTVSPost2010PropOp42
 70
     1
102
RTVSPost2010Prop43
 90
        3
102
RTVSPost2010PropOp43
 70
     1
102
RTVSPost2010Prop44ColorIndex
 90
        5
102
RTVSPost2010Prop44ColorRGB
 90
      255
102
RTVSPost2010PropOp44
 70
     1
102
RTVSPost2010Prop45
280
     0
102
RTVSPost2010PropOp45
 70
     1
102
RTVSPost2010Prop46
 90
       50
102
RTVSPost2010PropOp46
 70
     1
102
RTVSPost2010Prop47
 90
       50
102
RTVSPost2010PropOp47
 70
     1
102
RTVSPost2010Prop48
 90
       50
102
RTVSPost2010PropOp48
 70
     1
102
RTVSPost2010Prop49
280
     0
102
RTVSPost2010PropOp49
 70
     1
102
RTVSPost2010Prop50
 90
       50
102
RTVSPost2010PropOp50
 70
     1
102
RTVSPost2010Prop51ColorIndex
 90
      256
102
RTVSPost2010Prop51ColorRGB
 90
-16777216
102
RTVSPost2010PropOp51
 70
     0
102
RTVSPost2010Prop52
140
1.0
102
RTVSPost2010PropOp52
 70
     0
102
RTVSPost2010Prop53
 90
        2
102
RTVSPost2010PropOp53
 70
     1
102
RTVSPost2010Prop54
  1
strokes_ogs.tif
102
RTVSPost2010PropOp54
 70
     1
102
RTVSPost2010Prop55
280
     0
102
RTVSPost2010PropOp55
 70
     1
102
RTVSPost2010Prop56
140
1.0
102
RTVSPost2010PropOp56
 70
     1
102
RTVSPost2010Prop57
140
1.0
102
RTVSPost2010PropOp57
 70
     1
  0
XRECORD
  5
45E
102
{ACAD_REACTORS
330
45D
102
}
330
45D
100
AcDbXrecord
280
     1
102
RTVSPost2010Prop28
280
     0
102
RTVSPost2010PropOp28
 70
     1
102
RTVSPost2010Prop29
280
     1
102
RTVSPost2010PropOp29
 70
     1
102
RTVSPost2010Prop30
280
     1
102
RTVSPost2010PropOp30
 70
     1
102
RTVSPost2010Prop31
280
     0
102
RTVSPost2010PropOp31
 70
     1
102
RTVSPost2010Prop32
280
     0
102
RTVSPost2010PropOp32
 70
     1
102
RTVSPost2010Prop33
280
     0
102
RTVSPost2010PropOp33
 70
     1
102
RTVSPost2010Prop34
280
     0
102
RTVSPost2010PropOp34
 70
     1
102
RTVSPost2010Prop35
280
     0
102
RTVSPost2010PropOp35
 70
     1
102
RTVSPost2010Prop36
280
     0
102
RTVSPost2010PropOp36
 70
     1
102
RTVSPost2010Prop37
 90
       50
102
RTVSPost2010PropOp37
 70
     1
102
RTVSPost2010Prop38
140
0.0
102
RTVSPost2010PropOp38
 70
     1
102
RTVSPost2010Prop39
140
1.0
102
RTVSPost2010PropOp39
 70
     1
102
RTVSPost2010Prop40
 90
        0
102
RTVSPost2010PropOp40
 70
     1
102
RTVSPost2010Prop41ColorIndex
 90
       18
102
RTVSPost2010Prop41ColorRGB
 90
        0
102
RTVSPost2010PropOp41
 70
     1
102
RTVSPost2010Prop42
 90
       50
102
RTVSPost2010PropOp42
 70
     1
102
RTVSPost2010Prop43
 90
        3
102
RTVSPost2010PropOp43
 70
     1
102
RTVSPost2010Prop44ColorIndex
 90
        5
102
RTVSPost2010Prop44ColorRGB
 90
      255
102
RTVSPost2010PropOp44
 70
     1
102
RTVSPost2010Prop45
280
     0
102
RTVSPost2010PropOp45
 70
     1
102
RTVSPost2010Prop46
 90
       50
102
RTVSPost2010PropOp46
 70
     1
102
RTVSPost2010Prop47
 90
       50
102
RTVSPost2010PropOp47
 70
     1
102
RTVSPost2010Prop48
 90
       50
102
RTVSPost2010PropOp48
 70
     1
102
RTVSPost2010Prop49
280
     0
102
RTVSPost2010PropOp49
 70
     1
102
RTVSPost2010Prop50
 90
       50
102
RTVSPost2010PropOp50
 70
     1
102
RTVSPost2010Prop51ColorIndex
 90
      256
102
RTVSPost2010Prop51ColorRGB
 90
-16777216
102
RTVSPost2010PropOp51
 70
     0
102
RTVSPost2010Prop52
140
1.0
102
RTVSPost2010PropOp52
 70
     0
102
RTVSPost2010Prop53
 90
        2
102
RTVSPost2010PropOp53
 70
     1
102
RTVSPost2010Prop54
  1
strokes_ogs.tif
102
RTVSPost2010PropOp54
 70
     1
102
RTVSPost2010Prop55
280
     0
102
RTVSPost2010PropOp55
 70
     1
102
RTVSPost2010Prop56
140
1.0
102
RTVSPost2010PropOp56
 70
     1
102
RTVSPost2010Prop57
140
1.0
102
RTVSPost2010PropOp57
 70
     1
  0
XRECORD
  5
460
102
{ACAD_REACTORS
330
45F
102
}
330
45F
100
AcDbXrecord
280
     1
102
RTVSPost2010Prop28
280
     0
102
RTVSPost2010PropOp28
 70
     1
102
RTVSPost2010Prop29
280
     1
102
RTVSPost2010PropOp29
 70
     1
102
RTVSPost2010Prop30
280
     1
102
RTVSPost2010PropOp30
 70
     1
102
RTVSPost2010Prop31
280
     0
102
RTVSPost2010PropOp31
 70
     1
102
RTVSPost2010Prop32
280
     0
102
RTVSPost2010PropOp32
 70
     1
102
RTVSPost2010Prop33
280
     0
102
RTVSPost2010PropOp33
 70
     1
102
RTVSPost2010Prop34
280
     0
102
RTVSPost2010PropOp34
 70
     1
102
RTVSPost2010Prop35
280
     0
102
RTVSPost2010PropOp35
 70
     1
102
RTVSPost2010Prop36
280
     0
102
RTVSPost2010PropOp36
 70
     1
102
RTVSPost2010Prop37
 90
       50
102
RTVSPost2010PropOp37
 70
     1
102
RTVSPost2010Prop38
140
0.0
102
RTVSPost2010PropOp38
 70
     1
102
RTVSPost2010Prop39
140
1.0
102
RTVSPost2010PropOp39
 70
     1
102
RTVSPost2010Prop40
 90
        0
102
RTVSPost2010PropOp40
 70
     1
102
RTVSPost2010Prop41ColorIndex
 90
       18
102
RTVSPost2010Prop41ColorRGB
 90
        0
102
RTVSPost2010PropOp41
 70
     1
102
RTVSPost2010Prop42
 90
       50
102
RTVSPost2010PropOp42
 70
     1
102
RTVSPost2010Prop43
 90
        3
102
RTVSPost2010PropOp43
 70
     1
102
RTVSPost2010Prop44ColorIndex
 90
        5
102
RTVSPost2010Prop44ColorRGB
 90
      255
102
RTVSPost2010PropOp44
 70
     1
102
RTVSPost2010Prop45
280
     0
102
RTVSPost2010PropOp45
 70
     1
102
RTVSPost2010Prop46
 90
       50
102
RTVSPost2010PropOp46
 70
     1
102
RTVSPost2010Prop47
 90
       50
102
RTVSPost2010PropOp47
 70
     1
102
RTVSPost2010Prop48
 90
       50
102
RTVSPost2010PropOp48
 70
     1
102
RTVSPost2010Prop49
280
     0
102
RTVSPost2010PropOp49
 70
     1
102
RTVSPost2010Prop50
 90
       50
102
RTVSPost2010PropOp50
 70
     1
102
RTVSPost2010Prop51ColorIndex
 90
      256
102
RTVSPost2010Prop51ColorRGB
 90
-16777216
102
RTVSPost2010PropOp51
 70
     0
102
RTVSPost2010Prop52
140
1.0
102
RTVSPost2010PropOp52
 70
     0
102
RTVSPost2010Prop53
 90
        2
102
RTVSPost2010PropOp53
 70
     1
102
RTVSPost2010Prop54
  1
strokes_ogs.tif
102
RTVSPost2010PropOp54
 70
     1
102
RTVSPost2010Prop55
280
     0
102
RTVSPost2010PropOp55
 70
     1
102
RTVSPost2010Prop56
140
1.0
102
RTVSPost2010PropOp56
 70
     1
102
RTVSPost2010Prop57
140
1.0
102
RTVSPost2010PropOp57
 70
     1
  0
XRECORD
  5
470
102
{ACAD_REACTORS
330
46F
102
}
330
46F
100
AcDbXrecord
280
     1
102
RTVSPost2010Prop28
280
     0
102
RTVSPost2010PropOp28
 70
     0
102
RTVSPost2010Prop29
280
     1
102
RTVSPost2010PropOp29
 70
     0
102
RTVSPost2010Prop30
280
     1
102
RTVSPost2010PropOp30
 70
     0
102
RTVSPost2010Prop31
280
     0
102
RTVSPost2010PropOp31
 70
     0
102
RTVSPost2010Prop32
280
     0
102
RTVSPost2010PropOp32
 70
     0
102
RTVSPost2010Prop33
280
     0
102
RTVSPost2010PropOp33
 70
     0
102
RTVSPost2010Prop34
280
     0
102
RTVSPost2010PropOp34
 70
     0
102
RTVSPost2010Prop35
280
     0
102
RTVSPost2010PropOp35
 70
     0
102
RTVSPost2010Prop36
280
     0
102
RTVSPost2010PropOp36
 70
     0
102
RTVSPost2010Prop37
 90
       50
102
RTVSPost2010PropOp37
 70
     0
102
RTVSPost2010Prop38
140
0.0
102
RTVSPost2010PropOp38
 70
     0
102
RTVSPost2010Prop39
140
1.0
102
RTVSPost2010PropOp39
 70
     0
102
RTVSPost2010Prop40
 90
        0
102
RTVSPost2010PropOp40
 70
     0
102
RTVSPost2010Prop41ColorIndex
 90
       18
102
RTVSPost2010Prop41ColorRGB
 90
        0
102
RTVSPost2010PropOp41
 70
     0
102
RTVSPost2010Prop42
 90
       50
102
RTVSPost2010PropOp42
 70
     0
102
RTVSPost2010Prop43
 90
        3
102
RTVSPost2010PropOp43
 70
     0
102
RTVSPost2010Prop44ColorIndex
 90
        5
102
RTVSPost2010Prop44ColorRGB
 90
      255
102
RTVSPost2010PropOp44
 70
     0
102
RTVSPost2010Prop45
280
     0
102
RTVSPost2010PropOp45
 70
     0
102
RTVSPost2010Prop46
 90
       50
102
RTVSPost2010PropOp46
 70
     0
102
RTVSPost2010Prop47
 90
       50
102
RTVSPost2010PropOp47
 70
     0
102
RTVSPost2010Prop48
 90
       50
102
RTVSPost2010PropOp48
 70
     0
102
RTVSPost2010Prop49
280
     0
102
RTVSPost2010PropOp49
 70
     0
102
RTVSPost2010Prop50
 90
       50
102
RTVSPost2010PropOp50
 70
     0
102
RTVSPost2010Prop51ColorIndex
 90
      256
102
RTVSPost2010Prop51ColorRGB
 90
-16777216
102
RTVSPost2010PropOp51
 70
     0
102
RTVSPost2010Prop52
140
1.0
102
RTVSPost2010PropOp52
 70
     0
102
RTVSPost2010Prop53
 90
        2
102
RTVSPost2010PropOp53
 70
     0
102
RTVSPost2010Prop54
  1
strokes_ogs.tif
102
RTVSPost2010PropOp54
 70
     0
102
RTVSPost2010Prop55
280
     0
102
RTVSPost2010PropOp55
 70
     0
102
RTVSPost2010Prop56
140
1.0
102
RTVSPost2010PropOp56
 70
     0
102
RTVSPost2010Prop57
140
1.0
102
RTVSPost2010PropOp57
 70
     0
  0
XRECORD
  5
468
102
{ACAD_REACTORS
330
467
102
}
330
467
100
AcDbXrecord
280
     1
102
RTVSPost2010Prop28
280
     0
102
RTVSPost2010PropOp28
 70
     1
102
RTVSPost2010Prop29
280
     1
102
RTVSPost2010PropOp29
 70
     1
102
RTVSPost2010Prop30
280
     1
102
RTVSPost2010PropOp30
 70
     1
102
RTVSPost2010Prop31
280
     0
102
RTVSPost2010PropOp31
 70
     1
102
RTVSPost2010Prop32
280
     0
102
RTVSPost2010PropOp32
 70
     1
102
RTVSPost2010Prop33
280
     0
102
RTVSPost2010PropOp33
 70
     1
102
RTVSPost2010Prop34
280
     0
102
RTVSPost2010PropOp34
 70
     1
102
RTVSPost2010Prop35
280
     0
102
RTVSPost2010PropOp35
 70
     1
102
RTVSPost2010Prop36
280
     0
102
RTVSPost2010PropOp36
 70
     1
102
RTVSPost2010Prop37
 90
       50
102
RTVSPost2010PropOp37
 70
     1
102
RTVSPost2010Prop38
140
0.0
102
RTVSPost2010PropOp38
 70
     1
102
RTVSPost2010Prop39
140
1.0
102
RTVSPost2010PropOp39
 70
     1
102
RTVSPost2010Prop40
 90
        0
102
RTVSPost2010PropOp40
 70
     1
102
RTVSPost2010Prop41ColorIndex
 90
       18
102
RTVSPost2010Prop41ColorRGB
 90
        0
102
RTVSPost2010PropOp41
 70
     1
102
RTVSPost2010Prop42
 90
       50
102
RTVSPost2010PropOp42
 70
     1
102
RTVSPost2010Prop43
 90
        3
102
RTVSPost2010PropOp43
 70
     1
102
RTVSPost2010Prop44ColorIndex
 90
        5
102
RTVSPost2010Prop44ColorRGB
 90
      255
102
RTVSPost2010PropOp44
 70
     1
102
RTVSPost2010Prop45
280
     0
102
RTVSPost2010PropOp45
 70
     1
102
RTVSPost2010Prop46
 90
       50
102
RTVSPost2010PropOp46
 70
     1
102
RTVSPost2010Prop47
 90
       50
102
RTVSPost2010PropOp47
 70
     1
102
RTVSPost2010Prop48
 90
       50
102
RTVSPost2010PropOp48
 70
     1
102
RTVSPost2010Prop49
280
     0
102
RTVSPost2010PropOp49
 70
     1
102
RTVSPost2010Prop50
 90
       50
102
RTVSPost2010PropOp50
 70
     1
102
RTVSPost2010Prop51ColorIndex
 90
      256
102
RTVSPost2010Prop51ColorRGB
 90
-16777216
102
RTVSPost2010PropOp51
 70
     0
102
RTVSPost2010Prop52
140
1.0
102
RTVSPost2010PropOp52
 70
     0
102
RTVSPost2010Prop53
 90
        2
102
RTVSPost2010PropOp53
 70
     1
102
RTVSPost2010Prop54
  1
strokes_ogs.tif
102
RTVSPost2010PropOp54
 70
     1
102
RTVSPost2010Prop55
280
     0
102
RTVSPost2010PropOp55
 70
     1
102
RTVSPost2010Prop56
140
1.0
102
RTVSPost2010PropOp56
 70
     1
102
RTVSPost2010Prop57
140
1.0
102
RTVSPost2010PropOp57
 70
     1
  0
XRECORD
  5
44C
102
{ACAD_REACTORS
330
44B
102
}
330
44B
100
AcDbXrecord
280
     1
102
RTVSPost2010Prop28
280
     0
102
RTVSPost2010PropOp28
 70
     1
102
RTVSPost2010Prop29
280
     1
102
RTVSPost2010PropOp29
 70
     1
102
RTVSPost2010Prop30
280
     1
102
RTVSPost2010PropOp30
 70
     1
102
RTVSPost2010Prop31
280
     0
102
RTVSPost2010PropOp31
 70
     1
102
RTVSPost2010Prop32
280
     0
102
RTVSPost2010PropOp32
 70
     1
102
RTVSPost2010Prop33
280
     0
102
RTVSPost2010PropOp33
 70
     1
102
RTVSPost2010Prop34
280
     0
102
RTVSPost2010PropOp34
 70
     1
102
RTVSPost2010Prop35
280
     0
102
RTVSPost2010PropOp35
 70
     1
102
RTVSPost2010Prop36
280
     0
102
RTVSPost2010PropOp36
 70
     1
102
RTVSPost2010Prop37
 90
       50
102
RTVSPost2010PropOp37
 70
     1
102
RTVSPost2010Prop38
140
0.0
102
RTVSPost2010PropOp38
 70
     1
102
RTVSPost2010Prop39
140
1.0
102
RTVSPost2010PropOp39
 70
     1
102
RTVSPost2010Prop40
 90
        0
102
RTVSPost2010PropOp40
 70
     1
102
RTVSPost2010Prop41ColorIndex
 90
       18
102
RTVSPost2010Prop41ColorRGB
 90
        0
102
RTVSPost2010PropOp41
 70
     1
102
RTVSPost2010Prop42
 90
       50
102
RTVSPost2010PropOp42
 70
     1
102
RTVSPost2010Prop43
 90
        3
102
RTVSPost2010PropOp43
 70
     1
102
RTVSPost2010Prop44ColorIndex
 90
        5
102
RTVSPost2010Prop44ColorRGB
 90
      255
102
RTVSPost2010PropOp44
 70
     1
102
RTVSPost2010Prop45
280
     0
102
RTVSPost2010PropOp45
 70
     1
102
RTVSPost2010Prop46
 90
       50
102
RTVSPost2010PropOp46
 70
     1
102
RTVSPost2010Prop47
 90
       50
102
RTVSPost2010PropOp47
 70
     1
102
RTVSPost2010Prop48
 90
       50
102
RTVSPost2010PropOp48
 70
     1
102
RTVSPost2010Prop49
280
     0
102
RTVSPost2010PropOp49
 70
     1
102
RTVSPost2010Prop50
 90
       50
102
RTVSPost2010PropOp50
 70
     1
102
RTVSPost2010Prop51ColorIndex
 90
      256
102
RTVSPost2010Prop51ColorRGB
 90
-16777216
102
RTVSPost2010PropOp51
 70
     0
102
RTVSPost2010Prop52
140
1.0
102
RTVSPost2010PropOp52
 70
     0
102
RTVSPost2010Prop53
 90
        2
102
RTVSPost2010PropOp53
 70
     1
102
RTVSPost2010Prop54
  1
strokes_ogs.tif
102
RTVSPost2010PropOp54
 70
     1
102
RTVSPost2010Prop55
280
     0
102
RTVSPost2010PropOp55
 70
     1
102
RTVSPost2010Prop56
140
1.0
102
RTVSPost2010PropOp56
 70
     1
102
RTVSPost2010Prop57
140
1.0
102
RTVSPost2010PropOp57
 70
     1
  0
XRECORD
  5
44E
102
{ACAD_REACTORS
330
44D
102
}
330
44D
100
AcDbXrecord
280
     1
102
RTVSPost2010Prop28
280
     0
102
RTVSPost2010PropOp28
 70
     1
102
RTVSPost2010Prop29
280
     1
102
RTVSPost2010PropOp29
 70
     1
102
RTVSPost2010Prop30
280
     1
102
RTVSPost2010PropOp30
 70
     1
102
RTVSPost2010Prop31
280
     0
102
RTVSPost2010PropOp31
 70
     1
102
RTVSPost2010Prop32
280
     0
102
RTVSPost2010PropOp32
 70
     1
102
RTVSPost2010Prop33
280
     0
102
RTVSPost2010PropOp33
 70
     1
102
RTVSPost2010Prop34
280
     0
102
RTVSPost2010PropOp34
 70
     1
102
RTVSPost2010Prop35
280
     0
102
RTVSPost2010PropOp35
 70
     1
102
RTVSPost2010Prop36
280
     0
102
RTVSPost2010PropOp36
 70
     1
102
RTVSPost2010Prop37
 90
       50
102
RTVSPost2010PropOp37
 70
     1
102
RTVSPost2010Prop38
140
0.0
102
RTVSPost2010PropOp38
 70
     1
102
RTVSPost2010Prop39
140
1.0
102
RTVSPost2010PropOp39
 70
     1
102
RTVSPost2010Prop40
 90
        0
102
RTVSPost2010PropOp40
 70
     1
102
RTVSPost2010Prop41ColorIndex
 90
       18
102
RTVSPost2010Prop41ColorRGB
 90
        0
102
RTVSPost2010PropOp41
 70
     1
102
RTVSPost2010Prop42
 90
       50
102
RTVSPost2010PropOp42
 70
     1
102
RTVSPost2010Prop43
 90
        3
102
RTVSPost2010PropOp43
 70
     1
102
RTVSPost2010Prop44ColorIndex
 90
        5
102
RTVSPost2010Prop44ColorRGB
 90
      255
102
RTVSPost2010PropOp44
 70
     1
102
RTVSPost2010Prop45
280
     0
102
RTVSPost2010PropOp45
 70
     1
102
RTVSPost2010Prop46
 90
       50
102
RTVSPost2010PropOp46
 70
     1
102
RTVSPost2010Prop47
 90
       50
102
RTVSPost2010PropOp47
 70
     1
102
RTVSPost2010Prop48
 90
       50
102
RTVSPost2010PropOp48
 70
     1
102
RTVSPost2010Prop49
280
     0
102
RTVSPost2010PropOp49
 70
     1
102
RTVSPost2010Prop50
 90
       50
102
RTVSPost2010PropOp50
 70
     1
102
RTVSPost2010Prop51ColorIndex
 90
      256
102
RTVSPost2010Prop51ColorRGB
 90
-16777216
102
RTVSPost2010PropOp51
 70
     0
102
RTVSPost2010Prop52
140
1.0
102
RTVSPost2010PropOp52
 70
     0
102
RTVSPost2010Prop53
 90
        2
102
RTVSPost2010PropOp53
 70
     1
102
RTVSPost2010Prop54
  1
strokes_ogs.tif
102
RTVSPost2010PropOp54
 70
     1
102
RTVSPost2010Prop55
280
     0
102
RTVSPost2010PropOp55
 70
     1
102
RTVSPost2010Prop56
140
1.0
102
RTVSPost2010PropOp56
 70
     1
102
RTVSPost2010Prop57
140
1.0
102
RTVSPost2010PropOp57
 70
     1
  0
XRECORD
  5
450
102
{ACAD_REACTORS
330
44F
102
}
330
44F
100
AcDbXrecord
280
     1
102
RTVSPost2010Prop28
280
     0
102
RTVSPost2010PropOp28
 70
     1
102
RTVSPost2010Prop29
280
     1
102
RTVSPost2010PropOp29
 70
     1
102
RTVSPost2010Prop30
280
     1
102
RTVSPost2010PropOp30
 70
     1
102
RTVSPost2010Prop31
280
     0
102
RTVSPost2010PropOp31
 70
     1
102
RTVSPost2010Prop32
280
     0
102
RTVSPost2010PropOp32
 70
     1
102
RTVSPost2010Prop33
280
     0
102
RTVSPost2010PropOp33
 70
     1
102
RTVSPost2010Prop34
280
     0
102
RTVSPost2010PropOp34
 70
     1
102
RTVSPost2010Prop35
280
     0
102
RTVSPost2010PropOp35
 70
     1
102
RTVSPost2010Prop36
280
     0
102
RTVSPost2010PropOp36
 70
     1
102
RTVSPost2010Prop37
 90
       50
102
RTVSPost2010PropOp37
 70
     1
102
RTVSPost2010Prop38
140
0.0
102
RTVSPost2010PropOp38
 70
     1
102
RTVSPost2010Prop39
140
1.0
102
RTVSPost2010PropOp39
 70
     1
102
RTVSPost2010Prop40
 90
        0
102
RTVSPost2010PropOp40
 70
     1
102
RTVSPost2010Prop41ColorIndex
 90
       18
102
RTVSPost2010Prop41ColorRGB
 90
        0
102
RTVSPost2010PropOp41
 70
     1
102
RTVSPost2010Prop42
 90
       50
102
RTVSPost2010PropOp42
 70
     1
102
RTVSPost2010Prop43
 90
        3
102
RTVSPost2010PropOp43
 70
     1
102
RTVSPost2010Prop44ColorIndex
 90
        5
102
RTVSPost2010Prop44ColorRGB
 90
      255
102
RTVSPost2010PropOp44
 70
     1
102
RTVSPost2010Prop45
280
     0
102
RTVSPost2010PropOp45
 70
     1
102
RTVSPost2010Prop46
 90
       50
102
RTVSPost2010PropOp46
 70
     1
102
RTVSPost2010Prop47
 90
       50
102
RTVSPost2010PropOp47
 70
     1
102
RTVSPost2010Prop48
 90
       50
102
RTVSPost2010PropOp48
 70
     1
102
RTVSPost2010Prop49
280
     0
102
RTVSPost2010PropOp49
 70
     1
102
RTVSPost2010Prop50
 90
       50
102
RTVSPost2010PropOp50
 70
     1
102
RTVSPost2010Prop51ColorIndex
 90
      256
102
RTVSPost2010Prop51ColorRGB
 90
-16777216
102
RTVSPost2010PropOp51
 70
     0
102
RTVSPost2010Prop52
140
1.0
102
RTVSPost2010PropOp52
 70
     0
102
RTVSPost2010Prop53
 90
        2
102
RTVSPost2010PropOp53
 70
     1
102
RTVSPost2010Prop54
  1
strokes_ogs.tif
102
RTVSPost2010PropOp54
 70
     1
102
RTVSPost2010Prop55
280
     0
102
RTVSPost2010PropOp55
 70
     1
102
RTVSPost2010Prop56
140
1.0
102
RTVSPost2010PropOp56
 70
     1
102
RTVSPost2010Prop57
140
1.0
102
RTVSPost2010PropOp57
 70
     1
  0
XRECORD
  5
452
102
{ACAD_REACTORS
330
451
102
}
330
451
100
AcDbXrecord
280
     1
102
RTVSPost2010Prop28
280
     0
102
RTVSPost2010PropOp28
 70
     1
102
RTVSPost2010Prop29
280
     1
102
RTVSPost2010PropOp29
 70
     1
102
RTVSPost2010Prop30
280
     1
102
RTVSPost2010PropOp30
 70
     1
102
RTVSPost2010Prop31
280
     0
102
RTVSPost2010PropOp31
 70
     1
102
RTVSPost2010Prop32
280
     0
102
RTVSPost2010PropOp32
 70
     1
102
RTVSPost2010Prop33
280
     0
102
RTVSPost2010PropOp33
 70
     1
102
RTVSPost2010Prop34
280
     0
102
RTVSPost2010PropOp34
 70
     1
102
RTVSPost2010Prop35
280
     0
102
RTVSPost2010PropOp35
 70
     1
102
RTVSPost2010Prop36
280
     0
102
RTVSPost2010PropOp36
 70
     1
102
RTVSPost2010Prop37
 90
       50
102
RTVSPost2010PropOp37
 70
     1
102
RTVSPost2010Prop38
140
0.0
102
RTVSPost2010PropOp38
 70
     1
102
RTVSPost2010Prop39
140
1.0
102
RTVSPost2010PropOp39
 70
     1
102
RTVSPost2010Prop40
 90
        0
102
RTVSPost2010PropOp40
 70
     1
102
RTVSPost2010Prop41ColorIndex
 90
       18
102
RTVSPost2010Prop41ColorRGB
 90
        0
102
RTVSPost2010PropOp41
 70
     1
102
RTVSPost2010Prop42
 90
       50
102
RTVSPost2010PropOp42
 70
     1
102
RTVSPost2010Prop43
 90
        3
102
RTVSPost2010PropOp43
 70
     1
102
RTVSPost2010Prop44ColorIndex
 90
        5
102
RTVSPost2010Prop44ColorRGB
 90
      255
102
RTVSPost2010PropOp44
 70
     1
102
RTVSPost2010Prop45
280
     0
102
RTVSPost2010PropOp45
 70
     1
102
RTVSPost2010Prop46
 90
       50
102
RTVSPost2010PropOp46
 70
     1
102
RTVSPost2010Prop47
 90
       50
102
RTVSPost2010PropOp47
 70
     1
102
RTVSPost2010Prop48
 90
       50
102
RTVSPost2010PropOp48
 70
     1
102
RTVSPost2010Prop49
280
     0
102
RTVSPost2010PropOp49
 70
     1
102
RTVSPost2010Prop50
 90
       50
102
RTVSPost2010PropOp50
 70
     1
102
RTVSPost2010Prop51ColorIndex
 90
      256
102
RTVSPost2010Prop51ColorRGB
 90
-16777216
102
RTVSPost2010PropOp51
 70
     0
102
RTVSPost2010Prop52
140
1.0
102
RTVSPost2010PropOp52
 70
     0
102
RTVSPost2010Prop53
 90
        2
102
RTVSPost2010PropOp53
 70
     1
102
RTVSPost2010Prop54
  1
strokes_ogs.tif
102
RTVSPost2010PropOp54
 70
     1
102
RTVSPost2010Prop55
280
     0
102
RTVSPost2010PropOp55
 70
     1
102
RTVSPost2010Prop56
140
1.0
102
RTVSPost2010PropOp56
 70
     1
102
RTVSPost2010Prop57
140
1.0
102
RTVSPost2010PropOp57
 70
     1
  0
XRECORD
  5
458
102
{ACAD_REACTORS
330
457
102
}
330
457
100
AcDbXrecord
280
     1
102
RTVSPost2010Prop28
280
     0
102
RTVSPost2010PropOp28
 70
     1
102
RTVSPost2010Prop29
280
     1
102
RTVSPost2010PropOp29
 70
     1
102
RTVSPost2010Prop30
280
     1
102
RTVSPost2010PropOp30
 70
     1
102
RTVSPost2010Prop31
280
     0
102
RTVSPost2010PropOp31
 70
     1
102
RTVSPost2010Prop32
280
     0
102
RTVSPost2010PropOp32
 70
     1
102
RTVSPost2010Prop33
280
     0
102
RTVSPost2010PropOp33
 70
     1
102
RTVSPost2010Prop34
280
     0
102
RTVSPost2010PropOp34
 70
     1
102
RTVSPost2010Prop35
280
     0
102
RTVSPost2010PropOp35
 70
     1
102
RTVSPost2010Prop36
280
     0
102
RTVSPost2010PropOp36
 70
     1
102
RTVSPost2010Prop37
 90
       50
102
RTVSPost2010PropOp37
 70
     1
102
RTVSPost2010Prop38
140
0.0
102
RTVSPost2010PropOp38
 70
     1
102
RTVSPost2010Prop39
140
1.0
102
RTVSPost2010PropOp39
 70
     1
102
RTVSPost2010Prop40
 90
        0
102
RTVSPost2010PropOp40
 70
     1
102
RTVSPost2010Prop41ColorIndex
 90
       18
102
RTVSPost2010Prop41ColorRGB
 90
        0
102
RTVSPost2010PropOp41
 70
     1
102
RTVSPost2010Prop42
 90
       50
102
RTVSPost2010PropOp42
 70
     1
102
RTVSPost2010Prop43
 90
        3
102
RTVSPost2010PropOp43
 70
     1
102
RTVSPost2010Prop44ColorIndex
 90
        5
102
RTVSPost2010Prop44ColorRGB
 90
      255
102
RTVSPost2010PropOp44
 70
     1
102
RTVSPost2010Prop45
280
     0
102
RTVSPost2010PropOp45
 70
     1
102
RTVSPost2010Prop46
 90
       50
102
RTVSPost2010PropOp46
 70
     1
102
RTVSPost2010Prop47
 90
       50
102
RTVSPost2010PropOp47
 70
     1
102
RTVSPost2010Prop48
 90
       50
102
RTVSPost2010PropOp48
 70
     1
102
RTVSPost2010Prop49
280
     0
102
RTVSPost2010PropOp49
 70
     1
102
RTVSPost2010Prop50
 90
       50
102
RTVSPost2010PropOp50
 70
     1
102
RTVSPost2010Prop51ColorIndex
 90
      256
102
RTVSPost2010Prop51ColorRGB
 90
-16777216
102
RTVSPost2010PropOp51
 70
     0
102
RTVSPost2010Prop52
140
1.0
102
RTVSPost2010PropOp52
 70
     0
102
RTVSPost2010Prop53
 90
        2
102
RTVSPost2010PropOp53
 70
     1
102
RTVSPost2010Prop54
  1
strokes_ogs.tif
102
RTVSPost2010PropOp54
 70
     1
102
RTVSPost2010Prop55
280
     0
102
RTVSPost2010PropOp55
 70
     1
102
RTVSPost2010Prop56
140
1.0
102
RTVSPost2010PropOp56
 70
     1
102
RTVSPost2010Prop57
140
1.0
102
RTVSPost2010PropOp57
 70
     1
  0
XRECORD
  5
46C
102
{ACAD_REACTORS
330
46B
102
}
330
46B
100
AcDbXrecord
280
     1
102
RTVSPost2010Prop28
280
     0
102
RTVSPost2010PropOp28
 70
     0
102
RTVSPost2010Prop29
280
     1
102
RTVSPost2010PropOp29
 70
     0
102
RTVSPost2010Prop30
280
     1
102
RTVSPost2010PropOp30
 70
     0
102
RTVSPost2010Prop31
280
     0
102
RTVSPost2010PropOp31
 70
     0
102
RTVSPost2010Prop32
280
     0
102
RTVSPost2010PropOp32
 70
     0
102
RTVSPost2010Prop33
280
     0
102
RTVSPost2010PropOp33
 70
     0
102
RTVSPost2010Prop34
280
     0
102
RTVSPost2010PropOp34
 70
     0
102
RTVSPost2010Prop35
280
     0
102
RTVSPost2010PropOp35
 70
     0
102
RTVSPost2010Prop36
280
     0
102
RTVSPost2010PropOp36
 70
     0
102
RTVSPost2010Prop37
 90
       50
102
RTVSPost2010PropOp37
 70
     0
102
RTVSPost2010Prop38
140
0.0
102
RTVSPost2010PropOp38
 70
     0
102
RTVSPost2010Prop39
140
1.0
102
RTVSPost2010PropOp39
 70
     0
102
RTVSPost2010Prop40
 90
        0
102
RTVSPost2010PropOp40
 70
     0
102
RTVSPost2010Prop41ColorIndex
 90
       18
102
RTVSPost2010Prop41ColorRGB
 90
        0
102
RTVSPost2010PropOp41
 70
     0
102
RTVSPost2010Prop42
 90
       50
102
RTVSPost2010PropOp42
 70
     0
102
RTVSPost2010Prop43
 90
        3
102
RTVSPost2010PropOp43
 70
     0
102
RTVSPost2010Prop44ColorIndex
 90
        5
102
RTVSPost2010Prop44ColorRGB
 90
      255
102
RTVSPost2010PropOp44
 70
     0
102
RTVSPost2010Prop45
280
     0
102
RTVSPost2010PropOp45
 70
     0
102
RTVSPost2010Prop46
 90
       50
102
RTVSPost2010PropOp46
 70
     0
102
RTVSPost2010Prop47
 90
       50
102
RTVSPost2010PropOp47
 70
     0
102
RTVSPost2010Prop48
 90
       50
102
RTVSPost2010PropOp48
 70
     0
102
RTVSPost2010Prop49
280
     0
102
RTVSPost2010PropOp49
 70
     0
102
RTVSPost2010Prop50
 90
       50
102
RTVSPost2010PropOp50
 70
     0
102
RTVSPost2010Prop51ColorIndex
 90
      256
102
RTVSPost2010Prop51ColorRGB
 90
-16777216
102
RTVSPost2010PropOp51
 70
     0
102
RTVSPost2010Prop52
140
1.0
102
RTVSPost2010PropOp52
 70
     0
102
RTVSPost2010Prop53
 90
        2
102
RTVSPost2010PropOp53
 70
     0
102
RTVSPost2010Prop54
  1
strokes_ogs.tif
102
RTVSPost2010PropOp54
 70
     0
102
RTVSPost2010Prop55
280
     0
102
RTVSPost2010PropOp55
 70
     0
102
RTVSPost2010Prop56
140
1.0
102
RTVSPost2010PropOp56
 70
     0
102
RTVSPost2010Prop57
140
1.0
102
RTVSPost2010PropOp57
 70
     0
  0
XRECORD
  5
466
102
{ACAD_REACTORS
330
465
102
}
330
465
100
AcDbXrecord
280
     1
102
RTVSPost2010Prop28
280
     0
102
RTVSPost2010PropOp28
 70
     1
102
RTVSPost2010Prop29
280
     1
102
RTVSPost2010PropOp29
 70
     1
102
RTVSPost2010Prop30
280
     1
102
RTVSPost2010PropOp30
 70
     1
102
RTVSPost2010Prop31
280
     0
102
RTVSPost2010PropOp31
 70
     1
102
RTVSPost2010Prop32
280
     0
102
RTVSPost2010PropOp32
 70
     1
102
RTVSPost2010Prop33
280
     0
102
RTVSPost2010PropOp33
 70
     1
102
RTVSPost2010Prop34
280
     0
102
RTVSPost2010PropOp34
 70
     1
102
RTVSPost2010Prop35
280
     0
102
RTVSPost2010PropOp35
 70
     1
102
RTVSPost2010Prop36
280
     0
102
RTVSPost2010PropOp36
 70
     1
102
RTVSPost2010Prop37
 90
       50
102
RTVSPost2010PropOp37
 70
     1
102
RTVSPost2010Prop38
140
0.0
102
RTVSPost2010PropOp38
 70
     1
102
RTVSPost2010Prop39
140
1.0
102
RTVSPost2010PropOp39
 70
     1
102
RTVSPost2010Prop40
 90
        0
102
RTVSPost2010PropOp40
 70
     1
102
RTVSPost2010Prop41ColorIndex
 90
       18
102
RTVSPost2010Prop41ColorRGB
 90
        0
102
RTVSPost2010PropOp41
 70
     1
102
RTVSPost2010Prop42
 90
       50
102
RTVSPost2010PropOp42
 70
     1
102
RTVSPost2010Prop43
 90
        3
102
RTVSPost2010PropOp43
 70
     1
102
RTVSPost2010Prop44ColorIndex
 90
        5
102
RTVSPost2010Prop44ColorRGB
 90
      255
102
RTVSPost2010PropOp44
 70
     1
102
RTVSPost2010Prop45
280
     0
102
RTVSPost2010PropOp45
 70
     1
102
RTVSPost2010Prop46
 90
       50
102
RTVSPost2010PropOp46
 70
     1
102
RTVSPost2010Prop47
 90
       50
102
RTVSPost2010PropOp47
 70
     1
102
RTVSPost2010Prop48
 90
       50
102
RTVSPost2010PropOp48
 70
     1
102
RTVSPost2010Prop49
280
     0
102
RTVSPost2010PropOp49
 70
     1
102
RTVSPost2010Prop50
 90
       50
102
RTVSPost2010PropOp50
 70
     1
102
RTVSPost2010Prop51ColorIndex
 90
      256
102
RTVSPost2010Prop51ColorRGB
 90
-16777216
102
RTVSPost2010PropOp51
 70
     0
102
RTVSPost2010Prop52
140
1.0
102
RTVSPost2010PropOp52
 70
     0
102
RTVSPost2010Prop53
 90
        2
102
RTVSPost2010PropOp53
 70
     1
102
RTVSPost2010Prop54
  1
strokes_ogs.tif
102
RTVSPost2010PropOp54
 70
     1
102
RTVSPost2010Prop55
280
     0
102
RTVSPost2010PropOp55
 70
     1
102
RTVSPost2010Prop56
140
1.0
102
RTVSPost2010PropOp56
 70
     1
102
RTVSPost2010Prop57
140
1.0
102
RTVSPost2010PropOp57
 70
     1
  0
XRECORD
  5
46E
102
{ACAD_REACTORS
330
46D
102
}
330
46D
100
AcDbXrecord
280
     1
102
RTVSPost2010Prop28
280
     0
102
RTVSPost2010PropOp28
 70
     0
102
RTVSPost2010Prop29
280
     1
102
RTVSPost2010PropOp29
 70
     0
102
RTVSPost2010Prop30
280
     1
102
RTVSPost2010PropOp30
 70
     0
102
RTVSPost2010Prop31
280
     0
102
RTVSPost2010PropOp31
 70
     0
102
RTVSPost2010Prop32
280
     0
102
RTVSPost2010PropOp32
 70
     0
102
RTVSPost2010Prop33
280
     0
102
RTVSPost2010PropOp33
 70
     0
102
RTVSPost2010Prop34
280
     0
102
RTVSPost2010PropOp34
 70
     0
102
RTVSPost2010Prop35
280
     0
102
RTVSPost2010PropOp35
 70
     0
102
RTVSPost2010Prop36
280
     0
102
RTVSPost2010PropOp36
 70
     0
102
RTVSPost2010Prop37
 90
       50
102
RTVSPost2010PropOp37
 70
     0
102
RTVSPost2010Prop38
140
0.0
102
RTVSPost2010PropOp38
 70
     0
102
RTVSPost2010Prop39
140
1.0
102
RTVSPost2010PropOp39
 70
     0
102
RTVSPost2010Prop40
 90
        0
102
RTVSPost2010PropOp40
 70
     0
102
RTVSPost2010Prop41ColorIndex
 90
       18
102
RTVSPost2010Prop41ColorRGB
 90
        0
102
RTVSPost2010PropOp41
 70
     0
102
RTVSPost2010Prop42
 90
       50
102
RTVSPost2010PropOp42
 70
     0
102
RTVSPost2010Prop43
 90
        3
102
RTVSPost2010PropOp43
 70
     0
102
RTVSPost2010Prop44ColorIndex
 90
        5
102
RTVSPost2010Prop44ColorRGB
 90
      255
102
RTVSPost2010PropOp44
 70
     0
102
RTVSPost2010Prop45
280
     0
102
RTVSPost2010PropOp45
 70
     0
102
RTVSPost2010Prop46
 90
       50
102
RTVSPost2010PropOp46
 70
     0
102
RTVSPost2010Prop47
 90
       50
102
RTVSPost2010PropOp47
 70
     0
102
RTVSPost2010Prop48
 90
       50
102
RTVSPost2010PropOp48
 70
     0
102
RTVSPost2010Prop49
280
     0
102
RTVSPost2010PropOp49
 70
     0
102
RTVSPost2010Prop50
 90
       50
102
RTVSPost2010PropOp50
 70
     0
102
RTVSPost2010Prop51ColorIndex
 90
      256
102
RTVSPost2010Prop51ColorRGB
 90
-16777216
102
RTVSPost2010PropOp51
 70
     0
102
RTVSPost2010Prop52
140
1.0
102
RTVSPost2010PropOp52
 70
     0
102
RTVSPost2010Prop53
 90
        2
102
RTVSPost2010PropOp53
 70
     0
102
RTVSPost2010Prop54
  1
strokes_ogs.tif
102
RTVSPost2010PropOp54
 70
     0
102
RTVSPost2010Prop55
280
     0
102
RTVSPost2010PropOp55
 70
     0
102
RTVSPost2010Prop56
140
1.0
102
RTVSPost2010PropOp56
 70
     0
102
RTVSPost2010Prop57
140
1.0
102
RTVSPost2010PropOp57
 70
     0
  0
XRECORD
  5
45C
102
{ACAD_REACTORS
330
45B
102
}
330
45B
100
AcDbXrecord
280
     1
102
RTVSPost2010Prop28
280
     0
102
RTVSPost2010PropOp28
 70
     1
102
RTVSPost2010Prop29
280
     1
102
RTVSPost2010PropOp29
 70
     1
102
RTVSPost2010Prop30
280
     1
102
RTVSPost2010PropOp30
 70
     1
102
RTVSPost2010Prop31
280
     0
102
RTVSPost2010PropOp31
 70
     1
102
RTVSPost2010Prop32
280
     0
102
RTVSPost2010PropOp32
 70
     1
102
RTVSPost2010Prop33
280
     0
102
RTVSPost2010PropOp33
 70
     1
102
RTVSPost2010Prop34
280
     0
102
RTVSPost2010PropOp34
 70
     1
102
RTVSPost2010Prop35
280
     0
102
RTVSPost2010PropOp35
 70
     1
102
RTVSPost2010Prop36
280
     0
102
RTVSPost2010PropOp36
 70
     1
102
RTVSPost2010Prop37
 90
       50
102
RTVSPost2010PropOp37
 70
     1
102
RTVSPost2010Prop38
140
0.0
102
RTVSPost2010PropOp38
 70
     1
102
RTVSPost2010Prop39
140
1.0
102
RTVSPost2010PropOp39
 70
     1
102
RTVSPost2010Prop40
 90
        0
102
RTVSPost2010PropOp40
 70
     1
102
RTVSPost2010Prop41ColorIndex
 90
       18
102
RTVSPost2010Prop41ColorRGB
 90
        0
102
RTVSPost2010PropOp41
 70
     1
102
RTVSPost2010Prop42
 90
       50
102
RTVSPost2010PropOp42
 70
     1
102
RTVSPost2010Prop43
 90
        3
102
RTVSPost2010PropOp43
 70
     1
102
RTVSPost2010Prop44ColorIndex
 90
        5
102
RTVSPost2010Prop44ColorRGB
 90
      255
102
RTVSPost2010PropOp44
 70
     1
102
RTVSPost2010Prop45
280
     0
102
RTVSPost2010PropOp45
 70
     1
102
RTVSPost2010Prop46
 90
       50
102
RTVSPost2010PropOp46
 70
     1
102
RTVSPost2010Prop47
 90
       50
102
RTVSPost2010PropOp47
 70
     1
102
RTVSPost2010Prop48
 90
       50
102
RTVSPost2010PropOp48
 70
     1
102
RTVSPost2010Prop49
280
     0
102
RTVSPost2010PropOp49
 70
     1
102
RTVSPost2010Prop50
 90
       50
102
RTVSPost2010PropOp50
 70
     1
102
RTVSPost2010Prop51ColorIndex
 90
      256
102
RTVSPost2010Prop51ColorRGB
 90
-16777216
102
RTVSPost2010PropOp51
 70
     0
102
RTVSPost2010Prop52
140
1.0
102
RTVSPost2010PropOp52
 70
     0
102
RTVSPost2010Prop53
 90
        2
102
RTVSPost2010PropOp53
 70
     1
102
RTVSPost2010Prop54
  1
strokes_ogs.tif
102
RTVSPost2010PropOp54
 70
     1
102
RTVSPost2010Prop55
280
     0
102
RTVSPost2010PropOp55
 70
     1
102
RTVSPost2010Prop56
140
1.0
102
RTVSPost2010PropOp56
 70
     1
102
RTVSPost2010Prop57
140
1.0
102
RTVSPost2010PropOp57
 70
     1
  0
XRECORD
  5
47A
102
{ACAD_REACTORS
330
479
102
}
330
479
100
AcDbXrecord
280
     1
102
RTVSPost2010Prop28
280
     0
102
RTVSPost2010PropOp28
 70
     1
102
RTVSPost2010Prop29
280
     1
102
RTVSPost2010PropOp29
 70
     1
102
RTVSPost2010Prop30
280
     1
102
RTVSPost2010PropOp30
 70
     1
102
RTVSPost2010Prop31
280
     0
102
RTVSPost2010PropOp31
 70
     1
102
RTVSPost2010Prop32
280
     0
102
RTVSPost2010PropOp32
 70
     1
102
RTVSPost2010Prop33
280
     0
102
RTVSPost2010PropOp33
 70
     1
102
RTVSPost2010Prop34
280
     0
102
RTVSPost2010PropOp34
 70
     1
102
RTVSPost2010Prop35
280
     0
102
RTVSPost2010PropOp35
 70
     1
102
RTVSPost2010Prop36
280
     0
102
RTVSPost2010PropOp36
 70
     1
102
RTVSPost2010Prop37
 90
       50
102
RTVSPost2010PropOp37
 70
     1
102
RTVSPost2010Prop38
140
0.0
102
RTVSPost2010PropOp38
 70
     1
102
RTVSPost2010Prop39
140
1.0
102
RTVSPost2010PropOp39
 70
     1
102
RTVSPost2010Prop40
 90
        0
102
RTVSPost2010PropOp40
 70
     1
102
RTVSPost2010Prop41ColorIndex
 90
       18
102
RTVSPost2010Prop41ColorRGB
 90
        0
102
RTVSPost2010PropOp41
 70
     1
102
RTVSPost2010Prop42
 90
       50
102
RTVSPost2010PropOp42
 70
     1
102
RTVSPost2010Prop43
 90
        3
102
RTVSPost2010PropOp43
 70
     1
102
RTVSPost2010Prop44ColorIndex
 90
        5
102
RTVSPost2010Prop44ColorRGB
 90
      255
102
RTVSPost2010PropOp44
 70
     1
102
RTVSPost2010Prop45
280
     0
102
RTVSPost2010PropOp45
 70
     1
102
RTVSPost2010Prop46
 90
       50
102
RTVSPost2010PropOp46
 70
     1
102
RTVSPost2010Prop47
 90
       50
102
RTVSPost2010PropOp47
 70
     1
102
RTVSPost2010Prop48
 90
       50
102
RTVSPost2010PropOp48
 70
     1
102
RTVSPost2010Prop49
280
     0
102
RTVSPost2010PropOp49
 70
     1
102
RTVSPost2010Prop50
 90
       50
102
RTVSPost2010PropOp50
 70
     1
102
RTVSPost2010Prop51ColorIndex
 90
      256
102
RTVSPost2010Prop51ColorRGB
 90
-16777216
102
RTVSPost2010PropOp51
 70
     0
102
RTVSPost2010Prop52
140
1.0
102
RTVSPost2010PropOp52
 70
     0
102
RTVSPost2010Prop53
 90
        2
102
RTVSPost2010PropOp53
 70
     1
102
RTVSPost2010Prop54
  1
strokes_ogs.tif
102
RTVSPost2010PropOp54
 70
     1
102
RTVSPost2010Prop55
280
     0
102
RTVSPost2010PropOp55
 70
     1
102
RTVSPost2010Prop56
140
1.0
102
RTVSPost2010PropOp56
 70
     1
102
RTVSPost2010Prop57
140
1.0
102
RTVSPost2010PropOp57
 70
     1
  0
XRECORD
  5
478
102
{ACAD_REACTORS
330
477
102
}
330
477
100
AcDbXrecord
280
     1
102
RTVSPost2010Prop28
280
     0
102
RTVSPost2010PropOp28
 70
     1
102
RTVSPost2010Prop29
280
     1
102
RTVSPost2010PropOp29
 70
     1
102
RTVSPost2010Prop30
280
     1
102
RTVSPost2010PropOp30
 70
     1
102
RTVSPost2010Prop31
280
     0
102
RTVSPost2010PropOp31
 70
     1
102
RTVSPost2010Prop32
280
     0
102
RTVSPost2010PropOp32
 70
     1
102
RTVSPost2010Prop33
280
     0
102
RTVSPost2010PropOp33
 70
     1
102
RTVSPost2010Prop34
280
     0
102
RTVSPost2010PropOp34
 70
     1
102
RTVSPost2010Prop35
280
     0
102
RTVSPost2010PropOp35
 70
     1
102
RTVSPost2010Prop36
280
     0
102
RTVSPost2010PropOp36
 70
     1
102
RTVSPost2010Prop37
 90
       50
102
RTVSPost2010PropOp37
 70
     1
102
RTVSPost2010Prop38
140
0.0
102
RTVSPost2010PropOp38
 70
     1
102
RTVSPost2010Prop39
140
1.0
102
RTVSPost2010PropOp39
 70
     1
102
RTVSPost2010Prop40
 90
        0
102
RTVSPost2010PropOp40
 70
     1
102
RTVSPost2010Prop41ColorIndex
 90
       18
102
RTVSPost2010Prop41ColorRGB
 90
        0
102
RTVSPost2010PropOp41
 70
     1
102
RTVSPost2010Prop42
 90
       50
102
RTVSPost2010PropOp42
 70
     1
102
RTVSPost2010Prop43
 90
        3
102
RTVSPost2010PropOp43
 70
     1
102
RTVSPost2010Prop44ColorIndex
 90
        5
102
RTVSPost2010Prop44ColorRGB
 90
      255
102
RTVSPost2010PropOp44
 70
     1
102
RTVSPost2010Prop45
280
     0
102
RTVSPost2010PropOp45
 70
     1
102
RTVSPost2010Prop46
 90
       50
102
RTVSPost2010PropOp46
 70
     1
102
RTVSPost2010Prop47
 90
       50
102
RTVSPost2010PropOp47
 70
     1
102
RTVSPost2010Prop48
 90
       50
102
RTVSPost2010PropOp48
 70
     1
102
RTVSPost2010Prop49
280
     0
102
RTVSPost2010PropOp49
 70
     1
102
RTVSPost2010Prop50
 90
       50
102
RTVSPost2010PropOp50
 70
     1
102
RTVSPost2010Prop51ColorIndex
 90
      256
102
RTVSPost2010Prop51ColorRGB
 90
-16777216
102
RTVSPost2010PropOp51
 70
     0
102
RTVSPost2010Prop52
140
1.0
102
RTVSPost2010PropOp52
 70
     0
102
RTVSPost2010Prop53
 90
        2
102
RTVSPost2010PropOp53
 70
     1
102
RTVSPost2010Prop54
  1
strokes_ogs.tif
102
RTVSPost2010PropOp54
 70
     1
102
RTVSPost2010Prop55
280
     0
102
RTVSPost2010PropOp55
 70
     1
102
RTVSPost2010Prop56
140
1.0
102
RTVSPost2010PropOp56
 70
     1
102
RTVSPost2010Prop57
140
1.0
102
RTVSPost2010PropOp57
 70
     1
  0
XRECORD
  5
472
102
{ACAD_REACTORS
330
471
102
}
330
471
100
AcDbXrecord
280
     1
102
RTVSPost2010Prop28
280
     0
102
RTVSPost2010PropOp28
 70
     1
102
RTVSPost2010Prop29
280
     1
102
RTVSPost2010PropOp29
 70
     1
102
RTVSPost2010Prop30
280
     1
102
RTVSPost2010PropOp30
 70
     1
102
RTVSPost2010Prop31
280
     0
102
RTVSPost2010PropOp31
 70
     1
102
RTVSPost2010Prop32
280
     0
102
RTVSPost2010PropOp32
 70
     1
102
RTVSPost2010Prop33
280
     0
102
RTVSPost2010PropOp33
 70
     1
102
RTVSPost2010Prop34
280
     0
102
RTVSPost2010PropOp34
 70
     1
102
RTVSPost2010Prop35
280
     0
102
RTVSPost2010PropOp35
 70
     1
102
RTVSPost2010Prop36
280
     0
102
RTVSPost2010PropOp36
 70
     1
102
RTVSPost2010Prop37
 90
       50
102
RTVSPost2010PropOp37
 70
     1
102
RTVSPost2010Prop38
140
0.0
102
RTVSPost2010PropOp38
 70
     1
102
RTVSPost2010Prop39
140
1.0
102
RTVSPost2010PropOp39
 70
     1
102
RTVSPost2010Prop40
 90
        0
102
RTVSPost2010PropOp40
 70
     1
102
RTVSPost2010Prop41ColorIndex
 90
       18
102
RTVSPost2010Prop41ColorRGB
 90
        0
102
RTVSPost2010PropOp41
 70
     1
102
RTVSPost2010Prop42
 90
       50
102
RTVSPost2010PropOp42
 70
     1
102
RTVSPost2010Prop43
 90
        3
102
RTVSPost2010PropOp43
 70
     1
102
RTVSPost2010Prop44ColorIndex
 90
        5
102
RTVSPost2010Prop44ColorRGB
 90
      255
102
RTVSPost2010PropOp44
 70
     1
102
RTVSPost2010Prop45
280
     0
102
RTVSPost2010PropOp45
 70
     1
102
RTVSPost2010Prop46
 90
       50
102
RTVSPost2010PropOp46
 70
     1
102
RTVSPost2010Prop47
 90
       50
102
RTVSPost2010PropOp47
 70
     1
102
RTVSPost2010Prop48
 90
       50
102
RTVSPost2010PropOp48
 70
     1
102
RTVSPost2010Prop49
280
     0
102
RTVSPost2010PropOp49
 70
     1
102
RTVSPost2010Prop50
 90
       50
102
RTVSPost2010PropOp50
 70
     1
102
RTVSPost2010Prop51ColorIndex
 90
      256
102
RTVSPost2010Prop51ColorRGB
 90
-16777216
102
RTVSPost2010PropOp51
 70
     0
102
RTVSPost2010Prop52
140
1.0
102
RTVSPost2010PropOp52
 70
     0
102
RTVSPost2010Prop53
 90
        2
102
RTVSPost2010PropOp53
 70
     1
102
RTVSPost2010Prop54
  1
strokes_ogs.tif
102
RTVSPost2010PropOp54
 70
     1
102
RTVSPost2010Prop55
280
     0
102
RTVSPost2010PropOp55
 70
     1
102
RTVSPost2010Prop56
140
1.0
102
RTVSPost2010PropOp56
 70
     1
102
RTVSPost2010Prop57
140
1.0
102
RTVSPost2010PropOp57
 70
     1
  0
XRECORD
  5
474
102
{ACAD_REACTORS
330
473
102
}
330
473
100
AcDbXrecord
280
     1
102
RTVSPost2010Prop28
280
     0
102
RTVSPost2010PropOp28
 70
     1
102
RTVSPost2010Prop29
280
     1
102
RTVSPost2010PropOp29
 70
     1
102
RTVSPost2010Prop30
280
     1
102
RTVSPost2010PropOp30
 70
     1
102
RTVSPost2010Prop31
280
     0
102
RTVSPost2010PropOp31
 70
     1
102
RTVSPost2010Prop32
280
     0
102
RTVSPost2010PropOp32
 70
     1
102
RTVSPost2010Prop33
280
     0
102
RTVSPost2010PropOp33
 70
     1
102
RTVSPost2010Prop34
280
     0
102
RTVSPost2010PropOp34
 70
     1
102
RTVSPost2010Prop35
280
     0
102
RTVSPost2010PropOp35
 70
     1
102
RTVSPost2010Prop36
280
     0
102
RTVSPost2010PropOp36
 70
     1
102
RTVSPost2010Prop37
 90
       50
102
RTVSPost2010PropOp37
 70
     1
102
RTVSPost2010Prop38
140
0.0
102
RTVSPost2010PropOp38
 70
     1
102
RTVSPost2010Prop39
140
1.0
102
RTVSPost2010PropOp39
 70
     1
102
RTVSPost2010Prop40
 90
        0
102
RTVSPost2010PropOp40
 70
     1
102
RTVSPost2010Prop41ColorIndex
 90
       18
102
RTVSPost2010Prop41ColorRGB
 90
        0
102
RTVSPost2010PropOp41
 70
     1
102
RTVSPost2010Prop42
 90
       50
102
RTVSPost2010PropOp42
 70
     1
102
RTVSPost2010Prop43
 90
        3
102
RTVSPost2010PropOp43
 70
     1
102
RTVSPost2010Prop44ColorIndex
 90
        5
102
RTVSPost2010Prop44ColorRGB
 90
      255
102
RTVSPost2010PropOp44
 70
     1
102
RTVSPost2010Prop45
280
     0
102
RTVSPost2010PropOp45
 70
     1
102
RTVSPost2010Prop46
 90
       50
102
RTVSPost2010PropOp46
 70
     1
102
RTVSPost2010Prop47
 90
       50
102
RTVSPost2010PropOp47
 70
     1
102
RTVSPost2010Prop48
 90
       50
102
RTVSPost2010PropOp48
 70
     1
102
RTVSPost2010Prop49
280
     0
102
RTVSPost2010PropOp49
 70
     1
102
RTVSPost2010Prop50
 90
       50
102
RTVSPost2010PropOp50
 70
     1
102
RTVSPost2010Prop51ColorIndex
 90
      256
102
RTVSPost2010Prop51ColorRGB
 90
-16777216
102
RTVSPost2010PropOp51
 70
     0
102
RTVSPost2010Prop52
140
1.0
102
RTVSPost2010PropOp52
 70
     0
102
RTVSPost2010Prop53
 90
        2
102
RTVSPost2010PropOp53
 70
     1
102
RTVSPost2010Prop54
  1
strokes_ogs.tif
102
RTVSPost2010PropOp54
 70
     1
102
RTVSPost2010Prop55
280
     0
102
RTVSPost2010PropOp55
 70
     1
102
RTVSPost2010Prop56
140
1.0
102
RTVSPost2010PropOp56
 70
     1
102
RTVSPost2010Prop57
140
1.0
102
RTVSPost2010PropOp57
 70
     1
  0
XRECORD
  5
464
102
{ACAD_REACTORS
330
463
102
}
330
463
100
AcDbXrecord
280
     1
102
RTVSPost2010Prop28
280
     0
102
RTVSPost2010PropOp28
 70
     1
102
RTVSPost2010Prop29
280
     1
102
RTVSPost2010PropOp29
 70
     1
102
RTVSPost2010Prop30
280
     1
102
RTVSPost2010PropOp30
 70
     1
102
RTVSPost2010Prop31
280
     0
102
RTVSPost2010PropOp31
 70
     1
102
RTVSPost2010Prop32
280
     0
102
RTVSPost2010PropOp32
 70
     1
102
RTVSPost2010Prop33
280
     0
102
RTVSPost2010PropOp33
 70
     1
102
RTVSPost2010Prop34
280
     0
102
RTVSPost2010PropOp34
 70
     1
102
RTVSPost2010Prop35
280
     0
102
RTVSPost2010PropOp35
 70
     1
102
RTVSPost2010Prop36
280
     0
102
RTVSPost2010PropOp36
 70
     1
102
RTVSPost2010Prop37
 90
       50
102
RTVSPost2010PropOp37
 70
     1
102
RTVSPost2010Prop38
140
0.0
102
RTVSPost2010PropOp38
 70
     1
102
RTVSPost2010Prop39
140
1.0
102
RTVSPost2010PropOp39
 70
     1
102
RTVSPost2010Prop40
 90
        0
102
RTVSPost2010PropOp40
 70
     1
102
RTVSPost2010Prop41ColorIndex
 90
       18
102
RTVSPost2010Prop41ColorRGB
 90
        0
102
RTVSPost2010PropOp41
 70
     1
102
RTVSPost2010Prop42
 90
       50
102
RTVSPost2010PropOp42
 70
     1
102
RTVSPost2010Prop43
 90
        3
102
RTVSPost2010PropOp43
 70
     1
102
RTVSPost2010Prop44ColorIndex
 90
        5
102
RTVSPost2010Prop44ColorRGB
 90
      255
102
RTVSPost2010PropOp44
 70
     1
102
RTVSPost2010Prop45
280
     0
102
RTVSPost2010PropOp45
 70
     1
102
RTVSPost2010Prop46
 90
       50
102
RTVSPost2010PropOp46
 70
     1
102
RTVSPost2010Prop47
 90
       50
102
RTVSPost2010PropOp47
 70
     1
102
RTVSPost2010Prop48
 90
       50
102
RTVSPost2010PropOp48
 70
     1
102
RTVSPost2010Prop49
280
     0
102
RTVSPost2010PropOp49
 70
     1
102
RTVSPost2010Prop50
 90
       50
102
RTVSPost2010PropOp50
 70
     1
102
RTVSPost2010Prop51ColorIndex
 90
      256
102
RTVSPost2010Prop51ColorRGB
 90
-16777216
102
RTVSPost2010PropOp51
 70
     0
102
RTVSPost2010Prop52
140
1.0
102
RTVSPost2010PropOp52
 70
     0
102
RTVSPost2010Prop53
 90
        2
102
RTVSPost2010PropOp53
 70
     1
102
RTVSPost2010Prop54
  1
strokes_ogs.tif
102
RTVSPost2010PropOp54
 70
     1
102
RTVSPost2010Prop55
280
     0
102
RTVSPost2010PropOp55
 70
     1
102
RTVSPost2010Prop56
140
1.0
102
RTVSPost2010PropOp56
 70
     1
102
RTVSPost2010Prop57
140
1.0
102
RTVSPost2010PropOp57
 70
     1
  0
XRECORD
  5
456
102
{ACAD_REACTORS
330
455
102
}
330
455
100
AcDbXrecord
280
     1
102
RTVSPost2010Prop28
280
     0
102
RTVSPost2010PropOp28
 70
     1
102
RTVSPost2010Prop29
280
     1
102
RTVSPost2010PropOp29
 70
     1
102
RTVSPost2010Prop30
280
     1
102
RTVSPost2010PropOp30
 70
     1
102
RTVSPost2010Prop31
280
     0
102
RTVSPost2010PropOp31
 70
     1
102
RTVSPost2010Prop32
280
     0
102
RTVSPost2010PropOp32
 70
     1
102
RTVSPost2010Prop33
280
     0
102
RTVSPost2010PropOp33
 70
     1
102
RTVSPost2010Prop34
280
     0
102
RTVSPost2010PropOp34
 70
     1
102
RTVSPost2010Prop35
280
     0
102
RTVSPost2010PropOp35
 70
     1
102
RTVSPost2010Prop36
280
     0
102
RTVSPost2010PropOp36
 70
     1
102
RTVSPost2010Prop37
 90
       50
102
RTVSPost2010PropOp37
 70
     1
102
RTVSPost2010Prop38
140
0.0
102
RTVSPost2010PropOp38
 70
     1
102
RTVSPost2010Prop39
140
1.0
102
RTVSPost2010PropOp39
 70
     1
102
RTVSPost2010Prop40
 90
        0
102
RTVSPost2010PropOp40
 70
     1
102
RTVSPost2010Prop41ColorIndex
 90
       18
102
RTVSPost2010Prop41ColorRGB
 90
        0
102
RTVSPost2010PropOp41
 70
     1
102
RTVSPost2010Prop42
 90
       50
102
RTVSPost2010PropOp42
 70
     1
102
RTVSPost2010Prop43
 90
        3
102
RTVSPost2010PropOp43
 70
     1
102
RTVSPost2010Prop44ColorIndex
 90
        5
102
RTVSPost2010Prop44ColorRGB
 90
      255
102
RTVSPost2010PropOp44
 70
     1
102
RTVSPost2010Prop45
280
     0
102
RTVSPost2010PropOp45
 70
     1
102
RTVSPost2010Prop46
 90
       50
102
RTVSPost2010PropOp46
 70
     1
102
RTVSPost2010Prop47
 90
       50
102
RTVSPost2010PropOp47
 70
     1
102
RTVSPost2010Prop48
 90
       50
102
RTVSPost2010PropOp48
 70
     1
102
RTVSPost2010Prop49
280
     0
102
RTVSPost2010PropOp49
 70
     1
102
RTVSPost2010Prop50
 90
       50
102
RTVSPost2010PropOp50
 70
     1
102
RTVSPost2010Prop51ColorIndex
 90
      256
102
RTVSPost2010Prop51ColorRGB
 90
-16777216
102
RTVSPost2010PropOp51
 70
     0
102
RTVSPost2010Prop52
140
1.0
102
RTVSPost2010PropOp52
 70
     0
102
RTVSPost2010Prop53
 90
        2
102
RTVSPost2010PropOp53
 70
     1
102
RTVSPost2010Prop54
  1
strokes_ogs.tif
102
RTVSPost2010PropOp54
 70
     1
102
RTVSPost2010Prop55
280
     0
102
RTVSPost2010PropOp55
 70
     1
102
RTVSPost2010Prop56
140
1.0
102
RTVSPost2010PropOp56
 70
     1
102
RTVSPost2010Prop57
140
1.0
102
RTVSPost2010PropOp57
 70
     1
  0
XRECORD
  5
476
102
{ACAD_REACTORS
330
475
102
}
330
475
100
AcDbXrecord
280
     1
102
RTVSPost2010Prop28
280
     0
102
RTVSPost2010PropOp28
 70
     1
102
RTVSPost2010Prop29
280
     1
102
RTVSPost2010PropOp29
 70
     1
102
RTVSPost2010Prop30
280
     1
102
RTVSPost2010PropOp30
 70
     1
102
RTVSPost2010Prop31
280
     0
102
RTVSPost2010PropOp31
 70
     1
102
RTVSPost2010Prop32
280
     0
102
RTVSPost2010PropOp32
 70
     1
102
RTVSPost2010Prop33
280
     0
102
RTVSPost2010PropOp33
 70
     1
102
RTVSPost2010Prop34
280
     0
102
RTVSPost2010PropOp34
 70
     1
102
RTVSPost2010Prop35
280
     0
102
RTVSPost2010PropOp35
 70
     1
102
RTVSPost2010Prop36
280
     0
102
RTVSPost2010PropOp36
 70
     1
102
RTVSPost2010Prop37
 90
       50
102
RTVSPost2010PropOp37
 70
     1
102
RTVSPost2010Prop38
140
0.0
102
RTVSPost2010PropOp38
 70
     1
102
RTVSPost2010Prop39
140
1.0
102
RTVSPost2010PropOp39
 70
     1
102
RTVSPost2010Prop40
 90
        0
102
RTVSPost2010PropOp40
 70
     1
102
RTVSPost2010Prop41ColorIndex
 90
       18
102
RTVSPost2010Prop41ColorRGB
 90
        0
102
RTVSPost2010PropOp41
 70
     1
102
RTVSPost2010Prop42
 90
       50
102
RTVSPost2010PropOp42
 70
     1
102
RTVSPost2010Prop43
 90
        3
102
RTVSPost2010PropOp43
 70
     1
102
RTVSPost2010Prop44ColorIndex
 90
        5
102
RTVSPost2010Prop44ColorRGB
 90
      255
102
RTVSPost2010PropOp44
 70
     1
102
RTVSPost2010Prop45
280
     0
102
RTVSPost2010PropOp45
 70
     1
102
RTVSPost2010Prop46
 90
       50
102
RTVSPost2010PropOp46
 70
     1
102
RTVSPost2010Prop47
 90
       50
102
RTVSPost2010PropOp47
 70
     1
102
RTVSPost2010Prop48
 90
       50
102
RTVSPost2010PropOp48
 70
     1
102
RTVSPost2010Prop49
280
     0
102
RTVSPost2010PropOp49
 70
     1
102
RTVSPost2010Prop50
 90
       50
102
RTVSPost2010PropOp50
 70
     1
102
RTVSPost2010Prop51ColorIndex
 90
      256
102
RTVSPost2010Prop51ColorRGB
 90
-16777216
102
RTVSPost2010PropOp51
 70
     0
102
RTVSPost2010Prop52
140
1.0
102
RTVSPost2010PropOp52
 70
     0
102
RTVSPost2010Prop53
 90
        2
102
RTVSPost2010PropOp53
 70
     1
102
RTVSPost2010Prop54
  1
strokes_ogs.tif
102
RTVSPost2010PropOp54
 70
     1
102
RTVSPost2010Prop55
280
     0
102
RTVSPost2010PropOp55
 70
     1
102
RTVSPost2010Prop56
140
1.0
102
RTVSPost2010PropOp56
 70
     1
102
RTVSPost2010Prop57
140
1.0
102
RTVSPost2010PropOp57
 70
     1
  0
ENDSEC
  0
EOF
