  0
SECTION
  2
HEADER
  9
$ACADVER
  1
AC1024
  9
$ACADMAINTVER
 70
     6
  9
$DWGCODEPAGE
  3
ANSI_932
  9
$INSBASE
 10
0.0
 20
0.0
 30
0.0
  9
$EXTMIN
 10
-1034.569785452664
 20
-418.6663994686358
 30
0.0
  9
$EXTMAX
 10
1032.4602725811
 20
540.4879365300487
 30
0.0
  9
$LIMMIN
 10
-420.0
 20
-297.0
  9
$LIMMAX
 10
420.0
 20
297.0
  9
$ORTHOMODE
 70
     0
  9
$REGENMODE
 70
     1
  9
$FILLMODE
 70
     1
  9
$QTEXTMODE
 70
     0
  9
$MIRRTEXT
 70
     1
  9
$LTSCALE
 40
0.5
  9
$ATTMODE
 70
     1
  9
$TEXTSIZE
 40
0.2
  9
$TRACEWID
 40
0.05
  9
$TEXTSTYLE
  7
Standard
  9
$CLAYER
  8
0
  9
$CELTYPE
  6
ByLayer
  9
$CECOLOR
 62
   256
  9
$CELTSCALE
 40
1.0
  9
$DISPSILH
 70
     0
  9
$DIMSCALE
 40
1.0
  9
$DIMASZ
 40
2.999998569488525
  9
$DIMEXO
 40
1.0
  9
$DIMDLI
 40
10.0
  9
$DIMRND
 40
0.0
  9
$DIMDLE
 40
0.0
  9
$DIMEXE
 40
1.0
  9
$DIMTP
 40
0.0
  9
$DIMTM
 40
0.0
  9
$DIMTXT
 40
7.0
  9
$DIMCEN
 40
0.0
  9
$DIMTSZ
 40
0.0
  9
$DIMTOL
 70
     0
  9
$DIMLIM
 70
     0
  9
$DIMTIH
 70
     0
  9
$DIMTOH
 70
     0
  9
$DIMSE1
 70
     0
  9
$DIMSE2
 70
     0
  9
$DIMTAD
 70
     1
  9
$DIMZIN
 70
     8
  9
$DIMBLK
  1

  9
$DIMASO
 70
     1
  9
$DIMSHO
 70
     1
  9
$DIMPOST
  1

  9
$DIMAPOST
  1

  9
$DIMALT
 70
     0
  9
$DIMALTD
 70
     2
  9
$DIMALTF
 40
0.0393700787401575
  9
$DIMLFAC
 40
1.0
  9
$DIMTOFL
 70
     0
  9
$DIMTVP
 40
0.0
  9
$DIMTIX
 70
     0
  9
$DIMSOXD
 70
     0
  9
$DIMSAH
 70
     0
  9
$DIMBLK1
  1

  9
$DIMBLK2
  1

  9
$DIMSTYLE
  2
Standard
  9
$DIMCLRD
 70
     0
  9
$DIMCLRE
 70
     0
  9
$DIMCLRT
 70
     0
  9
$DIMTFAC
 40
0.65
  9
$DIMGAP
 40
0.09
  9
$DIMJUST
 70
     0
  9
$DIMSD1
 70
     0
  9
$DIMSD2
 70
     0
  9
$DIMTOLJ
 70
     0
  9
$DIMTZIN
 70
     0
  9
$DIMALTZ
 70
     0
  9
$DIMALTTZ
 70
     0
  9
$DIMUPT
 70
     0
  9
$DIMDEC
 70
     3
  9
$DIMTDEC
 70
     3
  9
$DIMALTU
 70
     2
  9
$DIMALTTD
 70
     3
  9
$DIMTXSTY
  7
Standard
  9
$DIMAUNIT
 70
     0
  9
$DIMADEC
 70
     3
  9
$DIMALTRND
 40
0.0
  9
$DIMAZIN
 70
     2
  9
$DIMDSEP
 70
    46
  9
$DIMATFIT
 70
     3
  9
$DIMFRAC
 70
     0
  9
$DIMLDRBLK
  1

  9
$DIMLUNIT
 70
     2
  9
$DIMLWD
 70
    -2
  9
$DIMLWE
 70
    -2
  9
$DIMTMOVE
 70
     0
  9
$DIMFXL
 40
1.0
  9
$DIMFXLON
 70
     0
  9
$DIMJOGANG
 40
0.7853981633974483
  9
$DIMTFILL
 70
     0
  9
$DIMTFILLCLR
 70
     0
  9
$DIMARCSYM
 70
     1
  9
$DIMLTYPE
  6

  9
$DIMLTEX1
  6

  9
$DIMLTEX2
  6

  9
$DIMTXTDIRECTION
 70
     0
  9
$LUNITS
 70
     2
  9
$LUPREC
 70
     4
  9
$SKETCHINC
 40
0.1
  9
$FILLETRAD
 40
0.5
  9
$AUNITS
 70
     0
  9
$AUPREC
 70
     0
  9
$MENU
  1
.
  9
$ELEVATION
 40
0.0
  9
$PELEVATION
 40
0.0
  9
$THICKNESS
 40
0.0
  9
$LIMCHECK
 70
     0
  9
$CHAMFERA
 40
0.0
  9
$CHAMFERB
 40
0.0
  9
$CHAMFERC
 40
0.0
  9
$CHAMFERD
 40
0.0
  9
$SKPOLY
 70
     0
  9
$TDCREATE
 40
2459923.603282384
  9
$TDUCREATE
 40
2459923.228282384
  9
$TDUPDATE
 40
2459923.603282917
  9
$TDUUPDATE
 40
2459923.228282917
  9
$TDINDWG
 40
0.0000000116
  9
$TDUSRTIMER
 40
0.0000000116
  9
$USRTIMER
 70
     1
  9
$ANGBASE
 50
0.0
  9
$ANGDIR
 70
     0
  9
$PDMODE
 70
     0
  9
$PDSIZE
 40
1.0
  9
$PLINEWID
 40
0.0
  9
$SPLFRAME
 70
     0
  9
$SPLINETYPE
 70
     6
  9
$SPLINESEGS
 70
     8
  9
$HANDSEED
  5
2F1
  9
$SURFTAB1
 70
     6
  9
$SURFTAB2
 70
     6
  9
$SURFTYPE
 70
     6
  9
$SURFU
 70
     6
  9
$SURFV
 70
     6
  9
$UCSBASE
  2

  9
$UCSNAME
  2

  9
$UCSORG
 10
0.0
 20
0.0
 30
0.0
  9
$UCSXDIR
 10
1.0
 20
0.0
 30
0.0
  9
$UCSYDIR
 10
0.0
 20
1.0
 30
0.0
  9
$UCSORTHOREF
  2

  9
$UCSORTHOVIEW
 70
     0
  9
$UCSORGTOP
 10
0.0
 20
0.0
 30
0.0
  9
$UCSORGBOTTOM
 10
0.0
 20
0.0
 30
0.0
  9
$UCSORGLEFT
 10
0.0
 20
0.0
 30
0.0
  9
$UCSORGRIGHT
 10
0.0
 20
0.0
 30
0.0
  9
$UCSORGFRONT
 10
0.0
 20
0.0
 30
0.0
  9
$UCSORGBACK
 10
0.0
 20
0.0
 30
0.0
  9
$PUCSBASE
  2

  9
$PUCSNAME
  2

  9
$PUCSORG
 10
0.0
 20
0.0
 30
0.0
  9
$PUCSXDIR
 10
1.0
 20
0.0
 30
0.0
  9
$PUCSYDIR
 10
0.0
 20
1.0
 30
0.0
  9
$PUCSORTHOREF
  2

  9
$PUCSORTHOVIEW
 70
     0
  9
$PUCSORGTOP
 10
0.0
 20
0.0
 30
0.0
  9
$PUCSORGBOTTOM
 10
0.0
 20
0.0
 30
0.0
  9
$PUCSORGLEFT
 10
0.0
 20
0.0
 30
0.0
  9
$PUCSORGRIGHT
 10
0.0
 20
0.0
 30
0.0
  9
$PUCSORGFRONT
 10
0.0
 20
0.0
 30
0.0
  9
$PUCSORGBACK
 10
0.0
 20
0.0
 30
0.0
  9
$USERI1
 70
     0
  9
$USERI2
 70
     0
  9
$USERI3
 70
     0
  9
$USERI4
 70
     0
  9
$USERI5
 70
     0
  9
$USERR1
 40
0.0
  9
$USERR2
 40
0.0
  9
$USERR3
 40
0.0
  9
$USERR4
 40
0.0
  9
$USERR5
 40
0.0
  9
$WORLDVIEW
 70
     1
  9
$SHADEDGE
 70
     3
  9
$SHADEDIF
 70
    70
  9
$TILEMODE
 70
     1
  9
$MAXACTVP
 70
    64
  9
$PINSBASE
 10
0.0
 20
0.0
 30
0.0
  9
$PLIMCHECK
 70
     0
  9
$PEXTMIN
 10
1.000000000000000E+20
 20
1.000000000000000E+20
 30
1.000000000000000E+20
  9
$PEXTMAX
 10
-1.000000000000000E+20
 20
-1.000000000000000E+20
 30
-1.000000000000000E+20
  9
$PLIMMIN
 10
0.0
 20
0.0
  9
$PLIMMAX
 10
12.0
 20
9.0
  9
$UNITMODE
 70
     0
  9
$VISRETAIN
 70
     0
  9
$PLINEGEN
 70
     1
  9
$PSLTSCALE
 70
     0
  9
$TREEDEPTH
 70
  3020
  9
$CMLSTYLE
  2
Standard
  9
$CMLJUST
 70
     0
  9
$CMLSCALE
 40
1.0
  9
$PROXYGRAPHICS
 70
     0
  9
$MEASUREMENT
 70
     1
  9
$CELWEIGHT
370
    -1
  9
$ENDCAPS
280
     0
  9
$JOINSTYLE
280
     0
  9
$LWDISPLAY
290
     1
  9
$INSUNITS
 70
     4
  9
$HYPERLINKBASE
  1

  9
$STYLESHEET
  1

  9
$XEDIT
290
     1
  9
$CEPSNTYPE
380
     0
  9
$PSTYLEMODE
290
     1
  9
$FINGERPRINTGUID
  2
{b43c8462-258a-4585-96a0-344a049ba5e5}
  9
$VERSIONGUID
  2
{FAEB1C32-E019-11D5-929B-00C0DF256EC4}
  9
$EXTNAMES
290
     1
  9
$PSVPSCALE
 40
0.0
  9
$OLESTARTUP
290
     0
  9
$SORTENTS
280
   127
  9
$INDEXCTL
280
     0
  9
$HIDETEXT
280
     1
  9
$XCLIPFRAME
280
     2
  9
$HALOGAP
280
     0
  9
$OBSCOLOR
 70
   257
  9
$OBSLTYPE
280
     0
  9
$INTERSECTIONDISPLAY
280
     0
  9
$INTERSECTIONCOLOR
 70
   257
  9
$DIMASSOC
280
     2
  9
$PROJECTNAME
  1

  9
$CAMERADISPLAY
290
     0
  9
$LENSLENGTH
 40
50.0
  9
$CAMERAHEIGHT
 40
0.0
  9
$STEPSPERSEC
 40
2.0
  9
$STEPSIZE
 40
6.0
  9
$3DDWFPREC
 40
2.0
  9
$PSOLWIDTH
 40
0.25
  9
$PSOLHEIGHT
 40
4.0
  9
$LOFTANG1
 40
1.570796326794897
  9
$LOFTANG2
 40
1.570796326794897
  9
$LOFTMAG1
 40
0.0
  9
$LOFTMAG2
 40
0.0
  9
$LOFTPARAM
 70
     7
  9
$LOFTNORMALS
280
     1
  9
$LATITUDE
 40
37.795
  9
$LONGITUDE
 40
-122.394
  9
$NORTHDIRECTION
 40
0.0
  9
$TIMEZONE
 70
 -8000
  9
$LIGHTGLYPHDISPLAY
280
     1
  9
$TILEMODELIGHTSYNCH
280
     1
  9
$CMATERIAL
347
44
  9
$SOLIDHIST
280
     0
  9
$SHOWHIST
280
     1
  9
$DWFFRAME
280
     2
  9
$DGNFRAME
280
     2
  9
$REALWORLDSCALE
290
     1
  9
$INTERFERECOLOR
 62
   256
  9
$CSHADOW
280
     0
  9
$SHADOWPLANELOCATION
 40
0.0
  0
ENDSEC
  0
SECTION
  2
CLASSES
  0
CLASS
  1
ACDBDICTIONARYWDFLT
  2
AcDbDictionaryWithDefault
  3
ObjectDBX Classes
 90
        0
 91
        3
280
     0
281
     0
  0
CLASS
  1
VISUALSTYLE
  2
AcDbVisualStyle
  3
ObjectDBX Classes
 90
     4095
 91
        3
280
     0
281
     0
  0
CLASS
  1
MATERIAL
  2
AcDbMaterial
  3
ObjectDBX Classes
 90
     1153
 91
        3
280
     0
281
     0
  0
CLASS
  1
SCALE
  2
AcDbScale
  3
ObjectDBX Classes
 90
     1153
 91
        3
280
     0
281
     0
  0
CLASS
  1
TABLESTYLE
  2
AcDbTableStyle
  3
ObjectDBX Classes
 90
     4095
 91
        3
280
     0
281
     0
  0
CLASS
  1
MLEADERSTYLE
  2
AcDbMLeaderStyle
  3
ACDB_MLEADERSTYLE_CLASS
 90
     4095
 91
        3
280
     0
281
     0
  0
CLASS
  1
SUN
  2
AcDbSun
  3
SCENEOE
 90
     1153
 91
        3
280
     0
281
     0
  0
CLASS
  1
DICTIONARYVAR
  2
AcDbDictionaryVar
  3
ObjectDBX Classes
 90
        0
 91
        3
280
     0
281
     0
  0
CLASS
  1
CELLSTYLEMAP
  2
AcDbCellStyleMap
  3
ObjectDBX Classes
 90
     1152
 91
        3
280
     0
281
     0
  0
ENDSEC
  0
SECTION
  2
TABLES
  0
TABLE
  2
VPORT
  5
8
330
0
100
AcDbSymbolTable
 70
     1
  0
VPORT
  5
29
330
8
100
AcDbSymbolTableRecord
100
AcDbViewportTableRecord
  2
*Active
 70
     0
 10
0.0
 20
0.0
 11
1.0
 21
1.0
 12
-1.054756435782
 22
71.53405412819473
 13
0.0
 23
0.0
 14
0.5
 24
0.5
 15
0.5
 25
0.5
 16
0.0
 26
0.0
 36
1.0
 17
0.0
 27
0.0
 37
0.0
 40
304.4409716206766
 41
2.308461361130897
 42
50.0
 43
0.0
 44
0.0
 50
0.0
 51
0.0
 71
     0
 72
  1000
 73
     1
 74
     1
 75
     0
 76
     0
 77
     0
 78
     0
281
     0
 65
     1
110
0.0
120
0.0
130
0.0
111
1.0
121
0.0
131
0.0
112
0.0
122
1.0
132
0.0
 79
     0
146
0.0
348
2F
 60
     3
 61
     5
292
     1
282
     1
141
0.0
142
0.0
 63
   250
361
6D
  0
ENDTAB
  0
TABLE
  2
LTYPE
  5
5
330
0
100
AcDbSymbolTable
 70
    67
  0
LTYPE
  5
14
330
5
100
AcDbSymbolTableRecord
100
AcDbLinetypeTableRecord
  2
ByBlock
 70
     0
  3

 72
    65
 73
     0
 40
0.0
  0
LTYPE
  5
15
330
5
100
AcDbSymbolTableRecord
100
AcDbLinetypeTableRecord
  2
ByLayer
 70
     0
  3

 72
    65
 73
     0
 40
0.0
  0
LTYPE
  5
16
330
5
100
AcDbSymbolTableRecord
100
AcDbLinetypeTableRecord
  2
Continuous
 70
     0
  3
Solid line
 72
    65
 73
     0
 40
0.0
  0
LTYPE
  5
6F
330
5
100
AcDbSymbolTableRecord
100
AcDbLinetypeTableRecord
  2
HIDDENX2
 70
     0
  3
Hidden (2x) ____ ____ ____ ____ ____ ____ ____ 
 72
    65
 73
     2
 40
19.05
 49
12.7
 74
     0
 49
-6.35
 74
     0
  0
LTYPE
  5
70
330
5
100
AcDbSymbolTableRecord
100
AcDbLinetypeTableRecord
  2
HIDDEN
 70
     0
  3
Hidden __ __ __ __ __ __ __ __ __ __ __ __ __ __
 72
    65
 73
     2
 40
9.524999999999999
 49
6.35
 74
     0
 49
-3.175
 74
     0
  0
LTYPE
  5
71
330
5
100
AcDbSymbolTableRecord
100
AcDbLinetypeTableRecord
  2
HIDDEN2
 70
     0
  3
Hidden (.5x) _ _ _ _ _ _ _ _ _ _ _ _ _ _ _ _ _ 
 72
    65
 73
     2
 40
4.762499999999999
 49
3.175
 74
     0
 49
-1.5875
 74
     0
  0
LTYPE
  5
72
330
5
100
AcDbSymbolTableRecord
100
AcDbLinetypeTableRecord
  2
DASHED
 70
     0
  3
Dashed __ __ __ __ __ __ __ __ __ __ __ __ __ _
 72
    65
 73
     2
 40
19.05
 49
12.7
 74
     0
 49
-6.35
 74
     0
  0
LTYPE
  5
73
330
5
100
AcDbSymbolTableRecord
100
AcDbLinetypeTableRecord
  2
DASHED2
 70
     0
  3
Dashed (.5x) _ _ _ _ _ _ _ _ _ _ _ _ _ _ _ _ _ 
 72
    65
 73
     2
 40
9.524999999999999
 49
6.35
 74
     0
 49
-3.175
 74
     0
  0
LTYPE
  5
74
330
5
100
AcDbSymbolTableRecord
100
AcDbLinetypeTableRecord
  2
DASHEDX2
 70
     0
  3
Dashed (2x) ____  ____  ____  ____  ____  ___
 72
    65
 73
     2
 40
38.09999999999999
 49
25.4
 74
     0
 49
-12.7
 74
     0
  0
LTYPE
  5
75
330
5
100
AcDbSymbolTableRecord
100
AcDbLinetypeTableRecord
  2
DOTX2
 70
     0
  3
Dot (2x) .  .  .  .  .  .  .  .  .  .  .  .  .  .
 72
    65
 73
     2
 40
12.7
 49
0.0
 74
     0
 49
-12.7
 74
     0
  0
LTYPE
  5
76
330
5
100
AcDbSymbolTableRecord
100
AcDbLinetypeTableRecord
  2
DOT
 70
     0
  3
Dot . . . . . . . . . . . . . . . . . . . . . . . .
 72
    65
 73
     2
 40
6.35
 49
0.0
 74
     0
 49
-6.35
 74
     0
  0
LTYPE
  5
77
330
5
100
AcDbSymbolTableRecord
100
AcDbLinetypeTableRecord
  2
DOT2
 70
     0
  3
Dot (.5x) ........................................
 72
    65
 73
     2
 40
3.175
 49
0.0
 74
     0
 49
-3.175
 74
     0
  0
LTYPE
  5
78
330
5
100
AcDbSymbolTableRecord
100
AcDbLinetypeTableRecord
  2
CENTERX2
 70
     0
  3
Center (2x) ________  __  ________  __  _____
 72
    65
 73
     4
 40
101.6
 49
63.5
 74
     0
 49
-12.7
 74
     0
 49
12.7
 74
     0
 49
-12.7
 74
     0
  0
LTYPE
  5
79
330
5
100
AcDbSymbolTableRecord
100
AcDbLinetypeTableRecord
  2
CENTER
 70
     0
  3
Center ____ _ ____ _ ____ _ ____ _ ____ _ ____
 72
    65
 73
     4
 40
50.8
 49
31.75
 74
     0
 49
-6.35
 74
     0
 49
6.35
 74
     0
 49
-6.35
 74
     0
  0
LTYPE
  5
7A
330
5
100
AcDbSymbolTableRecord
100
AcDbLinetypeTableRecord
  2
CENTER2
 70
     0
  3
Center (.5x) ___ _ ___ _ ___ _ ___ _ ___ _ ___
 72
    65
 73
     4
 40
28.575
 49
19.05
 74
     0
 49
-3.175
 74
     0
 49
3.175
 74
     0
 49
-3.175
 74
     0
  0
LTYPE
  5
7B
330
5
100
AcDbSymbolTableRecord
100
AcDbLinetypeTableRecord
  2
DASHDOTX2
 70
     0
  3
Dash dot (2x) ____  .  ____  .  ____  .  ___
 72
    65
 73
     4
 40
50.8
 49
25.4
 74
     0
 49
-12.7
 74
     0
 49
0.0
 74
     0
 49
-12.7
 74
     0
  0
LTYPE
  5
7C
330
5
100
AcDbSymbolTableRecord
100
AcDbLinetypeTableRecord
  2
DASHDOT
 70
     0
  3
Dash dot __ . __ . __ . __ . __ . __ . __ . __
 72
    65
 73
     4
 40
25.4
 49
12.7
 74
     0
 49
-6.35
 74
     0
 49
0.0
 74
     0
 49
-6.35
 74
     0
  0
LTYPE
  5
7D
330
5
100
AcDbSymbolTableRecord
100
AcDbLinetypeTableRecord
  2
DASHDOT2
 70
     0
  3
Dash dot (.5x) _._._._._._._._._._._._._._._.
 72
    65
 73
     4
 40
12.7
 49
6.35
 74
     0
 49
-3.175
 74
     0
 49
0.0
 74
     0
 49
-3.175
 74
     0
  0
LTYPE
  5
7E
330
5
100
AcDbSymbolTableRecord
100
AcDbLinetypeTableRecord
  2
DIVIDEX2
 70
     0
  3
Divide (2x) ________  .  .  ________  .  .  _
 72
    65
 73
     6
 40
63.5
 49
25.4
 74
     0
 49
-12.7
 74
     0
 49
0.0
 74
     0
 49
-12.7
 74
     0
 49
0.0
 74
     0
 49
-12.7
 74
     0
  0
LTYPE
  5
7F
330
5
100
AcDbSymbolTableRecord
100
AcDbLinetypeTableRecord
  2
DIVIDE
 70
     0
  3
Divide ____ . . ____ . . ____ . . ____ . . ____
 72
    65
 73
     6
 40
31.75
 49
12.7
 74
     0
 49
-6.35
 74
     0
 49
0.0
 74
     0
 49
-6.35
 74
     0
 49
0.0
 74
     0
 49
-6.35
 74
     0
  0
LTYPE
  5
80
330
5
100
AcDbSymbolTableRecord
100
AcDbLinetypeTableRecord
  2
DIVIDE2
 70
     0
  3
Divide (.5x) __..__..__..__..__..__..__..__.._
 72
    65
 73
     6
 40
15.875
 49
6.35
 74
     0
 49
-3.175
 74
     0
 49
0.0
 74
     0
 49
-3.175
 74
     0
 49
0.0
 74
     0
 49
-3.175
 74
     0
  0
LTYPE
  5
81
330
5
100
AcDbSymbolTableRecord
100
AcDbLinetypeTableRecord
  2
BORDERX2
 70
     0
  3
Border (2x) ____  ____  .  ____  ____  .  ___
 72
    65
 73
     6
 40
88.89999999999999
 49
25.4
 74
     0
 49
-12.7
 74
     0
 49
25.4
 74
     0
 49
-12.7
 74
     0
 49
0.0
 74
     0
 49
-12.7
 74
     0
  0
LTYPE
  5
82
330
5
100
AcDbSymbolTableRecord
100
AcDbLinetypeTableRecord
  2
BORDER
 70
     0
  3
Border __ __ . __ __ . __ __ . __ __ . __ __ .
 72
    65
 73
     6
 40
44.45
 49
12.7
 74
     0
 49
-6.35
 74
     0
 49
12.7
 74
     0
 49
-6.35
 74
     0
 49
0.0
 74
     0
 49
-6.35
 74
     0
  0
LTYPE
  5
83
330
5
100
AcDbSymbolTableRecord
100
AcDbLinetypeTableRecord
  2
BORDER2
 70
     0
  3
Border (.5x) __.__.__.__.__.__.__.__.__.__.__.
 72
    65
 73
     6
 40
22.225
 49
6.35
 74
     0
 49
-3.175
 74
     0
 49
6.35
 74
     0
 49
-3.175
 74
     0
 49
0.0
 74
     0
 49
-3.175
 74
     0
  0
LTYPE
  5
84
330
5
100
AcDbSymbolTableRecord
100
AcDbLinetypeTableRecord
  2
PHANTOMX2
 70
     0
  3
Phantom (2x) ____________    ____    ____   _
 72
    65
 73
     6
 40
127.0
 49
63.5
 74
     0
 49
-12.7
 74
     0
 49
12.7
 74
     0
 49
-12.7
 74
     0
 49
12.7
 74
     0
 49
-12.7
 74
     0
  0
LTYPE
  5
85
330
5
100
AcDbSymbolTableRecord
100
AcDbLinetypeTableRecord
  2
PHANTOM
 70
     0
  3
Phantom ______  __  __  ______  __  __  ______ 
 72
    65
 73
     6
 40
63.5
 49
31.75
 74
     0
 49
-6.35
 74
     0
 49
6.35
 74
     0
 49
-6.35
 74
     0
 49
6.35
 74
     0
 49
-6.35
 74
     0
  0
LTYPE
  5
86
330
5
100
AcDbSymbolTableRecord
100
AcDbLinetypeTableRecord
  2
PHANTOM2
 70
     0
  3
Phantom (.5x) ___ _ _ ___ _ _ ___ _ _ ___ _ _
 72
    65
 73
     6
 40
31.75
 49
15.875
 74
     0
 49
-3.175
 74
     0
 49
3.175
 74
     0
 49
-3.175
 74
     0
 49
3.175
 74
     0
 49
-3.175
 74
     0
  0
LTYPE
  5
87
330
5
100
AcDbSymbolTableRecord
100
AcDbLinetypeTableRecord
  2
ACAD_ISO06W100
 70
     0
  3
ISO long-dash triple-dot ____ ... ____ ... ____
 72
    65
 73
     8
 40
36.0
 49
24.0
 74
     0
 49
-3.0
 74
     0
 49
0.0
 74
     0
 49
-3.0
 74
     0
 49
0.0
 74
     0
 49
-3.0
 74
     0
 49
0.0
 74
     0
 49
-3.0
 74
     0
  0
LTYPE
  5
88
330
5
100
AcDbSymbolTableRecord
100
AcDbLinetypeTableRecord
  2
ACAD_ISO13W100
 70
     0
  3
ISO double-dash double-dot __ __ . . __ __ . . _
 72
    65
 73
     8
 40
36.0
 49
12.0
 74
     0
 49
-3.0
 74
     0
 49
12.0
 74
     0
 49
-3.0
 74
     0
 49
0.0
 74
     0
 49
-3.0
 74
     0
 49
0.0
 74
     0
 49
-3.0
 74
     0
  0
LTYPE
  5
89
330
5
100
AcDbSymbolTableRecord
100
AcDbLinetypeTableRecord
  2
ACAD_ISO14W100
 70
     0
  3
ISO dash triple-dot __ . . . __ . . . __ . . . _
 72
    65
 73
     8
 40
24.0
 49
12.0
 74
     0
 49
-3.0
 74
     0
 49
0.0
 74
     0
 49
-3.0
 74
     0
 49
0.0
 74
     0
 49
-3.0
 74
     0
 49
0.0
 74
     0
 49
-3.0
 74
     0
  0
LTYPE
  5
8A
330
5
100
AcDbSymbolTableRecord
100
AcDbLinetypeTableRecord
  2
ACAD_ISO02W100
 70
     0
  3
ISO dash __ __ __ __ __ __ __ __ __ __ __ __ __
 72
    65
 73
     2
 40
15.0
 49
12.0
 74
     0
 49
-3.0
 74
     0
  0
LTYPE
  5
8B
330
5
100
AcDbSymbolTableRecord
100
AcDbLinetypeTableRecord
  2
ACAD_ISO03W100
 70
     0
  3
ISO dash space __    __    __    __    __    __
 72
    65
 73
     2
 40
30.0
 49
12.0
 74
     0
 49
-18.0
 74
     0
  0
LTYPE
  5
8C
330
5
100
AcDbSymbolTableRecord
100
AcDbLinetypeTableRecord
  2
ACAD_ISO04W100
 70
     0
  3
ISO long-dash dot ____ . ____ . ____ . ____ . _
 72
    65
 73
     4
 40
30.0
 49
24.0
 74
     0
 49
-3.0
 74
     0
 49
0.0
 74
     0
 49
-3.0
 74
     0
  0
LTYPE
  5
8D
330
5
100
AcDbSymbolTableRecord
100
AcDbLinetypeTableRecord
  2
ACAD_ISO05W100
 70
     0
  3
ISO long-dash double-dot ____ .. ____ .. ____ . 
 72
    65
 73
     6
 40
33.0
 49
24.0
 74
     0
 49
-3.0
 74
     0
 49
0.0
 74
     0
 49
-3.0
 74
     0
 49
0.0
 74
     0
 49
-3.0
 74
     0
  0
LTYPE
  5
8E
330
5
100
AcDbSymbolTableRecord
100
AcDbLinetypeTableRecord
  2
ACAD_ISO07W100
 70
     0
  3
ISO dot . . . . . . . . . . . . . . . . . . . . 
 72
    65
 73
     2
 40
3.0
 49
0.0
 74
     0
 49
-3.0
 74
     0
  0
LTYPE
  5
8F
330
5
100
AcDbSymbolTableRecord
100
AcDbLinetypeTableRecord
  2
ACAD_ISO08W100
 70
     0
  3
ISO long-dash short-dash ____ __ ____ __ ____ _
 72
    65
 73
     4
 40
36.0
 49
24.0
 74
     0
 49
-3.0
 74
     0
 49
6.0
 74
     0
 49
-3.0
 74
     0
  0
LTYPE
  5
90
330
5
100
AcDbSymbolTableRecord
100
AcDbLinetypeTableRecord
  2
ACAD_ISO09W100
 70
     0
  3
ISO long-dash double-short-dash ____ __ __ ____
 72
    65
 73
     6
 40
45.0
 49
24.0
 74
     0
 49
-3.0
 74
     0
 49
6.0
 74
     0
 49
-3.0
 74
     0
 49
6.0
 74
     0
 49
-3.0
 74
     0
  0
LTYPE
  5
91
330
5
100
AcDbSymbolTableRecord
100
AcDbLinetypeTableRecord
  2
ACAD_ISO10W100
 70
     0
  3
ISO dash dot __ . __ . __ . __ . __ . __ . __ . 
 72
    65
 73
     4
 40
18.0
 49
12.0
 74
     0
 49
-3.0
 74
     0
 49
0.0
 74
     0
 49
-3.0
 74
     0
  0
LTYPE
  5
92
330
5
100
AcDbSymbolTableRecord
100
AcDbLinetypeTableRecord
  2
ACAD_ISO11W100
 70
     0
  3
ISO double-dash dot __ __ . __ __ . __ __ . __ _
 72
    65
 73
     6
 40
33.0
 49
12.0
 74
     0
 49
-3.0
 74
     0
 49
12.0
 74
     0
 49
-3.0
 74
     0
 49
0.0
 74
     0
 49
-3.0
 74
     0
  0
LTYPE
  5
93
330
5
100
AcDbSymbolTableRecord
100
AcDbLinetypeTableRecord
  2
ACAD_ISO12W100
 70
     0
  3
ISO dash double-dot __ . . __ . . __ . . __ . . 
 72
    65
 73
     6
 40
21.0
 49
12.0
 74
     0
 49
-3.0
 74
     0
 49
0.0
 74
     0
 49
-3.0
 74
     0
 49
0.0
 74
     0
 49
-3.0
 74
     0
  0
LTYPE
  5
94
330
5
100
AcDbSymbolTableRecord
100
AcDbLinetypeTableRecord
  2
ACAD_ISO15W100
 70
     0
  3
ISO double-dash triple-dot __ __ . . . __ __ . .
 72
    65
 73
    10
 40
39.0
 49
12.0
 74
     0
 49
-3.0
 74
     0
 49
12.0
 74
     0
 49
-3.0
 74
     0
 49
0.0
 74
     0
 49
-3.0
 74
     0
 49
0.0
 74
     0
 49
-3.0
 74
     0
 49
0.0
 74
     0
 49
-3.0
 74
     0
  0
LTYPE
  5
95
330
5
100
AcDbSymbolTableRecord
100
AcDbLinetypeTableRecord
  2
JIS_02_0.7
 70
     0
  3
HIDDEN0.75 _ _ _ _ _ _ _ _ _ _ _ _ _ _ _ _ _ 
 72
    65
 73
     2
 40
1.35
 49
0.75
 74
     0
 49
-0.6
 74
     0
  0
LTYPE
  5
96
330
5
100
AcDbSymbolTableRecord
100
AcDbLinetypeTableRecord
  2
JIS_02_1.0
 70
     0
  3
HIDDEN01 _ _ _ _ _ _ _ _ _ _ _ _ _ _ _ _ _ 
 72
    65
 73
     2
 40
2.0
 49
1.0
 74
     0
 49
-1.0
 74
     0
  0
LTYPE
  5
97
330
5
100
AcDbSymbolTableRecord
100
AcDbLinetypeTableRecord
  2
JIS_02_1.2
 70
     0
  3
HIDDEN01.25  _ _ _ _ _ _ _ _ _ _ _ _ _ _ _ _ _ 
 72
    65
 73
     2
 40
2.5
 49
1.25
 74
     0
 49
-1.25
 74
     0
  0
LTYPE
  5
98
330
5
100
AcDbSymbolTableRecord
100
AcDbLinetypeTableRecord
  2
JIS_02_2.0
 70
     0
  3
HIDDEN02 __ __ __ __ __ __ __ __ __ __ __ 
 72
    65
 73
     2
 40
3.0
 49
2.0
 74
     0
 49
-1.0
 74
     0
  0
LTYPE
  5
99
330
5
100
AcDbSymbolTableRecord
100
AcDbLinetypeTableRecord
  2
JIS_02_4.0
 70
     0
  3
HIDDEN04 ____ ____ ____ ____ ____ ____ ____ 
 72
    65
 73
     2
 40
5.5
 49
4.0
 74
     0
 49
-1.5
 74
     0
  0
LTYPE
  5
9A
330
5
100
AcDbSymbolTableRecord
100
AcDbLinetypeTableRecord
  2
JIS_08_11
 70
     0
  3
1SASEN11 ___ _ ___ _ ___ _ ___ _ ___ _ ___
 72
    65
 73
     4
 40
12.8
 49
11.0
 74
     0
 49
-0.6
 74
     0
 49
0.6
 74
     0
 49
-0.6
 74
     0
  0
LTYPE
  5
9B
330
5
100
AcDbSymbolTableRecord
100
AcDbLinetypeTableRecord
  2
JIS_08_15
 70
     0
  3
1SASEN15 ____ _ ____ _ ____ _ ____ _ ____ 
 72
    65
 73
     4
 40
17.25
 49
15.0
 74
     0
 49
-0.75
 74
     0
 49
0.75
 74
     0
 49
-0.75
 74
     0
  0
LTYPE
  5
9C
330
5
100
AcDbSymbolTableRecord
100
AcDbLinetypeTableRecord
  2
JIS_08_25
 70
     0
  3
1SASEN25 ________  __  ________  __  _____
 72
    65
 73
     4
 40
28.0
 49
25.0
 74
     0
 49
-1.125
 74
     0
 49
0.75
 74
     0
 49
-1.125
 74
     0
  0
LTYPE
  5
9D
330
5
100
AcDbSymbolTableRecord
100
AcDbLinetypeTableRecord
  2
JIS_08_37
 70
     0
  3
1SASEN37 ________  __  ________  __  _____
 72
    65
 73
     4
 40
40.5
 49
37.5
 74
     0
 49
-1.125
 74
     0
 49
0.75
 74
     0
 49
-1.125
 74
     0
  0
LTYPE
  5
9E
330
5
100
AcDbSymbolTableRecord
100
AcDbLinetypeTableRecord
  2
JIS_08_50
 70
     0
  3
1SASEN50 _______________  __  ____________
 72
    65
 73
     4
 40
53.0
 49
50.0
 74
     0
 49
-1.125
 74
     0
 49
0.75
 74
     0
 49
-1.125
 74
     0
  0
LTYPE
  5
9F
330
5
100
AcDbSymbolTableRecord
100
AcDbLinetypeTableRecord
  2
JIS_09_08
 70
     0
  3
2SASEN8 __ _ _ __ _ _ __ _ _ __ _ _ __ _ _ 
 72
    65
 73
     6
 40
10.75
 49
8.0
 74
     0
 49
-0.55
 74
     0
 49
0.55
 74
     0
 49
-0.55
 74
     0
 49
0.55
 74
     0
 49
-0.55
 74
     0
  0
LTYPE
  5
A0
330
5
100
AcDbSymbolTableRecord
100
AcDbLinetypeTableRecord
  2
JIS_09_15
 70
     0
  3
2SASEN15 ___ _ _ ___ _ _ ___ _ _ ___ _ _ ___ 
 72
    65
 73
     6
 40
18.9
 49
15.0
 74
     0
 49
-0.9
 74
     0
 49
0.6
 74
     0
 49
-0.9
 74
     0
 49
0.6
 74
     0
 49
-0.9
 74
     0
  0
LTYPE
  5
A1
330
5
100
AcDbSymbolTableRecord
100
AcDbLinetypeTableRecord
  2
JIS_09_29
 70
     0
  3
2SASEN29 ______　__  __  ______　__  __  ___
 72
    65
 73
     6
 40
34.0
 49
29.0
 74
     0
 49
-1.2
 74
     0
 49
0.7
 74
     0
 49
-1.2
 74
     0
 49
0.7
 74
     0
 49
-1.2
 74
     0
  0
LTYPE
  5
A2
330
5
100
AcDbSymbolTableRecord
100
AcDbLinetypeTableRecord
  2
JIS_09_50
 70
     0
  3
2SASEN50 ____________　__  __  _____________
 72
    65
 73
     6
 40
55.0
 49
50.0
 74
     0
 49
-1.2
 74
     0
 49
0.7
 74
     0
 49
-1.2
 74
     0
 49
0.7
 74
     0
 49
-1.2
 74
     0
  0
LTYPE
  5
A3
330
5
100
AcDbSymbolTableRecord
100
AcDbLinetypeTableRecord
  2
SXF_破線
 70
     0
  3
02 dashed -- -- -- -- -- --
 72
    65
 73
     2
 40
7.5
 49
6.0
 74
     0
 49
-1.5
 74
     0
  0
LTYPE
  5
A4
330
5
100
AcDbSymbolTableRecord
100
AcDbLinetypeTableRecord
  2
SXF_跳び破線
 70
     0
  3
03 dashed_spaced --  --  --  --
 72
    65
 73
     2
 40
12.0
 49
6.0
 74
     0
 49
-6.0
 74
     0
  0
LTYPE
  5
A5
330
5
100
AcDbSymbolTableRecord
100
AcDbLinetypeTableRecord
  2
SXF_一点長鎖線
 70
     0
  3
04 long_dashed_dotted ---- . ---- . ----
 72
    65
 73
     4
 40
15.25
 49
12.0
 74
     0
 49
-1.5
 74
     0
 49
0.25
 74
     0
 49
-1.5
 74
     0
  0
LTYPE
  5
A6
330
5
100
AcDbSymbolTableRecord
100
AcDbLinetypeTableRecord
  2
SXF_二点長鎖線
 70
     0
  3
05 long_dashed_double-dotted ---- . . ---- 
 72
    65
 73
     6
 40
17.0
 49
12.0
 74
     0
 49
-1.5
 74
     0
 49
0.25
 74
     0
 49
-1.5
 74
     0
 49
0.25
 74
     0
 49
-1.5
 74
     0
  0
LTYPE
  5
A7
330
5
100
AcDbSymbolTableRecord
100
AcDbLinetypeTableRecord
  2
SXF_三点長鎖線
 70
     0
  3
06 long_dashed_triplicate-dotted ---- ... ---- 
 72
    65
 73
     8
 40
18.75
 49
12.0
 74
     0
 49
-1.5
 74
     0
 49
0.25
 74
     0
 49
-1.5
 74
     0
 49
0.25
 74
     0
 49
-1.5
 74
     0
 49
0.25
 74
     0
 49
-1.5
 74
     0
  0
LTYPE
  5
A8
330
5
100
AcDbSymbolTableRecord
100
AcDbLinetypeTableRecord
  2
SXF_点線
 70
     0
  3
07 dotted . . . . . . . . . . . . 
 72
    65
 73
     2
 40
1.75
 49
0.25
 74
     0
 49
-1.5
 74
     0
  0
LTYPE
  5
A9
330
5
100
AcDbSymbolTableRecord
100
AcDbLinetypeTableRecord
  2
SXF_一点鎖線
 70
     0
  3
08 chain ---- - --- - --- - ---
 72
    65
 73
     4
 40
18.5
 49
12.0
 74
     0
 49
-1.5
 74
     0
 49
3.5
 74
     0
 49
-1.5
 74
     0
  0
LTYPE
  5
AA
330
5
100
AcDbSymbolTableRecord
100
AcDbLinetypeTableRecord
  2
SXF_二点鎖線
 70
     0
  3
09 chain_double_dash ---- - - ---- - - ----
 72
    65
 73
     6
 40
23.5
 49
12.0
 74
     0
 49
-1.5
 74
     0
 49
3.5
 74
     0
 49
-1.5
 74
     0
 49
3.5
 74
     0
 49
-1.5
 74
     0
  0
LTYPE
  5
AB
330
5
100
AcDbSymbolTableRecord
100
AcDbLinetypeTableRecord
  2
SXF_一点短鎖線
 70
     0
  3
10 dashed_dotted -- . -- . -- . --
 72
    65
 73
     4
 40
9.25
 49
6.0
 74
     0
 49
-1.5
 74
     0
 49
0.25
 74
     0
 49
-1.5
 74
     0
  0
LTYPE
  5
AC
330
5
100
AcDbSymbolTableRecord
100
AcDbLinetypeTableRecord
  2
SXF_一点二短鎖線
 70
     0
  3
11 double-dashed_dotted -- -- . -- --
 72
    65
 73
     6
 40
16.75
 49
6.0
 74
     0
 49
-1.5
 74
     0
 49
6.0
 74
     0
 49
-1.5
 74
     0
 49
0.25
 74
     0
 49
-1.5
 74
     0
  0
LTYPE
  5
AD
330
5
100
AcDbSymbolTableRecord
100
AcDbLinetypeTableRecord
  2
SXF_二点短鎖線
 70
     0
  3
12 dashed_double_dotted -- . . -- . . --
 72
    65
 73
     6
 40
11.0
 49
6.0
 74
     0
 49
-1.5
 74
     0
 49
0.25
 74
     0
 49
-1.5
 74
     0
 49
0.25
 74
     0
 49
-1.5
 74
     0
  0
LTYPE
  5
AE
330
5
100
AcDbSymbolTableRecord
100
AcDbLinetypeTableRecord
  2
SXF_二点二短鎖線
 70
     0
  3
13 double-dashed_double-dotted -- -- . . -- --
 72
    65
 73
     8
 40
18.5
 49
6.0
 74
     0
 49
-1.5
 74
     0
 49
6.0
 74
     0
 49
-1.5
 74
     0
 49
0.25
 74
     0
 49
-1.5
 74
     0
 49
0.25
 74
     0
 49
-1.5
 74
     0
  0
LTYPE
  5
AF
330
5
100
AcDbSymbolTableRecord
100
AcDbLinetypeTableRecord
  2
SXF_三点短鎖線
 70
     0
  3
14 dashed triplicate-dotted -- . . . -- . . . --
 72
    65
 73
     8
 40
12.75
 49
6.0
 74
     0
 49
-1.5
 74
     0
 49
0.25
 74
     0
 49
-1.5
 74
     0
 49
0.25
 74
     0
 49
-1.5
 74
     0
 49
0.25
 74
     0
 49
-1.5
 74
     0
  0
LTYPE
  5
B0
330
5
100
AcDbSymbolTableRecord
100
AcDbLinetypeTableRecord
  2
SXF_三点二短鎖線
 70
     0
  3
15 double-dashed triplicate-dotted -- -- . . . -- -- 
 72
    65
 73
    10
 40
20.25
 49
6.0
 74
     0
 49
-1.5
 74
     0
 49
6.0
 74
     0
 49
-1.5
 74
     0
 49
0.25
 74
     0
 49
-1.5
 74
     0
 49
0.25
 74
     0
 49
-1.5
 74
     0
 49
0.25
 74
     0
 49
-1.5
 74
     0
  0
ENDTAB
  0
TABLE
  2
LAYER
  5
2
330
0
100
AcDbSymbolTable
 70
     1
  0
LAYER
  5
10
330
2
100
AcDbSymbolTableRecord
100
AcDbLayerTableRecord
  2
0
 70
     0
 62
     7
  6
Continuous
370
    -3
390
F
347
46
  0
ENDTAB
  0
TABLE
  2
STYLE
  5
3
330
0
100
AcDbSymbolTable
 70
     1
  0
STYLE
  5
11
330
3
100
AcDbSymbolTableRecord
100
AcDbTextStyleTableRecord
  2
Standard
 70
     0
 40
0.0
 41
1.0
 50
0.0
 71
     0
 42
0.2
  3
txt.shx
  4
bigfont.shx
  0
ENDTAB
  0
TABLE
  2
VIEW
  5
6
330
0
100
AcDbSymbolTable
 70
     0
  0
ENDTAB
  0
TABLE
  2
UCS
  5
7
330
0
100
AcDbSymbolTable
 70
     0
  0
ENDTAB
  0
TABLE
  2
APPID
  5
9
330
0
100
AcDbSymbolTable
 70
     2
  0
APPID
  5
12
330
9
100
AcDbSymbolTableRecord
100
AcDbRegAppTableRecord
  2
ACAD
 70
     0
  0
APPID
  5
6E
330
9
100
AcDbSymbolTableRecord
100
AcDbRegAppTableRecord
  2
DaFusionOut
 70
     0
  0
ENDTAB
  0
TABLE
  2
DIMSTYLE
  5
A
330
0
100
AcDbSymbolTable
 70
     1
100
AcDbDimStyleTable
  0
DIMSTYLE
105
27
330
A
100
AcDbSymbolTableRecord
100
AcDbDimStyleTableRecord
  2
Standard
 70
     0
178
     0
340
11
  0
ENDTAB
  0
TABLE
  2
BLOCK_RECORD
  5
1
330
0
100
AcDbSymbolTable
 70
    10
  0
BLOCK_RECORD
  5
1F
330
1
100
AcDbSymbolTableRecord
100
AcDbBlockTableRecord
  2
*Model_Space
340
22
 70
     0
280
     1
281
     0
  0
BLOCK_RECORD
  5
1B
330
1
100
AcDbSymbolTableRecord
100
AcDbBlockTableRecord
  2
*Paper_Space
340
1E
 70
     0
280
     1
281
     0
  0
BLOCK_RECORD
  5
23
330
1
100
AcDbSymbolTableRecord
100
AcDbBlockTableRecord
  2
*Paper_Space0
340
26
 70
     0
280
     1
281
     0
  0
BLOCK_RECORD
  5
B2
330
1
100
AcDbSymbolTableRecord
100
AcDbBlockTableRecord
  2
DC_GROUP_DMB-80_1
340
0
102
{BLKREFS
331
2AF
102
}
 70
     0
280
     1
281
     0
  0
BLOCK_RECORD
  5
B5
330
1
100
AcDbSymbolTableRecord
100
AcDbBlockTableRecord
  2
DC_GROUP_DMB-80_2
340
0
102
{BLKREFS
331
2B0
102
}
 70
     0
280
     1
281
     0
  0
BLOCK_RECORD
  5
B8
330
1
100
AcDbSymbolTableRecord
100
AcDbBlockTableRecord
  2
DC_GROUP_DMB-80_3
340
0
102
{BLKREFS
331
2B1
102
}
 70
     0
280
     1
281
     0
  0
BLOCK_RECORD
  5
BB
330
1
100
AcDbSymbolTableRecord
100
AcDbBlockTableRecord
  2
DC_GROUP_DMB-80_4
340
0
102
{BLKREFS
331
2B2
102
}
 70
     0
280
     1
281
     0
  0
BLOCK_RECORD
  5
BE
330
1
100
AcDbSymbolTableRecord
100
AcDbBlockTableRecord
  2
DC_GROUP_DMB-80_5
340
0
102
{BLKREFS
331
2B3
102
}
 70
     0
280
     1
281
     0
  0
BLOCK_RECORD
  5
C1
330
1
100
AcDbSymbolTableRecord
100
AcDbBlockTableRecord
  2
DC_GROUP_DMB-80_6
340
0
102
{BLKREFS
331
2B4
102
}
 70
     0
280
     1
281
     0
  0
BLOCK_RECORD
  5
C4
330
1
100
AcDbSymbolTableRecord
100
AcDbBlockTableRecord
  2
DC_GROUP_DMB-80_7
340
0
102
{BLKREFS
331
2B5
102
}
 70
     0
280
     1
281
     0
  0
BLOCK_RECORD
  5
C7
330
1
100
AcDbSymbolTableRecord
100
AcDbBlockTableRecord
  2
DC_GROUP_DMB-80_8
340
0
102
{BLKREFS
331
2B6
102
}
 70
     0
280
     1
281
     0
  0
BLOCK_RECORD
  5
CA
330
1
100
AcDbSymbolTableRecord
100
AcDbBlockTableRecord
  2
DC_GROUP_DMB-80_9
340
0
102
{BLKREFS
331
2B7
102
}
 70
     0
280
     1
281
     0
  0
ENDTAB
  0
ENDSEC
  0
SECTION
  2
BLOCKS
  0
BLOCK
  5
20
330
1F
100
AcDbEntity
  8
0
100
AcDbBlockBegin
  2
*Model_Space
 70
     0
 10
0.0
 20
0.0
 30
0.0
  3
*Model_Space
  1

  0
ENDBLK
  5
21
330
1F
100
AcDbEntity
  8
0
100
AcDbBlockEnd
  0
BLOCK
  5
1C
330
1B
100
AcDbEntity
 67
     1
  8
0
100
AcDbBlockBegin
  2
*Paper_Space
 70
     0
 10
0.0
 20
0.0
 30
0.0
  3
*Paper_Space
  1

  0
ENDBLK
  5
1D
330
1B
100
AcDbEntity
 67
     1
  8
0
100
AcDbBlockEnd
  0
BLOCK
  5
24
330
23
100
AcDbEntity
  8
0
100
AcDbBlockBegin
  2
*Paper_Space0
 70
     0
 10
0.0
 20
0.0
 30
0.0
  3
*Paper_Space0
  1

  0
ENDBLK
  5
25
330
23
100
AcDbEntity
  8
0
100
AcDbBlockEnd
  0
BLOCK
  5
B3
330
B2
100
AcDbEntity
  8
0
100
AcDbBlockBegin
  2
DC_GROUP_DMB-80_1
 70
     0
 10
0.0
 20
0.0
 30
0.0
  3
DC_GROUP_DMB-80_1
  1

  0
CIRCLE
  5
CD
330
B2
100
AcDbEntity
  8
0
  6
Continuous
 62
    91
370
    25
100
AcDbCircle
 10
226.573783930375
 20
89.74828746907428
 30
0.0
 40
8.499999999999972
  0
LINE
  5
CE
330
B2
100
AcDbEntity
  8
0
  6
Continuous
 62
    91
370
    25
100
AcDbLine
 10
236.3887385065987
 20
89.74828746907428
 30
0.0
 11
231.4812612184868
 21
98.24828746907426
 31
0.0
  0
LINE
  5
CF
330
B2
100
AcDbEntity
  8
0
  6
Continuous
 62
    91
370
    25
100
AcDbLine
 10
231.4812612184868
 20
98.24828746907426
 30
0.0
 11
221.6663066422632
 21
98.24828746907426
 31
0.0
  0
LINE
  5
D0
330
B2
100
AcDbEntity
  8
0
  6
Continuous
 62
    91
370
    25
100
AcDbLine
 10
221.6663066422632
 20
98.24828746907426
 30
0.0
 11
216.7588293541514
 21
89.74828746907428
 31
0.0
  0
LINE
  5
D1
330
B2
100
AcDbEntity
  8
0
  6
Continuous
 62
    91
370
    25
100
AcDbLine
 10
216.7588293541514
 20
89.74828746907428
 30
0.0
 11
221.6663066422632
 21
81.24828746907428
 31
0.0
  0
LINE
  5
D2
330
B2
100
AcDbEntity
  8
0
  6
Continuous
 62
    91
370
    25
100
AcDbLine
 10
221.6663066422632
 20
81.24828746907428
 30
0.0
 11
231.4812612184868
 21
81.24828746907428
 31
0.0
  0
LINE
  5
D3
330
B2
100
AcDbEntity
  8
0
  6
Continuous
 62
    91
370
    25
100
AcDbLine
 10
231.4812612184868
 20
81.24828746907428
 30
0.0
 11
236.3887385065987
 21
89.74828746907428
 31
0.0
  0
CIRCLE
  5
D4
330
B2
100
AcDbEntity
  8
0
  6
Continuous
 62
    91
370
    25
100
AcDbCircle
 10
226.573783930375
 20
89.74828746907428
 30
0.0
 40
4.187999999999988
  0
CIRCLE
  5
D5
330
B2
100
AcDbEntity
  8
0
  6
Continuous
 62
    91
370
    25
100
AcDbCircle
 10
226.573783930375
 20
89.74828746907428
 30
0.0
 40
9.199999999999989
  0
CIRCLE
  5
D6
330
B2
100
AcDbEntity
  8
0
  6
Continuous
 62
     4
370
    13
100
AcDbCircle
 10
226.573783930375
 20
89.74828746907428
 30
0.0
 40
5.0
  0
ENDBLK
  5
B4
330
B2
100
AcDbEntity
  8
0
100
AcDbBlockEnd
  0
BLOCK
  5
B6
330
B5
100
AcDbEntity
  8
0
100
AcDbBlockBegin
  2
DC_GROUP_DMB-80_2
 70
     0
 10
0.0
 20
0.0
 30
0.0
  3
DC_GROUP_DMB-80_2
  1

  0
CIRCLE
  5
D7
330
B5
100
AcDbEntity
  8
0
  6
Continuous
 62
    91
370
    25
100
AcDbCircle
 10
187.3861344091318
 20
21.87328746907238
 30
0.0
 40
8.49999999999997
  0
LINE
  5
D8
330
B5
100
AcDbEntity
  8
0
  6
Continuous
 62
    91
370
    25
100
AcDbLine
 10
182.47865712102
 20
30.37328746907241
 30
0.0
 11
177.5711798329082
 21
21.87328746907241
 31
0.0
  0
LINE
  5
D9
330
B5
100
AcDbEntity
  8
0
  6
Continuous
 62
    91
370
    25
100
AcDbLine
 10
177.5711798329082
 20
21.87328746907241
 30
0.0
 11
182.47865712102
 21
13.37328746907241
 31
0.0
  0
LINE
  5
DA
330
B5
100
AcDbEntity
  8
0
  6
Continuous
 62
    91
370
    25
100
AcDbLine
 10
182.47865712102
 20
13.37328746907241
 30
0.0
 11
192.2936116972436
 21
13.37328746907238
 31
0.0
  0
LINE
  5
DB
330
B5
100
AcDbEntity
  8
0
  6
Continuous
 62
    91
370
    25
100
AcDbLine
 10
192.2936116972436
 20
13.37328746907238
 30
0.0
 11
197.2010889853555
 21
21.87328746907241
 31
0.0
  0
LINE
  5
DC
330
B5
100
AcDbEntity
  8
0
  6
Continuous
 62
    91
370
    25
100
AcDbLine
 10
197.2010889853555
 20
21.87328746907241
 30
0.0
 11
192.2936116972436
 21
30.37328746907238
 31
0.0
  0
LINE
  5
DD
330
B5
100
AcDbEntity
  8
0
  6
Continuous
 62
    91
370
    25
100
AcDbLine
 10
192.2936116972436
 20
30.37328746907238
 30
0.0
 11
182.47865712102
 21
30.37328746907241
 31
0.0
  0
CIRCLE
  5
DE
330
B5
100
AcDbEntity
  8
0
  6
Continuous
 62
    91
370
    25
100
AcDbCircle
 10
187.3861344091318
 20
21.87328746907238
 30
0.0
 40
4.187999999999987
  0
CIRCLE
  5
DF
330
B5
100
AcDbEntity
  8
0
  6
Continuous
 62
    91
370
    25
100
AcDbCircle
 10
187.3861344091318
 20
21.87328746907238
 30
0.0
 40
9.199999999999987
  0
CIRCLE
  5
E0
330
B5
100
AcDbEntity
  8
0
  6
Continuous
 62
     4
370
    13
100
AcDbCircle
 10
187.3861344091318
 20
21.87328746907238
 30
0.0
 40
4.999999999999999
  0
ENDBLK
  5
B7
330
B5
100
AcDbEntity
  8
0
100
AcDbBlockEnd
  0
BLOCK
  5
B9
330
B8
100
AcDbEntity
  8
0
100
AcDbBlockBegin
  2
DC_GROUP_DMB-80_3
 70
     0
 10
0.0
 20
0.0
 30
0.0
  3
DC_GROUP_DMB-80_3
  1

  0
CIRCLE
  5
E1
330
B8
100
AcDbEntity
  8
0
  6
Continuous
 62
    91
370
    25
100
AcDbCircle
 10
265.7614334516238
 20
21.87328746907565
 30
0.0
 40
8.499999999999968
  0
LINE
  5
E2
330
B8
100
AcDbEntity
  8
0
  6
Continuous
 62
    91
370
    25
100
AcDbLine
 10
260.853956163512
 20
13.37328746907559
 30
0.0
 11
270.6689107397356
 21
13.37328746907565
 31
0.0
  0
LINE
  5
E3
330
B8
100
AcDbEntity
  8
0
  6
Continuous
 62
    91
370
    25
100
AcDbLine
 10
270.6689107397356
 20
13.37328746907565
 30
0.0
 11
275.5763880278474
 21
21.87328746907562
 31
0.0
  0
LINE
  5
E4
330
B8
100
AcDbEntity
  8
0
  6
Continuous
 62
    91
370
    25
100
AcDbLine
 10
275.5763880278474
 20
21.87328746907562
 30
0.0
 11
270.6689107397356
 21
30.37328746907565
 31
0.0
  0
LINE
  5
E5
330
B8
100
AcDbEntity
  8
0
  6
Continuous
 62
    91
370
    25
100
AcDbLine
 10
270.6689107397356
 20
30.37328746907565
 30
0.0
 11
260.853956163512
 21
30.37328746907559
 31
0.0
  0
LINE
  5
E6
330
B8
100
AcDbEntity
  8
0
  6
Continuous
 62
    91
370
    25
100
AcDbLine
 10
260.853956163512
 20
30.37328746907559
 30
0.0
 11
255.9464788754002
 21
21.87328746907565
 31
0.0
  0
LINE
  5
E7
330
B8
100
AcDbEntity
  8
0
  6
Continuous
 62
    91
370
    25
100
AcDbLine
 10
255.9464788754002
 20
21.87328746907565
 30
0.0
 11
260.853956163512
 21
13.37328746907559
 31
0.0
  0
CIRCLE
  5
E8
330
B8
100
AcDbEntity
  8
0
  6
Continuous
 62
    91
370
    25
100
AcDbCircle
 10
265.7614334516238
 20
21.87328746907565
 30
0.0
 40
4.187999999999986
  0
CIRCLE
  5
E9
330
B8
100
AcDbEntity
  8
0
  6
Continuous
 62
    91
370
    25
100
AcDbCircle
 10
265.7614334516238
 20
21.87328746907565
 30
0.0
 40
9.199999999999985
  0
CIRCLE
  5
EA
330
B8
100
AcDbEntity
  8
0
  6
Continuous
 62
     4
370
    13
100
AcDbCircle
 10
265.7614334516238
 20
21.87328746907565
 30
0.0
 40
4.999999999999998
  0
ENDBLK
  5
BA
330
B8
100
AcDbEntity
  8
0
100
AcDbBlockEnd
  0
BLOCK
  5
BC
330
BB
100
AcDbEntity
  8
0
100
AcDbBlockBegin
  2
DC_GROUP_DMB-80_4
 70
     0
 10
0.0
 20
0.0
 30
0.0
  3
DC_GROUP_DMB-80_4
  1

  0
LINE
  5
EB
330
BB
100
AcDbEntity
  8
0
  6
Continuous
 62
    91
370
    18
100
AcDbLine
 10
29.45028278596646
 20
0.248286038562469
 30
0.0
 11
29.45028278596647
 21
24.99828746907395
 31
0.0
  0
LINE
  5
EC
330
BB
100
AcDbEntity
  8
0
  6
Continuous
 62
    91
370
    18
100
AcDbLine
 10
36.09728278596647
 20
0.248286038562469
 30
0.0
 11
36.09728278596648
 21
24.99828746907395
 31
0.0
  0
LINE
  5
ED
330
BB
100
AcDbEntity
  8
0
  6
Continuous
 62
     4
370
    13
100
AcDbLine
 10
28.77378278596647
 20
0.248286038562469
 30
0.0
 11
28.77378278596647
 21
24.99828746907395
 31
0.0
  0
LINE
  5
EE
330
BB
100
AcDbEntity
  8
0
  6
Continuous
 62
     4
370
    13
100
AcDbLine
 10
36.77378278596647
 20
0.248286038562469
 30
0.0
 11
36.77378278596647
 21
24.99828746907395
 31
0.0
  0
ENDBLK
  5
BD
330
BB
100
AcDbEntity
  8
0
100
AcDbBlockEnd
  0
BLOCK
  5
BF
330
BE
100
AcDbEntity
  8
0
100
AcDbBlockBegin
  2
DC_GROUP_DMB-80_5
 70
     0
 10
0.0
 20
0.0
 30
0.0
  3
DC_GROUP_DMB-80_5
  1

  0
LINE
  5
EF
330
BE
100
AcDbEntity
  8
0
  6
Continuous
 62
    91
370
    25
100
AcDbLine
 10
36.77378278596647
 20
0.3882874690739513
 30
0.0
 11
36.09728278596647
 21
-0.0017125309260493
 31
0.0
  0
LINE
  5
F0
330
BE
100
AcDbEntity
  8
0
  6
Continuous
 62
    91
370
    25
100
AcDbLine
 10
28.77378278596647
 20
0.3882874690739513
 30
0.0
 11
29.45028278596647
 21
-0.0017125309260493
 31
0.0
  0
LINE
  5
F1
330
BE
100
AcDbEntity
  8
0
  6
Continuous
 62
    91
370
    25
100
AcDbLine
 10
36.09728278596647
 20
-0.0017125309260493
 30
0.0
 11
29.45028278596647
 21
-0.0017125309260493
 31
0.0
  0
LINE
  5
F2
330
BE
100
AcDbEntity
  8
0
  6
Continuous
 62
    91
370
    25
100
AcDbLine
 10
36.77378278596647
 20
0.3882874690739513
 30
0.0
 11
36.77378278596647
 21
23.74828746907395
 31
0.0
  0
LINE
  5
F3
330
BE
100
AcDbEntity
  8
0
  6
Continuous
 62
    91
370
    25
100
AcDbLine
 10
36.77378278596647
 20
23.74828746907395
 30
0.0
 11
28.77378278596647
 21
23.74828746907395
 31
0.0
  0
LINE
  5
F4
330
BE
100
AcDbEntity
  8
0
  6
Continuous
 62
    91
370
    25
100
AcDbLine
 10
28.77378278596647
 20
23.74828746907395
 30
0.0
 11
28.77378278596647
 21
0.3882874690739513
 31
0.0
  0
LINE
  5
F5
330
BE
100
AcDbEntity
  8
0
  6
Continuous
 62
    91
370
    25
100
AcDbLine
 10
28.77378278596647
 20
0.3882874690739513
 30
0.0
 11
36.77378278596647
 21
0.3882874690739513
 31
0.0
  0
LINE
  5
F6
330
BE
100
AcDbEntity
  8
0
  6
Continuous
 62
    91
370
    25
100
AcDbLine
 10
36.77378278596647
 20
23.74828746907395
 30
0.0
 11
35.52378278596647
 21
24.99828746907395
 31
0.0
  0
LINE
  5
F7
330
BE
100
AcDbEntity
  8
0
  6
Continuous
 62
    91
370
    25
100
AcDbLine
 10
28.77378278596647
 20
23.74828746907395
 30
0.0
 11
30.02378278596647
 21
24.99828746907395
 31
0.0
  0
LINE
  5
F8
330
BE
100
AcDbEntity
  8
0
  6
Continuous
 62
    91
370
    25
100
AcDbLine
 10
35.52378278596647
 20
24.99828746907395
 30
0.0
 11
30.02378278596647
 21
24.99828746907395
 31
0.0
  0
LINE
  5
F9
330
BE
100
AcDbEntity
  8
0
  6
Continuous
 62
     4
370
    25
100
AcDbLine
 10
36.09728278596647
 20
-0.0017125309260493
 30
0.0
 11
36.09728278596647
 21
24.42478746907395
 31
0.0
  0
LINE
  5
FA
330
BE
100
AcDbEntity
  8
0
  6
Continuous
 62
     4
370
    25
100
AcDbLine
 10
29.45028278596647
 20
-0.0017125309260493
 30
0.0
 11
29.45028278596647
 21
24.42478746907395
 31
0.0
  0
ENDBLK
  5
C0
330
BE
100
AcDbEntity
  8
0
100
AcDbBlockEnd
  0
BLOCK
  5
C2
330
C1
100
AcDbEntity
  8
0
100
AcDbBlockBegin
  2
DC_GROUP_DMB-80_6
 70
     0
 10
0.0
 20
0.0
 30
0.0
  3
DC_GROUP_DMB-80_6
  1

  0
LINE
  5
FB
330
C1
100
AcDbEntity
  8
0
  6
DASHED2
 62
    91
370
    18
100
AcDbLine
 10
189.913915359053
 20
69.50151863426765
 30
0.0
 11
214.6813550083548
 21
55.2020314091472
 31
0.0
  0
LINE
  5
FC
330
C1
100
AcDbEntity
  8
0
  6
DASHED2
 62
    91
370
    18
100
AcDbLine
 10
186.5904154851776
 20
63.74504770249439
 30
0.0
 11
211.3578551162325
 21
49.44556048790884
 31
0.0
  0
LINE
  5
FD
330
C1
100
AcDbEntity
  8
0
  6
DASHED2
 62
     4
370
    13
100
AcDbLine
 10
190.2521653462166
 20
70.08738482733892
 30
0.0
 11
215.1573758556636
 21
55.70835556305192
 31
0.0
  0
LINE
  5
FE
330
C1
100
AcDbEntity
  8
0
  6
DASHED2
 62
     4
370
    13
100
AcDbLine
 10
186.2521654980141
 20
63.15918150942312
 30
0.0
 11
211.1573759852743
 21
48.78015225794562
 31
0.0
  0
ENDBLK
  5
C3
330
C1
100
AcDbEntity
  8
0
100
AcDbBlockEnd
  0
BLOCK
  5
C5
330
C4
100
AcDbEntity
  8
0
100
AcDbBlockBegin
  2
DC_GROUP_DMB-80_7
 70
     0
 10
0.0
 20
0.0
 30
0.0
  3
DC_GROUP_DMB-80_7
  1

  0
LINE
  5
FF
330
C4
100
AcDbEntity
  8
0
  6
DASHED2
 62
    91
370
    18
100
AcDbLine
 10
229.8972839303769
 20
24.99828746907411
 30
0.0
 11
229.8972839303769
 21
0.2482860385626324
 31
0.0
  0
LINE
  5
100
330
C4
100
AcDbEntity
  8
0
  6
DASHED2
 62
    91
370
    18
100
AcDbLine
 10
223.250283930377
 20
24.99828746907411
 30
0.0
 11
223.250283930377
 21
0.2482860385626324
 31
0.0
  0
LINE
  5
101
330
C4
100
AcDbEntity
  8
0
  6
DASHED2
 62
     4
370
    13
100
AcDbLine
 10
230.5737839303769
 20
24.99828746907411
 30
0.0
 11
230.5737839303769
 21
0.2482860385626324
 31
0.0
  0
LINE
  5
102
330
C4
100
AcDbEntity
  8
0
  6
DASHED2
 62
     4
370
    13
100
AcDbLine
 10
222.5737839303769
 20
24.99828746907411
 30
0.0
 11
222.5737839303769
 21
0.2482860385626324
 31
0.0
  0
ENDBLK
  5
C6
330
C4
100
AcDbEntity
  8
0
100
AcDbBlockEnd
  0
BLOCK
  5
C8
330
C7
100
AcDbEntity
  8
0
100
AcDbBlockBegin
  2
DC_GROUP_DMB-80_8
 70
     0
 10
0.0
 20
0.0
 30
0.0
  3
DC_GROUP_DMB-80_8
  1

  0
LINE
  5
103
330
C7
100
AcDbEntity
  8
0
  6
DASHED2
 62
    91
370
    25
100
AcDbLine
 10
230.5737839303769
 20
0.3882874690741147
 30
0.0
 11
230.5737839303769
 21
23.74828746907411
 31
0.0
  0
LINE
  5
104
330
C7
100
AcDbEntity
  8
0
  6
DASHED2
 62
    91
370
    25
100
AcDbLine
 10
230.5737839303769
 20
23.74828746907411
 30
0.0
 11
222.5737839303769
 21
23.74828746907411
 31
0.0
  0
LINE
  5
105
330
C7
100
AcDbEntity
  8
0
  6
DASHED2
 62
    91
370
    25
100
AcDbLine
 10
222.5737839303769
 20
23.74828746907411
 30
0.0
 11
222.5737839303769
 21
0.3882874690741147
 31
0.0
  0
LINE
  5
106
330
C7
100
AcDbEntity
  8
0
  6
DASHED2
 62
    91
370
    25
100
AcDbLine
 10
222.5737839303769
 20
0.3882874690741147
 30
0.0
 11
230.5737839303769
 21
0.3882874690741147
 31
0.0
  0
LINE
  5
107
330
C7
100
AcDbEntity
  8
0
  6
DASHED2
 62
    91
370
    25
100
AcDbLine
 10
230.5737839303769
 20
23.74828746907411
 30
0.0
 11
229.3237839303769
 21
24.99828746907411
 31
0.0
  0
LINE
  5
108
330
C7
100
AcDbEntity
  8
0
  6
DASHED2
 62
    91
370
    25
100
AcDbLine
 10
222.5737839303769
 20
23.74828746907411
 30
0.0
 11
223.8237839303769
 21
24.99828746907411
 31
0.0
  0
LINE
  5
109
330
C7
100
AcDbEntity
  8
0
  6
DASHED2
 62
    91
370
    25
100
AcDbLine
 10
229.3237839303769
 20
24.99828746907411
 30
0.0
 11
223.8237839303769
 21
24.99828746907411
 31
0.0
  0
LINE
  5
10A
330
C7
100
AcDbEntity
  8
0
  6
DASHED2
 62
    91
370
    25
100
AcDbLine
 10
230.5737839303769
 20
0.3882874690741147
 30
0.0
 11
230.3309352951435
 21
0.2482860385626324
 31
0.0
  0
LINE
  5
10B
330
C7
100
AcDbEntity
  8
0
  6
DASHED2
 62
    91
370
    25
100
AcDbLine
 10
222.5737839303769
 20
0.3882874690741147
 30
0.0
 11
222.8166325656103
 21
0.2482860385626324
 31
0.0
  0
LINE
  5
10C
330
C7
100
AcDbEntity
  8
0
  6
Continuous
 62
    91
370
    25
100
AcDbLine
 10
229.8972839303769
 20
-0.0017125309258859
 30
0.0
 11
223.250283930377
 21
-0.0017125309258859
 31
0.0
  0
LINE
  5
10D
330
C7
100
AcDbEntity
  8
0
  6
Continuous
 62
    91
370
    25
100
AcDbLine
 10
229.8972839303769
 20
-0.0017125309258859
 30
0.0
 11
230.3309352951435
 21
0.2482860385626324
 31
0.0
  0
LINE
  5
10E
330
C7
100
AcDbEntity
  8
0
  6
Continuous
 62
    91
370
    25
100
AcDbLine
 10
223.250283930377
 20
-0.0017125309258859
 30
0.0
 11
222.8166325656103
 21
0.2482860385626324
 31
0.0
  0
LINE
  5
10F
330
C7
100
AcDbEntity
  8
0
  6
DASHED2
 62
     4
370
    25
100
AcDbLine
 10
223.250283930377
 20
0.2482860385626324
 30
0.0
 11
223.250283930377
 21
24.42478746907412
 31
0.0
  0
LINE
  5
110
330
C7
100
AcDbEntity
  8
0
  6
DASHED2
 62
     4
370
    25
100
AcDbLine
 10
229.8972839303769
 20
0.2482860385626324
 30
0.0
 11
229.8972839303769
 21
24.42478746907412
 31
0.0
  0
LINE
  5
111
330
C7
100
AcDbEntity
  8
0
  6
Continuous
 62
     4
370
    25
100
AcDbLine
 10
223.250283930377
 20
-0.0017125309258859
 30
0.0
 11
223.250283930377
 21
0.2482860385626324
 31
0.0
  0
LINE
  5
112
330
C7
100
AcDbEntity
  8
0
  6
Continuous
 62
     4
370
    25
100
AcDbLine
 10
229.8972839303769
 20
-0.0017125309258859
 30
0.0
 11
229.8972839303769
 21
0.2482860385626324
 31
0.0
  0
ENDBLK
  5
C9
330
C7
100
AcDbEntity
  8
0
100
AcDbBlockEnd
  0
BLOCK
  5
CB
330
CA
100
AcDbEntity
  8
0
100
AcDbBlockBegin
  2
DC_GROUP_DMB-80_9
 70
     0
 10
0.0
 20
0.0
 30
0.0
  3
DC_GROUP_DMB-80_9
  1

  0
LINE
  5
113
330
CA
100
AcDbEntity
  8
0
  6
DASHED2
 62
    91
370
    25
100
AcDbLine
 10
209.6348456268252
 20
49.65918552576733
 30
0.0
 11
213.6348454750278
 21
56.5873888436831
 31
0.0
  0
LINE
  5
114
330
CA
100
AcDbEntity
  8
0
  6
DASHED2
 62
    91
370
    25
100
AcDbLine
 10
209.6348456268252
 20
49.65918552576733
 30
0.0
 11
211.3423773715312
 21
50.11671731791
 31
0.0
  0
LINE
  5
115
330
CA
100
AcDbEntity
  8
0
  6
DASHED2
 62
    91
370
    25
100
AcDbLine
 10
213.6348454750278
 20
56.5873888436831
 30
0.0
 11
214.0923772671704
 21
54.87985709897711
 31
0.0
  0
LINE
  5
116
330
CA
100
AcDbEntity
  8
0
  6
DASHED2
 62
    91
370
    25
100
AcDbLine
 10
211.3423773715312
 20
50.11671731791
 30
0.0
 11
214.0923772671704
 21
54.87985709897711
 31
0.0
  0
LINE
  5
117
330
CA
100
AcDbEntity
  8
0
  6
DASHED2
 62
    91
370
    25
100
AcDbLine
 10
186.2521667928925
 20
63.15918076182473
 30
0.0
 11
209.6348456268252
 21
49.65918552576733
 31
0.0
  0
LINE
  5
118
330
CA
100
AcDbEntity
  8
0
  6
DASHED2
 62
    91
370
    25
100
AcDbLine
 10
213.6348454750278
 20
56.5873888436831
 30
0.0
 11
190.2521653462166
 21
70.08738482733892
 31
0.0
  0
LINE
  5
119
330
CA
100
AcDbEntity
  8
0
  6
Continuous
 62
    91
370
    25
100
AcDbLine
 10
188.3983648141043
 20
70.37652210508989
 30
0.0
 11
185.074864940229
 21
64.62005117331663
 31
0.0
  0
LINE
  5
11A
330
CA
100
AcDbEntity
  8
0
  6
Continuous
 62
    91
370
    25
100
AcDbLine
 10
185.0743648648137
 20
63.8391849876455
 30
0.0
 11
189.0743647130163
 21
70.76738830556127
 31
0.0
  0
LINE
  5
11B
330
CA
100
AcDbEntity
  8
0
  6
Continuous
 62
    91
370
    25
100
AcDbLine
 10
188.3983648141043
 20
70.37652210508989
 30
0.0
 11
189.0743647130163
 21
70.76738830556127
 31
0.0
  0
LINE
  5
11C
330
CA
100
AcDbEntity
  8
0
  6
Continuous
 62
    91
370
    25
100
AcDbLine
 10
185.074864940229
 20
64.62005117331663
 30
0.0
 11
185.0743648648137
 21
63.8391849876455
 31
0.0
  0
LINE
  5
11D
330
CA
100
AcDbEntity
  8
0
  6
Continuous
 62
    91
370
    25
100
AcDbLine
 10
186.2521667928925
 20
63.15918076182473
 30
0.0
 11
185.0743648648137
 21
63.8391849876455
 31
0.0
  0
LINE
  5
11E
330
CA
100
AcDbEntity
  8
0
  6
Continuous
 62
    91
370
    25
100
AcDbLine
 10
190.2521653462166
 20
70.08738482733892
 30
0.0
 11
189.0743647130163
 21
70.76738830556127
 31
0.0
  0
LINE
  5
11F
330
CA
100
AcDbEntity
  8
0
  6
DASHED2
 62
     4
370
    25
100
AcDbLine
 10
186.5904165610598
 20
63.74504708133355
 30
0.0
 11
210.55896180706
 21
49.90680173167493
 31
0.0
  0
LINE
  5
120
330
CA
100
AcDbEntity
  8
0
  6
DASHED2
 62
     4
370
    25
100
AcDbLine
 10
189.913915359053
 20
69.50151863426765
 30
0.0
 11
213.8824616809354
 21
55.66327266344823
 31
0.0
  0
LINE
  5
121
330
CA
100
AcDbEntity
  8
0
  6
Continuous
 62
     4
370
    25
100
AcDbLine
 10
185.074864940229
 20
64.62005117331663
 30
0.0
 11
186.5904165610598
 21
63.74504708133355
 31
0.0
  0
LINE
  5
122
330
CA
100
AcDbEntity
  8
0
  6
Continuous
 62
     4
370
    25
100
AcDbLine
 10
189.913915359053
 20
69.50151863426765
 30
0.0
 11
188.3983648141043
 21
70.37652210508989
 31
0.0
  0
ENDBLK
  5
CC
330
CA
100
AcDbEntity
  8
0
100
AcDbBlockEnd
  0
ENDSEC
  0
SECTION
  2
ENTITIES
  0
LINE
  5
123
330
1F
100
AcDbEntity
  8
0
  6
CENTER
 62
     4
370
    18
100
AcDbLine
 10
-345.559766108076
 20
44.49828746907394
 30
0.0
 11
-121.3269978735486
 21
44.49828746907394
 31
0.0
  0
LINE
  5
124
330
1F
100
AcDbEntity
  8
0
  6
CENTER
 62
     4
370
    18
100
AcDbLine
 10
-58.87124906477683
 20
44.49828746907394
 30
0.0
 11
36.31684881074674
 21
44.49828746907394
 31
0.0
  0
LINE
  5
125
330
1F
100
AcDbEntity
  8
0
  6
CENTER
 62
     4
370
    18
100
AcDbLine
 10
-233.4262160696244
 20
156.530586529036
 30
0.0
 11
-233.4262160696244
 21
-67.88780940509213
 31
0.0
  0
LINE
  5
126
330
1F
100
AcDbEntity
  8
0
  6
CENTER
 62
     4
370
    18
100
AcDbLine
 10
-291.7326996852572
 20
78.16155223853158
 30
0.0
 11
-267.4276511517694
 21
64.12903062199754
 31
0.0
  0
LINE
  5
127
330
1F
100
AcDbEntity
  8
0
  6
CENTER
 62
     4
370
    18
100
AcDbLine
 10
-292.1822098879298
 20
10.57549278958555
 30
0.0
 11
-268.454342154039
 21
24.27478021918964
 31
0.0
  0
LINE
  5
128
330
1F
100
AcDbEntity
  8
0
  6
CENTER
 62
     4
370
    18
100
AcDbLine
 10
-175.0022962778925
 20
10.76722458038518
 30
0.0
 11
-196.9392650247161
 21
23.43253625387116
 31
0.0
  0
LINE
  5
129
330
1F
100
AcDbEntity
  8
0
  6
CENTER
 62
     4
370
    18
100
AcDbLine
 10
-175.0629251236218
 20
78.1943411453714
 30
0.0
 11
-198.2252101803948
 21
64.82159410890017
 31
0.0
  0
LINE
  5
12A
330
1F
100
AcDbEntity
  8
0
  6
CENTER
 62
     4
370
    18
100
AcDbLine
 10
-57.86534016784801
 20
98.49828365437668
 30
0.0
 11
-42.77670671391572
 21
98.49828365437668
 31
0.0
  0
LINE
  5
12B
330
1F
100
AcDbEntity
  8
0
  6
CENTER
 62
     4
370
    18
100
AcDbLine
 10
-31.62621873991244
 20
220.7698245304872
 30
0.0
 11
-31.62621873991244
 21
143.6012494006141
 31
0.0
  0
LINE
  5
12C
330
1F
100
AcDbEntity
  8
0
  6
CENTER
 62
     4
370
    18
100
AcDbLine
 10
-33.56511110441439
 20
89.74828365437668
 30
0.0
 11
-24.44685972629097
 21
89.74828365437668
 31
0.0
  0
LINE
  5
12D
330
1F
100
AcDbEntity
  8
0
  6
CENTER
 62
     4
370
    18
100
AcDbLine
 10
-14.72995514217748
 20
89.74828365437668
 30
0.0
 11
36.31684881074674
 21
89.74828365437668
 31
0.0
  0
LINE
  5
12E
330
1F
100
AcDbEntity
  8
0
  6
CENTER
 62
     4
370
    18
100
AcDbLine
 10
-235.4262160696244
 20
220.76982071579
 30
0.0
 11
-235.4262160696244
 21
143.6012455859169
 31
0.0
  0
LINE
  5
12F
330
1F
100
AcDbEntity
  8
0
  6
CENTER
 62
     4
370
    18
100
AcDbLine
 10
-231.4262160696244
 20
220.76982071579
 30
0.0
 11
-231.4262160696244
 21
143.6012455859169
 31
0.0
  0
LINE
  5
130
330
1F
100
AcDbEntity
  8
0
  6
CENTER
 62
     4
370
    18
100
AcDbLine
 10
-57.86534016784801
 20
-9.501712530926056
 30
0.0
 11
-42.77670671391572
 21
-9.501712530926056
 31
0.0
  0
LINE
  5
131
330
1F
100
AcDbEntity
  8
0
  6
CENTER
 62
     4
370
    18
100
AcDbLine
 10
110.6117933705465
 20
44.49828746907394
 30
0.0
 11
343.4502532365121
 21
44.49828746907394
 31
0.0
  0
LINE
  5
132
330
1F
100
AcDbEntity
  8
0
  6
CENTER
 62
     4
370
    18
100
AcDbLine
 10
169.945333938585
 20
11.80383445958091
 30
0.0
 11
203.6737631256607
 21
31.27695215080826
 31
0.0
  0
LINE
  5
133
330
1F
100
AcDbEntity
  8
0
  6
CENTER
 62
     4
370
    18
100
AcDbLine
 10
282.777595498697
 20
12.04900869434186
 30
0.0
 11
249.858004892867
 21
31.05513290250474
 31
0.0
  0
LINE
  5
134
330
1F
100
AcDbEntity
  8
0
  6
CENTER
 62
     4
370
    18
100
AcDbLine
 10
224.5737839303756
 20
220.7698207157899
 30
0.0
 11
224.5737839303756
 21
150.6617579809049
 31
0.0
  0
LINE
  5
135
330
1F
100
AcDbEntity
  8
0
  6
CENTER
 62
     4
370
    18
100
AcDbLine
 10
228.5737839303756
 20
220.7698207157899
 30
0.0
 11
228.5737839303756
 21
150.6617579809049
 31
0.0
  0
LINE
  5
136
330
1F
100
AcDbEntity
  8
0
  6
CENTER
 62
     4
370
    18
100
AcDbLine
 10
226.5737839303756
 20
160.2134796953542
 30
0.0
 11
226.5737839303756
 21
-72.41801265073059
 31
0.0
  0
LINE
  5
137
330
1F
100
AcDbEntity
  8
0
  6
CENTER
 62
     4
370
    18
100
AcDbLine
 10
32.77378278596647
 20
33.41403034321945
 30
0.0
 11
32.77378278596647
 21
-8.62911865122635
 31
0.0
  0
ARC
  5
138
330
1F
100
AcDbEntity
  8
0
  6
CENTER
 62
     4
370
    18
100
AcDbCircle
 10
226.5737839303769
 20
44.49828746907411
 30
0.0
 40
36.5
100
AcDbArc
 50
165.0
 51
194.5455080082916
  0
ARC
  5
139
330
1F
100
AcDbEntity
  8
0
  6
CENTER
 62
     4
370
    18
100
AcDbCircle
 10
226.5737839303769
 20
44.49828746907411
 30
0.0
 40
45.2499999999999
100
AcDbArc
 50
192.2016532576216
 51
227.7983467423769
  0
ARC
  5
13A
330
1F
100
AcDbEntity
  8
0
  6
CENTER
 62
     4
370
    18
100
AcDbCircle
 10
226.5737839303769
 20
44.49828746907411
 30
0.0
 40
45.2499999999999
100
AcDbArc
 50
312.2016532576215
 51
347.7983467423766
  0
ARC
  5
13B
330
1F
100
AcDbEntity
  8
0
  6
CENTER
 62
     4
370
    18
100
AcDbCircle
 10
226.5737839303769
 20
44.49828746907411
 30
0.0
 40
45.2499999999999
100
AcDbArc
 50
72.20165325762241
 51
107.7983467423772
  0
LINE
  5
13C
330
1F
100
AcDbEntity
  8
0
  6
CENTER
 62
     4
370
    18
100
AcDbLine
 10
183.8801804147519
 20
69.14744976155458
 30
0.0
 11
217.0109329782285
 21
50.01940181843935
 31
0.0
  0
ARC
  5
13D
330
1F
100
AcDbEntity
  8
0
  6
CENTER
 62
     4
370
    18
100
AcDbCircle
 10
226.5737839303769
 20
44.49828746907411
 30
0.0
 40
36.5
100
AcDbArc
 50
345.4544843289147
 51
15.00000000000003
  0
LINE
  5
13E
330
1F
100
AcDbEntity
  8
0
  6
Continuous
 62
     4
370
    18
100
AcDbLine
 10
13.77378230912931
 20
85.64828518025558
 30
0.0
 11
14.77378230912931
 21
85.64828518025558
 31
0.0
  0
LINE
  5
13F
330
1F
100
AcDbEntity
  8
0
  6
Continuous
 62
     4
370
    18
100
AcDbLine
 10
25.4737825952316
 20
85.64828518025558
 30
0.0
 11
30.17378240449674
 21
85.64828518025558
 31
0.0
  0
LINE
  5
140
330
1F
100
AcDbEntity
  8
0
  6
Continuous
 62
     4
370
    18
100
AcDbLine
 10
13.77378230912931
 20
93.8482897578923
 30
0.0
 11
14.77378230912931
 21
93.8482897578923
 31
0.0
  0
LINE
  5
141
330
1F
100
AcDbEntity
  8
0
  6
Continuous
 62
     4
370
    18
100
AcDbLine
 10
25.4737825952316
 20
93.8482897578923
 30
0.0
 11
30.17378240449674
 21
93.8482897578923
 31
0.0
  0
CIRCLE
  5
142
330
1F
100
AcDbEntity
  8
0
  6
Continuous
 62
     4
370
    18
100
AcDbCircle
 10
263.0737839303769
 20
44.49828746907411
 30
0.0
 40
4.0
  0
CIRCLE
  5
143
330
1F
100
AcDbEntity
  8
0
  6
Continuous
 62
     4
370
    18
100
AcDbCircle
 10
190.0737839303769
 20
44.49828746907411
 30
0.0
 40
4.0
  0
LINE
  5
144
330
1F
100
AcDbEntity
  8
0
  6
DIVIDE
 62
     4
370
    18
100
AcDbLine
 10
-27.07621950285189
 20
98.18259898968341
 30
0.0
 11
-14.97371521520957
 21
101.7571403968831
 31
0.0
  0
LINE
  5
145
330
1F
100
AcDbEntity
  8
0
  6
DIVIDE
 62
     4
370
    18
100
AcDbLine
 10
-27.07621950285188
 20
81.31397594846445
 30
0.0
 11
-14.94935481432024
 21
77.74120982686196
 31
0.0
  0
LINE
  5
146
330
1F
100
AcDbEntity
  8
0
  6
Continuous
 62
    91
370
    18
100
AcDbLine
 10
-51.62621492521517
 20
134.4982912837712
 30
0.0
 11
-51.62621492521517
 21
-45.50171253092606
 31
0.0
  0
LINE
  5
147
330
1F
100
AcDbEntity
  8
0
  6
Continuous
 62
    91
370
    18
100
AcDbLine
 10
-47.12621492521517
 20
136.4982912837712
 30
0.0
 11
-47.12621492521517
 21
134.4982912837712
 31
0.0
  0
LINE
  5
148
330
1F
100
AcDbEntity
  8
0
  6
Continuous
 62
    91
370
    18
100
AcDbLine
 10
-47.12621492521517
 20
106.4982836543767
 30
0.0
 11
-47.12621492521517
 21
-17.50171443827469
 31
0.0
  0
LINE
  5
149
330
1F
100
AcDbEntity
  8
0
  6
Continuous
 62
    91
370
    18
100
AcDbLine
 10
-47.12621492521517
 20
-45.50171253092606
 30
0.0
 11
-47.12621492521517
 21
-47.50171253092606
 31
0.0
  0
ARC
  5
14A
330
1F
100
AcDbEntity
  8
0
  6
Continuous
 62
    91
370
    18
100
AcDbCircle
 10
-35.12621873991244
 20
-47.50171253092606
 30
0.0
 40
12.0
100
AcDbArc
 50
179.9999999999998
 51
269.9999999999997
  0
ARC
  5
14B
330
1F
100
AcDbEntity
  8
0
  6
Continuous
 62
    91
370
    18
100
AcDbCircle
 10
-35.12621873991244
 20
136.4982912837712
 30
0.0
 40
12.0
100
AcDbArc
 50
89.9999999999999
 51
179.9999999999998
  0
LINE
  5
14C
330
1F
100
AcDbEntity
  8
0
  6
Continuous
 62
    91
370
    18
100
AcDbLine
 10
-15.62621873991244
 20
148.4982912837712
 30
0.0
 11
-35.12621873991244
 21
148.4982912837712
 31
0.0
  0
LINE
  5
14D
330
1F
100
AcDbEntity
  8
0
  6
Continuous
 62
    91
370
    18
100
AcDbLine
 10
-15.62621873991244
 20
-59.50171634562332
 30
0.0
 11
-35.12621873991244
 21
-59.50171634562332
 31
0.0
  0
LINE
  5
14E
330
1F
100
AcDbEntity
  8
0
  6
Continuous
 62
    91
370
    18
100
AcDbLine
 10
-51.62621492521517
 20
134.4982912837712
 30
0.0
 11
-47.12621492521517
 21
134.4982912837712
 31
0.0
  0
LINE
  5
14F
330
1F
100
AcDbEntity
  8
0
  6
Continuous
 62
    91
370
    18
100
AcDbLine
 10
-51.62621492521517
 20
-45.50171253092606
 30
0.0
 11
-47.12621492521517
 21
-45.50171253092606
 31
0.0
  0
LINE
  5
150
330
1F
100
AcDbEntity
  8
0
  6
Continuous
 62
    91
370
    18
100
AcDbLine
 10
-51.62621492521517
 20
88.99828365437668
 30
0.0
 11
-47.12621492521517
 21
88.99828365437668
 31
0.0
  0
LINE
  5
151
330
1F
100
AcDbEntity
  8
0
  6
Continuous
 62
    91
370
    18
100
AcDbLine
 10
-51.62621492521517
 20
-0.001713961437531
 30
0.0
 11
-47.12621492521517
 21
-0.001713961437531
 31
0.0
  0
LINE
  5
152
330
1F
100
AcDbEntity
  8
0
  6
Continuous
 62
    91
370
    18
100
AcDbLine
 10
-47.12621492521517
 20
106.4982836543767
 30
0.0
 11
-15.62621873991244
 21
106.4982836543767
 31
0.0
  0
LINE
  5
153
330
1F
100
AcDbEntity
  8
0
  6
Continuous
 62
    91
370
    18
100
AcDbLine
 10
-47.12621492521517
 20
-17.50171443827469
 30
0.0
 11
-15.62621873991244
 21
-17.50171443827469
 31
0.0
  0
LINE
  5
154
330
1F
100
AcDbEntity
  8
0
  6
Continuous
 62
    91
370
    18
100
AcDbLine
 10
-15.62621873991244
 20
-59.50171634562332
 30
0.0
 11
-15.62621873991244
 21
78.4482882320134
 31
0.0
  0
LINE
  5
155
330
1F
100
AcDbEntity
  8
0
  6
Continuous
 62
    91
370
    18
100
AcDbLine
 10
-15.62621873991244
 20
101.0482867061345
 30
0.0
 11
-15.62621873991244
 21
148.4982912837712
 31
0.0
  0
LINE
  5
156
330
1F
100
AcDbEntity
  8
0
  6
Continuous
 62
    91
370
    18
100
AcDbLine
 10
-14.92621797697299
 20
-60.50171634562332
 30
0.0
 11
-14.92621797697299
 21
78.4482882320134
 31
0.0
  0
LINE
  5
157
330
1F
100
AcDbEntity
  8
0
  6
Continuous
 62
    91
370
    18
100
AcDbLine
 10
-14.92621797697299
 20
105.4982836543767
 30
0.0
 11
-14.92621797697299
 21
149.4982912837712
 31
0.0
  0
LINE
  5
158
330
1F
100
AcDbEntity
  8
0
  6
Continuous
 62
    91
370
    18
100
AcDbLine
 10
-11.92621797697299
 20
103.4982836543767
 30
0.0
 11
-11.92621797697299
 21
105.4982836543767
 31
0.0
  0
LINE
  5
159
330
1F
100
AcDbEntity
  8
0
  6
Continuous
 62
    91
370
    18
100
AcDbLine
 10
-11.92621797697299
 20
105.4982836543767
 30
0.0
 11
-14.92621797697299
 21
105.4982836543767
 31
0.0
  0
LINE
  5
15A
330
1F
100
AcDbEntity
  8
0
  6
Continuous
 62
    91
370
    18
100
AcDbLine
 10
-2.526217976972987
 20
78.24828365437668
 30
0.0
 11
-3.926217976972985
 21
78.24828365437668
 31
0.0
  0
LINE
  5
15B
330
1F
100
AcDbEntity
  8
0
  6
Continuous
 62
    91
370
    18
100
AcDbLine
 10
14.77378230912931
 20
79.93333461873215
 30
0.0
 11
14.77378230912931
 21
99.56323269002121
 31
0.0
  0
LINE
  5
15C
330
1F
100
AcDbEntity
  8
0
  6
Continuous
 62
    91
370
    18
100
AcDbLine
 10
-0.2262172140335323
 20
100.7482836543767
 30
0.0
 11
-0.2262172140335323
 21
78.74828365437668
 31
0.0
  0
CIRCLE
  5
15D
330
1F
100
AcDbEntity
  8
0
  6
Continuous
 62
    91
370
    18
100
AcDbCircle
 10
-233.4262160696244
 20
44.49828746907394
 30
0.0
 40
89.99999999999999
  0
CIRCLE
  5
15E
330
1F
100
AcDbEntity
  8
0
  6
Continuous
 62
    91
370
    18
100
AcDbCircle
 10
-233.4262160696244
 20
44.49828746907394
 30
0.0
 40
104.0
  0
CIRCLE
  5
15F
330
1F
100
AcDbEntity
  8
0
  6
Continuous
 62
    91
370
    18
100
AcDbCircle
 10
-233.4262160696244
 20
98.49828365437668
 30
0.0
 40
4.5
  0
CIRCLE
  5
160
330
1F
100
AcDbEntity
  8
0
  6
Continuous
 62
    91
370
    18
100
AcDbCircle
 10
-280.1915664114213
 20
71.49828365437668
 30
0.0
 40
4.5
  0
CIRCLE
  5
161
330
1F
100
AcDbEntity
  8
0
  6
Continuous
 62
    91
370
    18
100
AcDbCircle
 10
-280.1915664114213
 20
17.49828651539963
 30
0.0
 40
4.5
  0
CIRCLE
  5
162
330
1F
100
AcDbEntity
  8
0
  6
Continuous
 62
    91
370
    18
100
AcDbCircle
 10
-233.4262160696244
 20
-9.501713484600373
 30
0.0
 40
4.5
  0
CIRCLE
  5
163
330
1F
100
AcDbEntity
  8
0
  6
Continuous
 62
    91
370
    18
100
AcDbCircle
 10
-186.6608352102494
 20
17.49828651539963
 30
0.0
 40
4.5
  0
CIRCLE
  5
164
330
1F
100
AcDbEntity
  8
0
  6
Continuous
 62
    91
370
    18
100
AcDbCircle
 10
-186.6608352102494
 20
71.49828365437668
 30
0.0
 40
4.5
  0
LINE
  5
165
330
1F
100
AcDbEntity
  8
0
  6
Continuous
 62
    91
370
    18
100
AcDbLine
 10
-29.72621721403353
 20
97.74828365437668
 30
0.0
 11
-28.22621721403353
 21
97.74828365437668
 31
0.0
  0
LINE
  5
166
330
1F
100
AcDbEntity
  8
0
  6
Continuous
 62
    91
370
    18
100
AcDbLine
 10
-27.07621950285189
 20
97.74828365437668
 30
0.0
 11
-8.426217976972985
 21
97.74828365437668
 31
0.0
  0
LINE
  5
167
330
1F
100
AcDbEntity
  8
0
  6
Continuous
 62
    91
370
    18
100
AcDbLine
 10
-6.026218358442712
 20
97.74828365437668
 30
0.0
 11
-0.2262172140335323
 21
97.74828365437668
 31
0.0
  0
LINE
  5
168
330
1F
100
AcDbEntity
  8
0
  6
Continuous
 62
    91
370
    18
100
AcDbLine
 10
-29.72621721403353
 20
97.74828365437668
 30
0.0
 11
-30.22621721403353
 21
97.24828365437668
 31
0.0
  0
LINE
  5
169
330
1F
100
AcDbEntity
  8
0
  6
Continuous
 62
    91
370
    18
100
AcDbLine
 10
-30.22621721403353
 20
97.24828365437668
 30
0.0
 11
-30.22621721403353
 21
82.24828365437668
 31
0.0
  0
LINE
  5
16A
330
1F
100
AcDbEntity
  8
0
  6
Continuous
 62
    91
370
    18
100
AcDbLine
 10
-30.22621721403353
 20
82.24828365437668
 30
0.0
 11
-29.72621721403353
 21
81.74828365437668
 31
0.0
  0
LINE
  5
16B
330
1F
100
AcDbEntity
  8
0
  6
Continuous
 62
    91
370
    18
100
AcDbLine
 10
-29.72621721403353
 20
81.74828365437668
 30
0.0
 11
-28.22621721403353
 21
81.74828365437668
 31
0.0
  0
LINE
  5
16C
330
1F
100
AcDbEntity
  8
0
  6
Continuous
 62
    91
370
    18
100
AcDbLine
 10
-27.07621950285189
 20
81.74828365437668
 30
0.0
 11
-8.426217976972985
 21
81.74828365437668
 31
0.0
  0
LINE
  5
16D
330
1F
100
AcDbEntity
  8
0
  6
Continuous
 62
    91
370
    18
100
AcDbLine
 10
-6.026218358442712
 20
81.74828365437668
 30
0.0
 11
-0.2262172140335323
 21
81.74828365437668
 31
0.0
  0
LINE
  5
16E
330
1F
100
AcDbEntity
  8
0
  6
Continuous
 62
    91
370
    18
100
AcDbLine
 10
-0.2262172140335323
 20
96.24828365437668
 30
0.0
 11
14.77378230912931
 21
96.24828365437668
 31
0.0
  0
LINE
  5
16F
330
1F
100
AcDbEntity
  8
0
  6
Continuous
 62
    91
370
    18
100
AcDbLine
 10
13.77378230912931
 20
96.24828365437668
 30
0.0
 11
13.77378230912931
 21
83.24828365437668
 31
0.0
  0
LINE
  5
170
330
1F
100
AcDbEntity
  8
0
  6
Continuous
 62
    91
370
    18
100
AcDbLine
 10
13.77378230912931
 20
84.74828365437668
 30
0.0
 11
14.77378230912931
 21
84.74828365437668
 31
0.0
  0
LINE
  5
171
330
1F
100
AcDbEntity
  8
0
  6
Continuous
 62
    91
370
    18
100
AcDbLine
 10
25.4737825952316
 20
84.74828365437668
 30
0.0
 11
29.27378278596647
 21
84.74828365437668
 31
0.0
  0
LINE
  5
172
330
1F
100
AcDbEntity
  8
0
  6
Continuous
 62
    91
370
    18
100
AcDbLine
 10
13.77378230912931
 20
94.74828365437668
 30
0.0
 11
14.77378230912931
 21
94.74828365437668
 31
0.0
  0
LINE
  5
173
330
1F
100
AcDbEntity
  8
0
  6
Continuous
 62
    91
370
    18
100
AcDbLine
 10
25.4737825952316
 20
94.74828365437668
 30
0.0
 11
29.27378278596647
 21
94.74828365437668
 31
0.0
  0
LINE
  5
174
330
1F
100
AcDbEntity
  8
0
  6
Continuous
 62
    91
370
    18
100
AcDbLine
 10
29.27378278596647
 20
84.74828365437668
 30
0.0
 11
30.77378278596647
 21
86.24828365437668
 31
0.0
  0
LINE
  5
175
330
1F
100
AcDbEntity
  8
0
  6
Continuous
 62
    91
370
    18
100
AcDbLine
 10
29.27378278596647
 20
94.74828365437668
 30
0.0
 11
30.77378278596647
 21
93.24828365437668
 31
0.0
  0
LINE
  5
176
330
1F
100
AcDbEntity
  8
0
  6
Continuous
 62
    91
370
    18
100
AcDbLine
 10
30.77378278596647
 20
93.24828365437668
 30
0.0
 11
30.77378278596647
 21
86.24828365437668
 31
0.0
  0
LINE
  5
177
330
1F
100
AcDbEntity
  8
0
  6
Continuous
 62
    91
370
    18
100
AcDbLine
 10
29.27378278596647
 20
94.74828365437668
 30
0.0
 11
29.27378278596647
 21
84.74828365437668
 31
0.0
  0
LINE
  5
178
330
1F
100
AcDbEntity
  8
0
  6
Continuous
 62
    91
370
    18
100
AcDbLine
 10
17.47378235681303
 20
79.93333461873215
 30
0.0
 11
17.47378235681303
 21
99.56323269002121
 31
0.0
  0
LINE
  5
179
330
1F
100
AcDbEntity
  8
0
  6
Continuous
 62
    91
370
    18
100
AcDbLine
 10
17.47378235681303
 20
99.56323269002121
 30
0.0
 11
24.57025867326505
 21
99.56323269002121
 31
0.0
  0
LINE
  5
17A
330
1F
100
AcDbEntity
  8
0
  6
Continuous
 62
    91
370
    18
100
AcDbLine
 10
17.47378235681303
 20
79.93333461873215
 30
0.0
 11
24.57025867326505
 21
79.93333461873215
 31
0.0
  0
LINE
  5
17B
330
1F
100
AcDbEntity
  8
0
  6
Continuous
 62
    91
370
    18
100
AcDbLine
 10
24.57025867326505
 20
99.56323269002121
 30
0.0
 11
25.4737825952316
 21
97.99828365437668
 31
0.0
  0
LINE
  5
17C
330
1F
100
AcDbEntity
  8
0
  6
Continuous
 62
    91
370
    18
100
AcDbLine
 10
24.57025867326505
 20
79.93333461873215
 30
0.0
 11
25.4737825952316
 21
81.49828365437668
 31
0.0
  0
LINE
  5
17D
330
1F
100
AcDbEntity
  8
0
  6
Continuous
 62
    91
370
    18
100
AcDbLine
 10
25.4737825952316
 20
81.49828365437668
 30
0.0
 11
25.4737825952316
 21
97.99828365437668
 31
0.0
  0
ARC
  5
17E
330
1F
100
AcDbEntity
  8
0
  6
Continuous
 62
    91
370
    18
100
AcDbCircle
 10
9.088528688981604
 20
89.74828365437668
 30
0.0
 40
16.240916
100
AcDbArc
 50
342.411109924316
 51
17.58889007568358
  0
ARC
  5
17F
330
1F
100
AcDbEntity
  8
0
  6
Continuous
 62
    91
370
    18
100
AcDbCircle
 10
20.98451691491849
 20
97.10949733845871
 30
0.0
 40
4.344927999999999
100
AcDbArc
 50
325.6111106872555
 51
34.38888549804682
  0
ARC
  5
180
330
1F
100
AcDbEntity
  8
0
  6
Continuous
 62
    91
370
    18
100
AcDbCircle
 10
20.98451691491849
 20
82.38706997029465
 30
0.0
 40
4.344927999999999
100
AcDbArc
 50
325.6111106872555
 51
34.38888549804682
  0
LINE
  5
181
330
1F
100
AcDbEntity
  8
0
  6
Continuous
 62
    91
370
    18
100
AcDbLine
 10
17.47378235681303
 20
94.65576198689621
 30
0.0
 11
24.57025867326505
 21
94.65576198689621
 31
0.0
  0
LINE
  5
182
330
1F
100
AcDbEntity
  8
0
  6
Continuous
 62
    91
370
    18
100
AcDbLine
 10
17.47378235681303
 20
84.84081295125168
 30
0.0
 11
24.57025867326505
 21
84.84081295125168
 31
0.0
  0
LINE
  5
183
330
1F
100
AcDbEntity
  8
0
  6
Continuous
 62
    91
370
    18
100
AcDbLine
 10
-8.426217976972985
 20
97.74828365437668
 30
0.0
 11
-8.426217976972985
 21
81.74828365437668
 31
0.0
  0
LINE
  5
184
330
1F
100
AcDbEntity
  8
0
  6
Continuous
 62
    91
370
    18
100
AcDbLine
 10
-6.026218358442712
 20
97.74828365437668
 30
0.0
 11
-6.026218358442712
 21
81.74828365437668
 31
0.0
  0
LINE
  5
185
330
1F
100
AcDbEntity
  8
0
  6
Continuous
 62
    91
370
    18
100
AcDbLine
 10
-28.22621721403353
 20
100.6982882320134
 30
0.0
 11
-28.22621721403353
 21
80.1982882320134
 31
0.0
  0
LINE
  5
186
330
1F
100
AcDbEntity
  8
0
  6
Continuous
 62
    91
370
    18
100
AcDbLine
 10
-27.07621950285189
 20
100.6982882320134
 30
0.0
 11
-27.07621950285189
 21
80.1982882320134
 31
0.0
  0
LINE
  5
187
330
1F
100
AcDbEntity
  8
0
  6
Continuous
 62
    91
370
    18
100
AcDbLine
 10
-14.94935481432015
 20
76.24828365437668
 30
0.0
 11
-14.94935481432015
 21
78.4482882320134
 31
0.0
  0
LINE
  5
188
330
1F
100
AcDbEntity
  8
0
  6
Continuous
 62
    91
370
    18
100
AcDbLine
 10
-18.34935634019906
 20
79.4482882320134
 30
0.0
 11
-18.34935634019906
 21
81.74828365437668
 31
0.0
  0
ARC
  5
189
330
1F
100
AcDbEntity
  8
0
  6
Continuous
 62
    91
370
    18
100
AcDbCircle
 10
-17.34935634019906
 20
79.4482882320134
 30
0.0
 40
1.0
100
AcDbArc
 50
179.9999999999998
 51
269.9999999999997
  0
LINE
  5
18A
330
1F
100
AcDbEntity
  8
0
  6
Continuous
 62
    91
370
    18
100
AcDbLine
 10
-18.37371674108828
 20
97.74828365437668
 30
0.0
 11
-18.37371674108828
 21
100.0482867061345
 31
0.0
  0
ARC
  5
18B
330
1F
100
AcDbEntity
  8
0
  6
Continuous
 62
    91
370
    18
100
AcDbCircle
 10
-17.37371674108828
 20
100.0482867061345
 30
0.0
 40
1.0
100
AcDbArc
 50
89.9999999999999
 51
179.9999999999998
  0
LINE
  5
18C
330
1F
100
AcDbEntity
  8
0
  6
Continuous
 62
    91
370
    18
100
AcDbLine
 10
-14.97371521520937
 20
103.2482836543767
 30
0.0
 11
-14.17371597814883
 21
103.2482836543767
 31
0.0
  0
LINE
  5
18D
330
1F
100
AcDbEntity
  8
0
  6
Continuous
 62
    91
370
    18
100
AcDbLine
 10
-14.14935557725961
 20
76.24828365437668
 30
0.0
 11
-14.94935481432015
 21
76.24828365437668
 31
0.0
  0
LINE
  5
18E
330
1F
100
AcDbEntity
  8
0
  6
Continuous
 62
    91
370
    18
100
AcDbLine
 10
-14.97371521520937
 20
101.0482867061345
 30
0.0
 11
-17.37371674108828
 21
101.0482867061345
 31
0.0
  0
LINE
  5
18F
330
1F
100
AcDbEntity
  8
0
  6
Continuous
 62
    91
370
    18
100
AcDbLine
 10
-17.34935634019906
 20
78.4482882320134
 30
0.0
 11
-14.94935481432015
 21
78.4482882320134
 31
0.0
  0
LINE
  5
190
330
1F
100
AcDbEntity
  8
0
  6
Continuous
 62
    91
370
    18
100
AcDbLine
 10
-14.97371521520937
 20
103.2482836543767
 30
0.0
 11
-14.97371521520937
 21
101.0482867061345
 31
0.0
  0
LINE
  5
191
330
1F
100
AcDbEntity
  8
0
  6
Continuous
 62
    91
370
    18
100
AcDbLine
 10
-28.22621721403353
 20
100.6982882320134
 30
0.0
 11
-27.07621950285189
 21
100.6982882320134
 31
0.0
  0
LINE
  5
192
330
1F
100
AcDbEntity
  8
0
  6
Continuous
 62
    91
370
    18
100
AcDbLine
 10
-28.22621721403353
 20
80.1982882320134
 30
0.0
 11
-27.07621950285189
 21
80.1982882320134
 31
0.0
  0
LINE
  5
193
330
1F
100
AcDbEntity
  8
0
  6
Continuous
 62
    91
370
    18
100
AcDbLine
 10
-51.62621492521517
 20
102.9982836543767
 30
0.0
 11
-47.12621492521517
 21
102.9982836543767
 31
0.0
  0
LINE
  5
194
330
1F
100
AcDbEntity
  8
0
  6
Continuous
 62
    91
370
    18
100
AcDbLine
 10
-51.62621492521517
 20
93.99828365437668
 30
0.0
 11
-47.12621492521517
 21
93.99828365437668
 31
0.0
  0
LINE
  5
195
330
1F
100
AcDbEntity
  8
0
  6
Continuous
 62
    91
370
    18
100
AcDbLine
 10
-27.12621873991244
 20
151.4982912837712
 30
0.0
 11
-36.12621873991244
 21
151.4982912837712
 31
0.0
  0
LINE
  5
196
330
1F
100
AcDbEntity
  8
0
  6
Continuous
 62
    91
370
    18
100
AcDbLine
 10
-27.12621873991244
 20
151.4982912837712
 30
0.0
 11
-27.12621873991244
 21
148.4982912837712
 31
0.0
  0
LINE
  5
197
330
1F
100
AcDbEntity
  8
0
  6
Continuous
 62
    91
370
    18
100
AcDbLine
 10
-36.12621873991244
 20
151.4982912837712
 30
0.0
 11
-36.12621873991244
 21
148.4565520268726
 31
0.0
  0
LINE
  5
198
330
1F
100
AcDbEntity
  8
0
  6
Continuous
 62
    91
370
    18
100
AcDbLine
 10
-30.37621873991244
 20
151.4982912837712
 30
0.0
 11
-30.37621873991244
 21
182.1507418452946
 31
0.0
  0
LINE
  5
199
330
1F
100
AcDbEntity
  8
0
  6
Continuous
 62
    91
370
    18
100
AcDbLine
 10
-30.37621873991244
 20
186.2972109615056
 30
0.0
 11
-30.37621873991244
 21
196.9729159175603
 31
0.0
  0
LINE
  5
19A
330
1F
100
AcDbEntity
  8
0
  6
Continuous
 62
    91
370
    18
100
AcDbLine
 10
-32.87621873991244
 20
151.4982912837712
 30
0.0
 11
-32.87621873991244
 21
182.1507418452946
 31
0.0
  0
LINE
  5
19B
330
1F
100
AcDbEntity
  8
0
  6
Continuous
 62
    91
370
    18
100
AcDbLine
 10
-32.87621873991244
 20
186.2972109615056
 30
0.0
 11
-32.87621873991244
 21
196.9729159175603
 31
0.0
  0
LINE
  5
19C
330
1F
100
AcDbEntity
  8
0
  6
Continuous
 62
    91
370
    18
100
AcDbLine
 10
-32.87621873991244
 20
196.9729159175603
 30
0.0
 11
-30.37621873991244
 21
196.9729159175603
 31
0.0
  0
LINE
  5
19D
330
1F
100
AcDbEntity
  8
0
  6
Continuous
 62
    91
370
    18
100
AcDbLine
 10
-31.02621873991244
 20
196.9729159175603
 30
0.0
 11
-31.02621873991244
 21
216.9729159175603
 31
0.0
  0
LINE
  5
19E
330
1F
100
AcDbEntity
  8
0
  6
Continuous
 62
    91
370
    18
100
AcDbLine
 10
-32.22621873991243
 20
196.9729159175603
 30
0.0
 11
-32.22621873991243
 21
216.9729159175603
 31
0.0
  0
LINE
  5
19F
330
1F
100
AcDbEntity
  8
0
  6
Continuous
 62
    91
370
    18
100
AcDbLine
 10
-32.22621873991243
 20
216.9729159175603
 30
0.0
 11
-31.02621873991244
 21
216.9729159175603
 31
0.0
  0
CIRCLE
  5
1A0
330
1F
100
AcDbEntity
  8
0
  6
Continuous
 62
    91
370
    18
100
AcDbCircle
 10
-31.62621873991244
 20
186.2972109615056
 30
0.0
 40
1.249999999999993
  0
ARC
  5
1A1
330
1F
100
AcDbEntity
  8
0
  6
Continuous
 62
    91
370
    18
100
AcDbCircle
 10
-31.62621873991244
 20
182.1507418452946
 30
0.0
 40
1.249999999999993
100
AcDbArc
 50
0.0
 51
179.9999999999998
  0
LINE
  5
1A2
330
1F
100
AcDbEntity
  8
0
  6
Continuous
 62
    91
370
    18
100
AcDbLine
 10
-14.12621797697298
 20
75.99828365437668
 30
0.0
 11
-3.926217976972985
 21
75.99828365437668
 31
0.0
  0
LINE
  5
1A3
330
1F
100
AcDbEntity
  8
0
  6
Continuous
 62
    91
370
    18
100
AcDbLine
 10
17.47378235681303
 20
99.56323269002121
 30
0.0
 11
14.77378230912931
 21
99.56323269002121
 31
0.0
  0
LINE
  5
1A4
330
1F
100
AcDbEntity
  8
0
  6
Continuous
 62
    91
370
    18
100
AcDbLine
 10
17.47378235681303
 20
79.93333461873215
 30
0.0
 11
14.77378230912931
 21
79.93333461873215
 31
0.0
  0
LINE
  5
1A5
330
1F
100
AcDbEntity
  8
0
  6
Continuous
 62
    91
370
    18
100
AcDbLine
 10
14.77378230912931
 20
90.63375881306808
 30
0.0
 11
17.47378235681303
 21
91.55601528279465
 31
0.0
  0
LINE
  5
1A6
330
1F
100
AcDbEntity
  8
0
  6
Continuous
 62
    91
370
    18
100
AcDbLine
 10
14.77378230912931
 20
87.63375881306808
 30
0.0
 11
17.47378235681303
 21
88.55601528279465
 31
0.0
  0
CIRCLE
  5
1A7
330
1F
100
AcDbEntity
  8
0
  6
Continuous
 62
    91
370
    18
100
AcDbCircle
 10
-233.4262160696244
 20
44.49828746907394
 30
0.0
 40
44.5
  0
LINE
  5
1A8
330
1F
100
AcDbEntity
  8
0
  6
Continuous
 62
    91
370
    18
100
AcDbLine
 10
-14.92621797697299
 20
149.4982912837712
 30
0.0
 11
-12.52621835844271
 21
149.4982912837712
 31
0.0
  0
LINE
  5
1A9
330
1F
100
AcDbEntity
  8
0
  6
Continuous
 62
    91
370
    18
100
AcDbLine
 10
-12.52621835844271
 20
149.4982912837712
 30
0.0
 11
-12.52621835844271
 21
153.4982912837712
 31
0.0
  0
LINE
  5
1AA
330
1F
100
AcDbEntity
  8
0
  6
Continuous
 62
    91
370
    18
100
AcDbLine
 10
-12.52621835844271
 20
153.4982912837712
 30
0.0
 11
-6.026218358442712
 21
153.4982912837712
 31
0.0
  0
LINE
  5
1AB
330
1F
100
AcDbEntity
  8
0
  6
Continuous
 62
    91
370
    18
100
AcDbLine
 10
-6.626216832563806
 20
144.4982912837712
 30
0.0
 11
-6.626216832563806
 21
138.9982912837712
 31
0.0
  0
ARC
  5
1AC
330
1F
100
AcDbEntity
  8
0
  6
Continuous
 62
    91
370
    18
100
AcDbCircle
 10
-6.026218358442712
 20
149.9982912837712
 30
0.0
 40
3.5
100
AcDbArc
 50
314.9999999999993
 51
89.9999999999999
  0
LINE
  5
1AD
330
1F
100
AcDbEntity
  8
0
  6
Continuous
 62
    91
370
    18
100
AcDbLine
 10
-6.626216832563806
 20
144.4982912837712
 30
0.0
 11
-3.551343861982751
 21
147.5234072505681
 31
0.0
  0
LINE
  5
1AE
330
1F
100
AcDbEntity
  8
0
  6
Continuous
 62
    91
370
    18
100
AcDbLine
 10
-6.626216832563806
 20
138.9982912837712
 30
0.0
 11
-2.526218358442712
 21
138.9982912837712
 31
0.0
  0
LINE
  5
1AF
330
1F
100
AcDbEntity
  8
0
  6
Continuous
 62
    91
370
    18
100
AcDbLine
 10
-6.926217976973017
 20
106.9982836543768
 30
0.0
 11
-2.526217976972983
 21
106.9982836543767
 31
0.0
  0
LINE
  5
1B0
330
1F
100
AcDbEntity
  8
0
  6
Continuous
 62
    91
370
    18
100
AcDbLine
 10
-11.92621797697299
 20
103.4982836543767
 30
0.0
 11
-14.12621797697298
 21
103.4982836543767
 31
0.0
  0
LINE
  5
1B1
330
1F
100
AcDbEntity
  8
0
  6
Continuous
 62
    91
370
    18
100
AcDbLine
 10
-3.926217976972985
 20
78.24828365437668
 30
0.0
 11
-3.926217976972985
 21
-12.25171443827469
 31
0.0
  0
LINE
  5
1B2
330
1F
100
AcDbEntity
  8
0
  6
Continuous
 62
    91
370
    18
100
AcDbLine
 10
-11.92621797697299
 20
-14.50171443827469
 30
0.0
 11
-11.92621797697299
 21
-16.50171443827469
 31
0.0
  0
LINE
  5
1B3
330
1F
100
AcDbEntity
  8
0
  6
Continuous
 62
    91
370
    18
100
AcDbLine
 10
-11.92621797697299
 20
-16.50171443827469
 30
0.0
 11
-14.92621797697299
 21
-16.50171443827469
 31
0.0
  0
LINE
  5
1B4
330
1F
100
AcDbEntity
  8
0
  6
Continuous
 62
    91
370
    18
100
AcDbLine
 10
-14.12621797697298
 20
12.99828603856247
 30
0.0
 11
-3.926217976972985
 21
12.99828603856247
 31
0.0
  0
LINE
  5
1B5
330
1F
100
AcDbEntity
  8
0
  6
Continuous
 62
    91
370
    18
100
AcDbLine
 10
-14.92621797697299
 20
-60.50171634562332
 30
0.0
 11
-11.52621835844271
 21
-60.50171634562332
 31
0.0
  0
LINE
  5
1B6
330
1F
100
AcDbEntity
  8
0
  6
Continuous
 62
    91
370
    18
100
AcDbLine
 10
-11.52621835844271
 20
-60.50171634562332
 30
0.0
 11
-11.52621835844271
 21
-64.50171634562332
 31
0.0
  0
LINE
  5
1B7
330
1F
100
AcDbEntity
  8
0
  6
Continuous
 62
    91
370
    18
100
AcDbLine
 10
-11.52621835844271
 20
-64.50171634562332
 30
0.0
 11
-6.026218358442712
 21
-64.50171634562332
 31
0.0
  0
LINE
  5
1B8
330
1F
100
AcDbEntity
  8
0
  6
Continuous
 62
    91
370
    18
100
AcDbLine
 10
-6.626216832563806
 20
-55.50171253092606
 30
0.0
 11
-6.626216832563806
 21
-50.00171253092606
 31
0.0
  0
LINE
  5
1B9
330
1F
100
AcDbEntity
  8
0
  6
Continuous
 62
    91
370
    18
100
AcDbLine
 10
-5.626216832563806
 20
-18.00171443827469
 30
0.0
 11
-5.626216832563806
 21
-12.25171443827469
 31
0.0
  0
ARC
  5
1BA
330
1F
100
AcDbEntity
  8
0
  6
Continuous
 62
    91
370
    18
100
AcDbCircle
 10
-6.026218358442712
 20
-61.00171634562332
 30
0.0
 40
3.5
100
AcDbArc
 50
269.9999999999997
 51
45.00000000000041
  0
LINE
  5
1BB
330
1F
100
AcDbEntity
  8
0
  6
Continuous
 62
    91
370
    18
100
AcDbLine
 10
-6.626216832563806
 20
-55.50171253092606
 30
0.0
 11
-3.551343861982751
 21
-58.52683994181473
 31
0.0
  0
LINE
  5
1BC
330
1F
100
AcDbEntity
  8
0
  6
Continuous
 62
    91
370
    18
100
AcDbLine
 10
-6.626216832563806
 20
-50.00171253092606
 30
0.0
 11
-2.526218358442712
 21
-50.00171253092606
 31
0.0
  0
LINE
  5
1BD
330
1F
100
AcDbEntity
  8
0
  6
Continuous
 62
    91
370
    18
100
AcDbLine
 10
-5.626216832563806
 20
-18.00171443827469
 30
0.0
 11
-2.526217976972987
 21
-18.00171443827469
 31
0.0
  0
LINE
  5
1BE
330
1F
100
AcDbEntity
  8
0
  6
Continuous
 62
    91
370
    18
100
AcDbLine
 10
-11.92621797697299
 20
-14.50171443827469
 30
0.0
 11
-14.12621797697298
 21
-14.50171443827469
 31
0.0
  0
LINE
  5
1BF
330
1F
100
AcDbEntity
  8
0
  6
Continuous
 62
    91
370
    18
100
AcDbLine
 10
-3.926217976972985
 20
-12.25171443827469
 30
0.0
 11
-5.626216832563806
 21
-12.25171443827469
 31
0.0
  0
LINE
  5
1C0
330
1F
100
AcDbEntity
  8
0
  6
Continuous
 62
    91
370
    18
100
AcDbLine
 10
-228.9262160696244
 20
151.4982874690739
 30
0.0
 11
-237.9262160696244
 21
151.4982874690739
 31
0.0
  0
LINE
  5
1C1
330
1F
100
AcDbEntity
  8
0
  6
Continuous
 62
    91
370
    18
100
AcDbLine
 10
-228.9262160696244
 20
151.4982874690739
 30
0.0
 11
-228.9262160696244
 21
148.4008860891277
 31
0.0
  0
LINE
  5
1C2
330
1F
100
AcDbEntity
  8
0
  6
Continuous
 62
    91
370
    18
100
AcDbLine
 10
-237.9262160696244
 20
151.4982874690739
 30
0.0
 11
-237.9262160696244
 21
148.4008860891277
 31
0.0
  0
LINE
  5
1C3
330
1F
100
AcDbEntity
  8
0
  6
Continuous
 62
    91
370
    18
100
AcDbLine
 10
-234.1762160696244
 20
151.4982874690739
 30
0.0
 11
-234.1762160696244
 21
182.1507380305974
 31
0.0
  0
LINE
  5
1C4
330
1F
100
AcDbEntity
  8
0
  6
Continuous
 62
    91
370
    18
100
AcDbLine
 10
-234.1762160696244
 20
186.2972071468083
 30
0.0
 11
-234.1762160696244
 21
196.972912102863
 31
0.0
  0
LINE
  5
1C5
330
1F
100
AcDbEntity
  8
0
  6
Continuous
 62
    91
370
    18
100
AcDbLine
 10
-236.6762160696244
 20
151.4982874690739
 30
0.0
 11
-236.6762160696244
 21
182.1507380305974
 31
0.0
  0
LINE
  5
1C6
330
1F
100
AcDbEntity
  8
0
  6
Continuous
 62
    91
370
    18
100
AcDbLine
 10
-236.6762160696244
 20
186.2972071468083
 30
0.0
 11
-236.6762160696244
 21
196.972912102863
 31
0.0
  0
LINE
  5
1C7
330
1F
100
AcDbEntity
  8
0
  6
Continuous
 62
    91
370
    18
100
AcDbLine
 10
-236.6762160696244
 20
196.972912102863
 30
0.0
 11
-234.1762160696244
 21
196.972912102863
 31
0.0
  0
LINE
  5
1C8
330
1F
100
AcDbEntity
  8
0
  6
Continuous
 62
    91
370
    18
100
AcDbLine
 10
-234.8262160696243
 20
196.972912102863
 30
0.0
 11
-234.8262160696243
 21
216.972912102863
 31
0.0
  0
LINE
  5
1C9
330
1F
100
AcDbEntity
  8
0
  6
Continuous
 62
    91
370
    18
100
AcDbLine
 10
-236.0262160696244
 20
196.972912102863
 30
0.0
 11
-236.0262160696244
 21
216.972912102863
 31
0.0
  0
LINE
  5
1CA
330
1F
100
AcDbEntity
  8
0
  6
Continuous
 62
    91
370
    18
100
AcDbLine
 10
-236.0262160696244
 20
216.972912102863
 30
0.0
 11
-234.8262160696243
 21
216.972912102863
 31
0.0
  0
CIRCLE
  5
1CB
330
1F
100
AcDbEntity
  8
0
  6
Continuous
 62
    91
370
    18
100
AcDbCircle
 10
-235.4262160696244
 20
186.2972071468083
 30
0.0
 40
1.249999999999993
  0
ARC
  5
1CC
330
1F
100
AcDbEntity
  8
0
  6
Continuous
 62
    91
370
    18
100
AcDbCircle
 10
-235.4262160696244
 20
182.1507380305974
 30
0.0
 40
1.249999999999993
100
AcDbArc
 50
0.0
 51
179.9999999999998
  0
LINE
  5
1CD
330
1F
100
AcDbEntity
  8
0
  6
Continuous
 62
    91
370
    18
100
AcDbLine
 10
-230.1762160696244
 20
151.4982874690739
 30
0.0
 11
-230.1762160696244
 21
182.1507380305974
 31
0.0
  0
LINE
  5
1CE
330
1F
100
AcDbEntity
  8
0
  6
Continuous
 62
    91
370
    18
100
AcDbLine
 10
-230.1762160696244
 20
186.2972071468083
 30
0.0
 11
-230.1762160696244
 21
196.972912102863
 31
0.0
  0
LINE
  5
1CF
330
1F
100
AcDbEntity
  8
0
  6
Continuous
 62
    91
370
    18
100
AcDbLine
 10
-232.6762160696244
 20
151.4982874690739
 30
0.0
 11
-232.6762160696244
 21
182.1507380305974
 31
0.0
  0
LINE
  5
1D0
330
1F
100
AcDbEntity
  8
0
  6
Continuous
 62
    91
370
    18
100
AcDbLine
 10
-232.6762160696244
 20
186.2972071468083
 30
0.0
 11
-232.6762160696244
 21
196.972912102863
 31
0.0
  0
LINE
  5
1D1
330
1F
100
AcDbEntity
  8
0
  6
Continuous
 62
    91
370
    18
100
AcDbLine
 10
-232.6762160696244
 20
196.972912102863
 30
0.0
 11
-230.1762160696244
 21
196.972912102863
 31
0.0
  0
LINE
  5
1D2
330
1F
100
AcDbEntity
  8
0
  6
Continuous
 62
    91
370
    18
100
AcDbLine
 10
-230.8262160696243
 20
196.972912102863
 30
0.0
 11
-230.8262160696243
 21
216.972912102863
 31
0.0
  0
LINE
  5
1D3
330
1F
100
AcDbEntity
  8
0
  6
Continuous
 62
    91
370
    18
100
AcDbLine
 10
-232.0262160696244
 20
196.972912102863
 30
0.0
 11
-232.0262160696244
 21
216.972912102863
 31
0.0
  0
LINE
  5
1D4
330
1F
100
AcDbEntity
  8
0
  6
Continuous
 62
    91
370
    18
100
AcDbLine
 10
-232.0262160696244
 20
216.972912102863
 30
0.0
 11
-230.8262160696243
 21
216.972912102863
 31
0.0
  0
CIRCLE
  5
1D5
330
1F
100
AcDbEntity
  8
0
  6
Continuous
 62
    91
370
    18
100
AcDbCircle
 10
-231.4262160696244
 20
186.2972071468083
 30
0.0
 40
1.249999999999993
  0
ARC
  5
1D6
330
1F
100
AcDbEntity
  8
0
  6
Continuous
 62
    91
370
    18
100
AcDbCircle
 10
-231.4262160696244
 20
182.1507380305974
 30
0.0
 40
1.249999999999993
100
AcDbArc
 50
0.0
 51
179.9999999999998
  0
LINE
  5
1D7
330
1F
100
AcDbEntity
  8
0
  6
Continuous
 62
    91
370
    18
100
AcDbLine
 10
14.77378230912931
 20
83.24828365437668
 30
0.0
 11
-0.2262172140335323
 21
83.24828365437668
 31
0.0
  0
LINE
  5
1D8
330
1F
100
AcDbEntity
  8
0
  6
Continuous
 62
    91
370
    18
100
AcDbLine
 10
-51.62621492521517
 20
-5.001713484600373
 30
0.0
 11
-47.12621492521517
 21
-5.001713484600373
 31
0.0
  0
LINE
  5
1D9
330
1F
100
AcDbEntity
  8
0
  6
Continuous
 62
    91
370
    18
100
AcDbLine
 10
-51.62621492521517
 20
-14.00171348460037
 30
0.0
 11
-47.12621492521517
 21
-14.00171348460037
 31
0.0
  0
LINE
  5
1DA
330
1F
100
AcDbEntity
  8
0
  6
Continuous
 62
    91
370
    18
100
AcDbLine
 10
-14.12621797697298
 20
103.4982836543767
 30
0.0
 11
-14.12621797697298
 21
97.74828365437668
 31
0.0
  0
LINE
  5
1DB
330
1F
100
AcDbEntity
  8
0
  6
Continuous
 62
    91
370
    18
100
AcDbLine
 10
-12.12621797697296
 20
99.74828365437665
 30
0.0
 11
-14.12621797697297
 21
101.7482836543766
 31
0.0
  0
LINE
  5
1DC
330
1F
100
AcDbEntity
  8
0
  6
Continuous
 62
    91
370
    18
100
AcDbLine
 10
-14.12621797697298
 20
81.74828365437668
 30
0.0
 11
-14.12621797697298
 21
-14.50171443827469
 31
0.0
  0
LINE
  5
1DD
330
1F
100
AcDbEntity
  8
0
  6
Continuous
 62
    91
370
    18
100
AcDbLine
 10
-12.12621797697298
 20
79.74828365437668
 30
0.0
 11
-14.12621797697298
 21
77.74828365437665
 31
0.0
  0
LINE
  5
1DE
330
1F
100
AcDbEntity
  8
0
  6
Continuous
 62
    91
370
    18
100
AcDbLine
 10
-2.52621797697298
 20
149.9982912837712
 30
0.0
 11
-2.52621797697298
 21
100.7482836543767
 31
0.0
  0
LINE
  5
1DF
330
1F
100
AcDbEntity
  8
0
  6
Continuous
 62
    91
370
    18
100
AcDbLine
 10
-2.526217976972983
 20
78.74828365437668
 30
0.0
 11
-2.526217976972983
 21
-61.00171634562332
 31
0.0
  0
LINE
  5
1E0
330
1F
100
AcDbEntity
  8
0
  6
Continuous
 62
    91
370
    18
100
AcDbLine
 10
-6.926217976973017
 20
100.7482836543767
 30
0.0
 11
-0.2262172140335323
 21
100.7482836543767
 31
0.0
  0
LINE
  5
1E1
330
1F
100
AcDbEntity
  8
0
  6
Continuous
 62
    91
370
    18
100
AcDbLine
 10
-6.926217976973017
 20
78.74828365437668
 30
0.0
 11
-0.2262172140335323
 21
78.74828365437668
 31
0.0
  0
LINE
  5
1E2
330
1F
100
AcDbEntity
  8
0
  6
Continuous
 62
    91
370
    18
100
AcDbLine
 10
-6.926217976972985
 20
99.74828365437668
 30
0.0
 11
-12.12621797697296
 21
99.74828365437665
 31
0.0
  0
LINE
  5
1E3
330
1F
100
AcDbEntity
  8
0
  6
Continuous
 62
    91
370
    18
100
AcDbLine
 10
-6.926217976973017
 20
79.74828365437668
 30
0.0
 11
-12.12621797697298
 21
79.74828365437668
 31
0.0
  0
LINE
  5
1E4
330
1F
100
AcDbEntity
  8
0
  6
Continuous
 62
    91
370
    18
100
AcDbLine
 10
-14.12621797697298
 20
97.99828365437668
 30
0.0
 11
-0.2262172140335323
 21
97.99828365437668
 31
0.0
  0
LINE
  5
1E5
330
1F
100
AcDbEntity
  8
0
  6
Continuous
 62
    91
370
    18
100
AcDbLine
 10
-14.12621797697298
 20
81.49828365437668
 30
0.0
 11
-0.2262172140335323
 21
81.49828365437668
 31
0.0
  0
ARC
  5
1E6
330
1F
100
AcDbEntity
  8
0
  6
Continuous
 62
    91
370
    18
100
AcDbCircle
 10
-7.226217976972979
 20
96.9482836543767
 30
0.0
 40
1.2
100
AcDbArc
 50
118.9550243718615
 51
61.04497562813851
  0
ARC
  5
1E7
330
1F
100
AcDbEntity
  8
0
  6
Continuous
 62
    91
370
    18
100
AcDbCircle
 10
-7.226217976972979
 20
82.54828365437666
 30
0.0
 40
1.2
100
AcDbArc
 50
298.9550243718601
 51
241.0449756281398
  0
LINE
  5
1E8
330
1F
100
AcDbEntity
  8
0
  6
Continuous
 62
    91
370
    18
100
AcDbLine
 10
-14.12621797697298
 20
102.9982874690739
 30
0.0
 11
-8.926217976972985
 21
102.9982874690739
 31
0.0
  0
LINE
  5
1E9
330
1F
100
AcDbEntity
  8
0
  6
Continuous
 62
    91
370
    18
100
AcDbLine
 10
-8.926217976972985
 20
99.74424697122731
 30
0.0
 11
-8.926217976972985
 21
102.9982874690739
 31
0.0
  0
LINE
  5
1EA
330
1F
100
AcDbEntity
  8
0
  6
Continuous
 62
    91
370
    18
100
AcDbLine
 10
-8.926217976972985
 20
79.74828365437665
 30
0.0
 11
-8.926217976972985
 21
75.99828365437668
 31
0.0
  0
LINE
  5
1EB
330
1F
100
AcDbEntity
  8
0
  6
Continuous
 62
    91
370
    18
100
AcDbLine
 10
-6.926217976972985
 20
100.7482836543767
 30
0.0
 11
-6.926217976972985
 21
99.74828365437665
 31
0.0
  0
LINE
  5
1EC
330
1F
100
AcDbEntity
  8
0
  6
Continuous
 62
    91
370
    18
100
AcDbLine
 10
-6.926217976973017
 20
79.74828365437668
 30
0.0
 11
-6.926217976973017
 21
78.74828365437668
 31
0.0
  0
LINE
  5
1ED
330
1F
100
AcDbEntity
  8
0
  6
Continuous
 62
    91
370
    18
100
AcDbLine
 10
-6.926217976973017
 20
106.9982836543767
 30
0.0
 11
-6.926217976973039
 21
100.7482836543767
 31
0.0
  0
ARC
  5
1EE
330
1F
100
AcDbEntity
  8
0
  6
Continuous
 62
    91
370
    18
100
AcDbCircle
 10
239.3000870309615
 20
141.1641543208806
 30
0.0
 40
3.0
100
AcDbArc
 50
262.4999999999997
 51
82.49999982632325
  0
LINE
  5
1EF
330
1F
100
AcDbEntity
  8
0
  6
Continuous
 62
    91
370
    18
100
AcDbLine
 10
238.9085159860397
 20
138.1898196040837
 30
0.0
 11
234.7316818795944
 21
106.4635927974431
 31
0.0
  0
ARC
  5
1F0
330
1F
100
AcDbEntity
  8
0
  6
Continuous
 62
    91
370
    18
100
AcDbCircle
 10
226.5737839303756
 20
44.49828746907394
 30
0.0
 40
100.5
100
AcDbArc
 50
82.49999982632345
 51
97.49999929587358
  0
ARC
  5
1F1
330
1F
100
AcDbEntity
  8
0
  6
Continuous
 62
    91
370
    18
100
AcDbCircle
 10
226.5737839303756
 20
44.49828746907394
 30
0.0
 40
94.49999999999999
100
AcDbArc
 50
82.5
 51
97.49999834160947
  0
ARC
  5
1F2
330
1F
100
AcDbEntity
  8
0
  6
Continuous
 62
    91
370
    18
100
AcDbCircle
 10
323.239662226274
 20
57.22459056965988
 30
0.0
 40
3.0
100
AcDbArc
 50
7.49999999999323
 51
187.499999999999
  0
LINE
  5
1F3
330
1F
100
AcDbEntity
  8
0
  6
Continuous
 62
    91
370
    18
100
AcDbLine
 10
320.2653236872216
 20
56.83300992202589
 30
0.0
 11
275.1330091853271
 21
50.89122856333518
 31
0.0
  0
ARC
  5
1F4
330
1F
100
AcDbEntity
  8
0
  6
Continuous
 62
    91
370
    18
100
AcDbCircle
 10
226.5737839303756
 20
44.49828746907394
 30
0.0
 40
94.49999999999999
100
AcDbArc
 50
352.4999998263232
 51
7.49999834160952
  0
ARC
  5
1F5
330
1F
100
AcDbEntity
  8
0
  6
Continuous
 62
    91
370
    18
100
AcDbCircle
 10
303.9257279001022
 20
103.8525240718571
 30
0.0
 40
3.0
100
AcDbArc
 50
37.49999999999322
 51
217.499999999999
  0
LINE
  5
1F6
330
1F
100
AcDbEntity
  8
0
  6
Continuous
 62
    91
370
    18
100
AcDbLine
 10
301.5660477243209
 20
102.0418627559392
 30
0.0
 11
276.158363398149
 21
82.54587581746262
 31
0.0
  0
ARC
  5
1F7
330
1F
100
AcDbEntity
  8
0
  6
Continuous
 62
    91
370
    18
100
AcDbCircle
 10
316.6520462594772
 20
81.80992153279465
 30
0.0
 40
3.0
100
AcDbArc
 50
202.4999999999994
 51
22.50000000000064
  0
LINE
  5
1F8
330
1F
100
AcDbEntity
  8
0
  6
Continuous
 62
    91
370
    18
100
AcDbLine
 10
313.8804092965865
 20
80.66187313191574
 30
0.0
 11
284.3162613473678
 21
68.41600063435715
 31
0.0
  0
ARC
  5
1F9
330
1F
100
AcDbEntity
  8
0
  6
Continuous
 62
    91
370
    18
100
AcDbCircle
 10
226.5737839303756
 20
44.49828746907394
 30
0.0
 40
100.5
100
AcDbArc
 50
22.50000000000005
 51
37.49999999999984
  0
ARC
  5
1FA
330
1F
100
AcDbEntity
  8
0
  6
Continuous
 62
    91
370
    18
100
AcDbCircle
 10
226.5737839303756
 20
44.49828746907394
 30
0.0
 40
94.49999999999999
100
AcDbArc
 50
22.50000000000005
 51
37.49999999999984
  0
CIRCLE
  5
1FB
330
1F
100
AcDbEntity
  8
0
  6
Continuous
 62
    91
370
    18
100
AcDbCircle
 10
317.8537674508834
 20
68.95668438069504
 30
0.0
 40
4.5
  0
CIRCLE
  5
1FC
330
1F
100
AcDbEntity
  8
0
  6
Continuous
 62
    91
370
    18
100
AcDbCircle
 10
296.6034012399459
 20
63.26266506306808
 30
0.0
 40
4.5
  0
ARC
  5
1FD
330
1F
100
AcDbEntity
  8
0
  6
Continuous
 62
    91
370
    18
100
AcDbCircle
 10
263.8854294381881
 20
134.5765383540837
 30
0.0
 40
3.0
100
AcDbArc
 50
67.4999999999932
 51
247.4999999999989
  0
LINE
  5
1FE
330
1F
100
AcDbEntity
  8
0
  6
Continuous
 62
    91
370
    18
100
AcDbLine
 10
262.7472000680709
 20
131.8286135493962
 30
0.0
 11
248.1512476931579
 21
96.59086165149319
 31
0.0
  0
ARC
  5
1FF
330
1F
100
AcDbEntity
  8
0
  6
Continuous
 62
    91
370
    18
100
AcDbCircle
 10
285.9280167184615
 20
121.8502352534978
 30
0.0
 40
3.0
100
AcDbArc
 50
232.4999999999993
 51
52.5000000000006
  0
LINE
  5
200
330
1F
100
AcDbEntity
  8
0
  6
Continuous
 62
    91
370
    18
100
AcDbLine
 10
284.1017532907272
 20
119.4701769649236
 30
0.0
 11
256.3898521913213
 21
83.35533632663241
 31
0.0
  0
ARC
  5
201
330
1F
100
AcDbEntity
  8
0
  6
Continuous
 62
    91
370
    18
100
AcDbCircle
 10
226.5737839303756
 20
44.49828746907394
 30
0.0
 40
100.5
100
AcDbArc
 50
52.50000000000001
 51
67.49999999999982
  0
ARC
  5
202
330
1F
100
AcDbEntity
  8
0
  6
Continuous
 62
    91
370
    18
100
AcDbCircle
 10
226.5737839303756
 20
44.49828746907394
 30
0.0
 40
94.49999999999999
100
AcDbArc
 50
52.50000000000001
 51
67.49999999999982
  0
CIRCLE
  5
203
330
1F
100
AcDbEntity
  8
0
  6
Continuous
 62
    91
370
    18
100
AcDbCircle
 10
293.3953934274459
 20
111.3198778926579
 30
0.0
 40
4.5
  0
CIRCLE
  5
204
330
1F
100
AcDbEntity
  8
0
  6
Continuous
 62
    91
370
    18
100
AcDbCircle
 10
277.839027460649
 20
95.76352718465012
 30
0.0
 40
4.5
  0
CIRCLE
  5
205
330
1F
100
AcDbEntity
  8
0
  6
Continuous
 62
    91
370
    18
100
AcDbCircle
 10
251.0321884713912
 20
135.778274804279
 30
0.0
 40
4.5
  0
CIRCLE
  5
206
330
1F
100
AcDbEntity
  8
0
  6
Continuous
 62
    91
370
    18
100
AcDbCircle
 10
245.3381729684615
 20
114.5279085933415
 30
0.0
 40
4.5
  0
ARC
  5
207
330
1F
100
AcDbEntity
  8
0
  6
Continuous
 62
    91
370
    18
100
AcDbCircle
 10
226.5737839303756
 20
44.49828746907394
 30
0.0
 40
57.5
100
AcDbArc
 50
22.49999999999996
 51
37.49999999999991
  0
ARC
  5
208
330
1F
100
AcDbEntity
  8
0
  6
Continuous
 62
    91
370
    18
100
AcDbCircle
 10
274.1749954782272
 20
81.0239718257634
 30
0.0
 40
2.5
100
AcDbArc
 50
37.49999999999969
 51
217.4999999999996
  0
ARC
  5
209
330
1F
100
AcDbEntity
  8
0
  6
Continuous
 62
    91
370
    18
100
AcDbCircle
 10
226.5737839303756
 20
44.49828746907394
 30
0.0
 40
62.49999999999999
100
AcDbArc
 50
22.49999999999996
 51
37.49999999999986
  0
ARC
  5
20A
330
1F
100
AcDbEntity
  8
0
  6
Continuous
 62
    91
370
    18
100
AcDbCircle
 10
282.0065689645553
 20
67.45929363362472
 30
0.0
 40
2.5
100
AcDbArc
 50
202.4999999999997
 51
22.49999999999998
  0
ARC
  5
20B
330
1F
100
AcDbEntity
  8
0
  6
Continuous
 62
    91
370
    18
100
AcDbCircle
 10
129.907917078569
 20
57.22459056965999
 30
0.0
 40
3.0
100
AcDbArc
 50
352.4999999999996
 51
172.4999998263235
  0
ARC
  5
20C
330
1F
100
AcDbEntity
  8
0
  6
Continuous
 62
    91
370
    18
100
AcDbCircle
 10
226.5737839303756
 20
44.49828746907394
 30
0.0
 40
100.5
100
AcDbArc
 50
172.4999998263233
 51
187.4999992958735
  0
ARC
  5
20D
330
1F
100
AcDbEntity
  8
0
  6
Continuous
 62
    91
370
    18
100
AcDbCircle
 10
226.5737839303756
 20
44.49828746907394
 30
0.0
 40
94.49999999999999
100
AcDbArc
 50
172.4999999999999
 51
187.4999983416093
  0
ARC
  5
20E
330
1F
100
AcDbEntity
  8
0
  6
Continuous
 62
    91
370
    18
100
AcDbCircle
 10
213.8474808297898
 20
141.1641657649724
 30
0.0
 40
3.0
100
AcDbArc
 50
97.49999999999314
 51
277.4999999999989
  0
LINE
  5
20F
330
1F
100
AcDbEntity
  8
0
  6
Continuous
 62
    91
370
    18
100
AcDbLine
 10
214.2390614774238
 20
138.1898272259199
 30
0.0
 11
218.4158992364124
 21
106.4635916103432
 31
0.0
  0
ARC
  5
210
330
1F
100
AcDbEntity
  8
0
  6
Continuous
 62
    91
370
    18
100
AcDbCircle
 10
167.2195473275926
 20
121.8502314388006
 30
0.0
 40
3.0
100
AcDbArc
 50
127.4999999999931
 51
307.4999999999989
  0
LINE
  5
211
330
1F
100
AcDbEntity
  8
0
  6
Continuous
 62
    91
370
    18
100
AcDbLine
 10
169.0302086435105
 20
119.4905512630194
 30
0.0
 11
196.7577145330292
 21
83.3553343583236
 31
0.0
  0
ARC
  5
212
330
1F
100
AcDbEntity
  8
0
  6
Continuous
 62
    91
370
    18
100
AcDbCircle
 10
189.2621498666551
 20
134.5765497981756
 30
0.0
 40
3.0
100
AcDbArc
 50
292.4999999999993
 51
112.5000000000005
  0
LINE
  5
213
330
1F
100
AcDbEntity
  8
0
  6
Continuous
 62
    91
370
    18
100
AcDbLine
 10
190.410198267534
 20
131.8049128352849
 30
0.0
 11
204.9963323607454
 21
96.59087427455182
 31
0.0
  0
ARC
  5
214
330
1F
100
AcDbEntity
  8
0
  6
Continuous
 62
    91
370
    18
100
AcDbCircle
 10
226.5737839303756
 20
44.49828746907394
 30
0.0
 40
100.5
100
AcDbArc
 50
112.4999999999999
 51
127.4999999999997
  0
ARC
  5
215
330
1F
100
AcDbEntity
  8
0
  6
Continuous
 62
    91
370
    18
100
AcDbCircle
 10
226.5737839303756
 20
44.49828746907394
 30
0.0
 40
94.49999999999999
100
AcDbArc
 50
112.4999999999999
 51
127.4999999999997
  0
CIRCLE
  5
216
330
1F
100
AcDbEntity
  8
0
  6
Continuous
 62
    91
370
    18
100
AcDbCircle
 10
202.1153870187547
 20
135.7782709895818
 30
0.0
 40
4.5
  0
CIRCLE
  5
217
330
1F
100
AcDbEntity
  8
0
  6
Continuous
 62
    91
370
    18
100
AcDbCircle
 10
207.8094063363816
 20
114.5279047786443
 30
0.0
 40
4.5
  0
ARC
  5
218
330
1F
100
AcDbEntity
  8
0
  6
Continuous
 62
    91
370
    18
100
AcDbCircle
 10
136.4955330453659
 20
81.80993297688656
 30
0.0
 40
3.0
100
AcDbArc
 50
157.4999999999931
 51
337.4999999999989
  0
LINE
  5
219
330
1F
100
AcDbEntity
  8
0
  6
Continuous
 62
    91
370
    18
100
AcDbLine
 10
139.2434578500534
 20
80.67170360676937
 30
0.0
 11
168.8313176235935
 21
68.41601279591771
 31
0.0
  0
ARC
  5
21A
330
1F
100
AcDbEntity
  8
0
  6
Continuous
 62
    91
370
    18
100
AcDbCircle
 10
149.2218361459519
 20
103.85252025716
 30
0.0
 40
3.0
100
AcDbArc
 50
322.4999999999992
 51
142.5000000000005
  0
LINE
  5
21B
330
1F
100
AcDbEntity
  8
0
  6
Continuous
 62
    91
370
    18
100
AcDbLine
 10
151.6018944345261
 20
102.0262568294256
 30
0.0
 11
176.9891980438153
 21
82.54588714297358
 31
0.0
  0
ARC
  5
21C
330
1F
100
AcDbEntity
  8
0
  6
Continuous
 62
    91
370
    18
100
AcDbCircle
 10
226.5737839303756
 20
44.49828746907394
 30
0.0
 40
100.5
100
AcDbArc
 50
142.4999999999999
 51
157.4999999999997
  0
ARC
  5
21D
330
1F
100
AcDbEntity
  8
0
  6
Continuous
 62
    91
370
    18
100
AcDbCircle
 10
226.5737839303756
 20
44.49828746907394
 30
0.0
 40
94.49999999999999
100
AcDbArc
 50
142.4999999999999
 51
157.4999999999997
  0
CIRCLE
  5
21E
330
1F
100
AcDbEntity
  8
0
  6
Continuous
 62
    91
370
    18
100
AcDbCircle
 10
159.7521935067917
 20
111.3198969661444
 30
0.0
 40
4.5
  0
CIRCLE
  5
21F
330
1F
100
AcDbEntity
  8
0
  6
Continuous
 62
    91
370
    18
100
AcDbCircle
 10
175.3085442147995
 20
95.76353099934744
 30
0.0
 40
4.5
  0
CIRCLE
  5
220
330
1F
100
AcDbEntity
  8
0
  6
Continuous
 62
    91
370
    18
100
AcDbCircle
 10
135.2937965951706
 20
68.95669201008968
 30
0.0
 40
4.5
  0
CIRCLE
  5
221
330
1F
100
AcDbEntity
  8
0
  6
Continuous
 62
    91
370
    18
100
AcDbCircle
 10
156.5441628061081
 20
63.26267650715999
 30
0.0
 40
4.5
  0
ARC
  5
222
330
1F
100
AcDbEntity
  8
0
  6
Continuous
 62
    91
370
    18
100
AcDbCircle
 10
213.8474808297894
 20
-52.1675793827327
 30
0.0
 40
3.0
100
AcDbArc
 50
82.49999999999987
 51
262.4999998263233
  0
LINE
  5
223
330
1F
100
AcDbEntity
  8
0
  6
Continuous
 62
    91
370
    18
100
AcDbLine
 10
214.2390518747113
 20
-49.19324466593582
 30
0.0
 11
218.4158859811567
 21
-17.4670178592952
 31
0.0
  0
ARC
  5
224
330
1F
100
AcDbEntity
  8
0
  6
Continuous
 62
    91
370
    18
100
AcDbCircle
 10
226.5737839303756
 20
44.49828746907394
 30
0.0
 40
100.5
100
AcDbArc
 50
262.4999998263232
 51
277.4999992958734
  0
ARC
  5
225
330
1F
100
AcDbEntity
  8
0
  6
Continuous
 62
    91
370
    18
100
AcDbCircle
 10
226.5737839303756
 20
44.49828746907394
 30
0.0
 40
94.49999999999999
100
AcDbArc
 50
262.4999999999998
 51
277.4999983416093
  0
ARC
  5
226
330
1F
100
AcDbEntity
  8
0
  6
Continuous
 62
    91
370
    18
100
AcDbCircle
 10
129.9079056344772
 20
31.77198436848835
 30
0.0
 40
3.0
100
AcDbArc
 50
187.499999999993
 51
7.499999999999178
  0
LINE
  5
227
330
1F
100
AcDbEntity
  8
0
  6
Continuous
 62
    91
370
    18
100
AcDbLine
 10
132.8822441735297
 20
32.16356501612233
 30
0.0
 11
170.6715546505756
 21
37.13862164746027
 31
0.0
  0
ARC
  5
228
330
1F
100
AcDbEntity
  8
0
  6
Continuous
 62
    91
370
    18
100
AcDbCircle
 10
149.2218399606489
 20
-14.85594913370903
 30
0.0
 40
3.0
100
AcDbArc
 50
217.499999999993
 51
37.49999999999914
  0
LINE
  5
229
330
1F
100
AcDbEntity
  8
0
  6
Continuous
 62
    91
370
    18
100
AcDbLine
 10
151.5815201364301
 20
-13.04528781779106
 30
0.0
 11
176.9892044626021
 21
6.450699120685385
 31
0.0
  0
ARC
  5
22A
330
1F
100
AcDbEntity
  8
0
  6
Continuous
 62
    91
370
    18
100
AcDbCircle
 10
136.4955216012739
 20
7.186653405353582
 30
0.0
 40
3.0
100
AcDbArc
 50
22.49999999999953
 51
202.5000000000004
  0
LINE
  5
22B
330
1F
100
AcDbEntity
  8
0
  6
Continuous
 62
    91
370
    18
100
AcDbLine
 10
139.2671585641646
 20
8.334701806232374
 30
0.0
 11
168.8313065133834
 21
20.58057430379097
 31
0.0
  0
ARC
  5
22C
330
1F
100
AcDbEntity
  8
0
  6
Continuous
 62
    91
370
    18
100
AcDbCircle
 10
226.5737839303756
 20
44.49828746907394
 30
0.0
 40
100.5
100
AcDbArc
 50
202.4999999999998
 51
217.4999999999996
  0
ARC
  5
22D
330
1F
100
AcDbEntity
  8
0
  6
Continuous
 62
    91
370
    18
100
AcDbCircle
 10
226.5737839303756
 20
44.49828746907394
 30
0.0
 40
94.49999999999999
100
AcDbArc
 50
202.4999999999998
 51
217.4999999999996
  0
CIRCLE
  5
22E
330
1F
100
AcDbEntity
  8
0
  6
Continuous
 62
    91
370
    18
100
AcDbCircle
 10
135.2938004098677
 20
20.03989055745319
 30
0.0
 40
4.5
  0
CIRCLE
  5
22F
330
1F
100
AcDbEntity
  8
0
  6
Continuous
 62
    91
370
    18
100
AcDbCircle
 10
156.5441666208053
 20
25.73390987508003
 30
0.0
 40
4.5
  0
ARC
  5
230
330
1F
100
AcDbEntity
  8
0
  6
Continuous
 62
    91
370
    18
100
AcDbCircle
 10
189.2621384225628
 20
-45.57996341593571
 30
0.0
 40
3.0
100
AcDbArc
 50
247.499999999993
 51
67.4999999999991
  0
LINE
  5
231
330
1F
100
AcDbEntity
  8
0
  6
Continuous
 62
    91
370
    18
100
AcDbLine
 10
190.40036779268
 20
-42.83203861124821
 30
0.0
 11
207.8306061429898
 21
-0.7517139614373676
 31
0.0
  0
ARC
  5
232
330
1F
100
AcDbEntity
  8
0
  6
Continuous
 62
    91
370
    18
100
AcDbCircle
 10
167.2195511422894
 20
-32.85366031534966
 30
0.0
 40
3.0
100
AcDbArc
 50
52.4999999999995
 51
232.5000000000004
  0
LINE
  5
233
330
1F
100
AcDbEntity
  8
0
  6
Continuous
 62
    91
370
    18
100
AcDbLine
 10
169.0458145700238
 20
-30.47360202677544
 30
0.0
 11
192.2490012632898
 21
-0.2346304483952508
 31
0.0
  0
ARC
  5
234
330
1F
100
AcDbEntity
  8
0
  6
Continuous
 62
    91
370
    18
100
AcDbCircle
 10
226.5737839303756
 20
44.49828746907394
 30
0.0
 40
100.5
100
AcDbArc
 50
232.4999999999998
 51
247.4999999999996
  0
ARC
  5
235
330
1F
100
AcDbEntity
  8
0
  6
Continuous
 62
    91
370
    18
100
AcDbCircle
 10
226.5737839303756
 20
44.49828746907394
 30
0.0
 40
94.49999999999999
100
AcDbArc
 50
232.4999999999998
 51
247.4999999999996
  0
CIRCLE
  5
236
330
1F
100
AcDbEntity
  8
0
  6
Continuous
 62
    91
370
    18
100
AcDbCircle
 10
159.7521744333051
 20
-22.32330295450981
 30
0.0
 40
4.5
  0
CIRCLE
  5
237
330
1F
100
AcDbEntity
  8
0
  6
Continuous
 62
    91
370
    18
100
AcDbCircle
 10
175.308540400102
 20
-6.766952246502115
 30
0.0
 40
4.5
  0
CIRCLE
  5
238
330
1F
100
AcDbEntity
  8
0
  6
Continuous
 62
    91
370
    18
100
AcDbCircle
 10
202.1153793893597
 20
-46.78169986613102
 30
0.0
 40
4.5
  0
CIRCLE
  5
239
330
1F
100
AcDbEntity
  8
0
  6
Continuous
 62
    91
370
    18
100
AcDbCircle
 10
207.8093948922895
 20
-25.53133365519352
 30
0.0
 40
4.5
  0
ARC
  5
23A
330
1F
100
AcDbEntity
  8
0
  6
Continuous
 62
    91
370
    18
100
AcDbCircle
 10
323.2396507821823
 20
31.77198436848755
 30
0.0
 40
3.0
100
AcDbArc
 50
172.4999999999998
 51
352.4999998263231
  0
LINE
  5
23B
330
1F
100
AcDbEntity
  8
0
  6
Continuous
 62
    91
370
    18
100
AcDbLine
 10
320.2653160653854
 20
32.16355541340943
 30
0.0
 11
282.476017253482
 21
37.13860753978395
 31
0.0
  0
ARC
  5
23C
330
1F
100
AcDbEntity
  8
0
  6
Continuous
 62
    91
370
    18
100
AcDbCircle
 10
226.5737839303756
 20
44.49828746907394
 30
0.0
 40
100.5
100
AcDbArc
 50
352.4999998263232
 51
7.499999295873683
  0
ARC
  5
23D
330
1F
100
AcDbEntity
  8
0
  6
Continuous
 62
    91
370
    18
100
AcDbCircle
 10
239.3000870309611
 20
-52.16759082682449
 30
0.0
 40
3.0
100
AcDbArc
 50
277.4999999999929
 51
97.49999999999913
  0
LINE
  5
23E
330
1F
100
AcDbEntity
  8
0
  6
Continuous
 62
    91
370
    18
100
AcDbLine
 10
238.9085063833271
 20
-49.193252287772
 30
0.0
 11
234.7316696669684
 21
-17.46702459175538
 31
0.0
  0
ARC
  5
23F
330
1F
100
AcDbEntity
  8
0
  6
Continuous
 62
    91
370
    18
100
AcDbCircle
 10
285.9280205331585
 20
-32.85365650065296
 30
0.0
 40
3.0
100
AcDbArc
 50
307.4999999999929
 51
127.4999999999991
  0
LINE
  5
240
330
1F
100
AcDbEntity
  8
0
  6
Continuous
 62
    91
370
    18
100
AcDbLine
 10
284.1173592172405
 20
-30.49397632487171
 30
0.0
 11
260.8985646597712
 21
-0.2346309317872439
 31
0.0
  0
ARC
  5
241
330
1F
100
AcDbEntity
  8
0
  6
Continuous
 62
    91
370
    18
100
AcDbCircle
 10
263.8854179940959
 20
-45.57997486002785
 30
0.0
 40
3.0
100
AcDbArc
 50
112.4999999999994
 51
292.5000000000003
  0
LINE
  5
242
330
1F
100
AcDbEntity
  8
0
  6
Continuous
 62
    91
370
    18
100
AcDbLine
 10
262.737369593217
 20
-42.80833789713722
 30
0.0
 11
245.3169434987807
 21
-0.7517139614373676
 31
0.0
  0
ARC
  5
243
330
1F
100
AcDbEntity
  8
0
  6
Continuous
 62
    91
370
    18
100
AcDbCircle
 10
226.5737839303756
 20
44.49828746907394
 30
0.0
 40
100.5
100
AcDbArc
 50
292.4999999999997
 51
307.4999999999995
  0
ARC
  5
244
330
1F
100
AcDbEntity
  8
0
  6
Continuous
 62
    91
370
    18
100
AcDbCircle
 10
226.5737839303756
 20
44.49828746907394
 30
0.0
 40
94.49999999999999
100
AcDbArc
 50
292.4999999999997
 51
307.4999999999995
  0
CIRCLE
  5
245
330
1F
100
AcDbEntity
  8
0
  6
Continuous
 62
    91
370
    18
100
AcDbCircle
 10
251.0321808419963
 20
-46.78169605143398
 30
0.0
 40
4.5
  0
CIRCLE
  5
246
330
1F
100
AcDbEntity
  8
0
  6
Continuous
 62
    91
370
    18
100
AcDbCircle
 10
245.3381615243694
 20
-25.53132984049648
 30
0.0
 40
4.5
  0
ARC
  5
247
330
1F
100
AcDbEntity
  8
0
  6
Continuous
 62
    91
370
    18
100
AcDbCircle
 10
316.6520348153852
 20
7.186641961260989
 30
0.0
 40
3.0
100
AcDbArc
 50
337.4999999999929
 51
157.4999999999991
  0
LINE
  5
248
330
1F
100
AcDbEntity
  8
0
  6
Continuous
 62
    91
370
    18
100
AcDbLine
 10
313.9041100106977
 20
8.324871331378176
 30
0.0
 11
284.3162576170124
 21
20.5805590853945
 31
0.0
  0
ARC
  5
249
330
1F
100
AcDbEntity
  8
0
  6
Continuous
 62
    91
370
    18
100
AcDbCircle
 10
303.9257317147992
 20
-14.85594531901233
 30
0.0
 40
3.0
100
AcDbArc
 50
142.4999999999994
 51
322.5000000000003
  0
LINE
  5
24A
330
1F
100
AcDbEntity
  8
0
  6
Continuous
 62
    91
370
    18
100
AcDbLine
 10
301.545673426225
 20
-13.02968189127796
 30
0.0
 11
276.1583634797124
 21
6.45069265789823
 31
0.0
  0
ARC
  5
24B
330
1F
100
AcDbEntity
  8
0
  6
Continuous
 62
    91
370
    18
100
AcDbCircle
 10
226.5737839303756
 20
44.49828746907394
 30
0.0
 40
100.5
100
AcDbArc
 50
322.4999999999997
 51
337.4999999999995
  0
ARC
  5
24C
330
1F
100
AcDbEntity
  8
0
  6
Continuous
 62
    91
370
    18
100
AcDbCircle
 10
226.5737839303756
 20
44.49828746907394
 30
0.0
 40
94.49999999999999
100
AcDbArc
 50
322.4999999999997
 51
337.4999999999995
  0
CIRCLE
  5
24D
330
1F
100
AcDbEntity
  8
0
  6
Continuous
 62
    91
370
    18
100
AcDbCircle
 10
293.3953743539593
 20
-22.32332202799671
 30
0.0
 40
4.5
  0
CIRCLE
  5
24E
330
1F
100
AcDbEntity
  8
0
  6
Continuous
 62
    91
370
    18
100
AcDbCircle
 10
277.8390236459516
 20
-6.766956061199721
 30
0.0
 40
4.5
  0
CIRCLE
  5
24F
330
1F
100
AcDbEntity
  8
0
  6
Continuous
 62
    91
370
    18
100
AcDbCircle
 10
317.8537712655806
 20
20.03988292805786
 30
0.0
 40
4.5
  0
CIRCLE
  5
250
330
1F
100
AcDbEntity
  8
0
  6
Continuous
 62
    91
370
    18
100
AcDbCircle
 10
296.6034050546431
 20
25.73389843098767
 30
0.0
 40
4.5
  0
ARC
  5
251
330
1F
100
AcDbEntity
  8
0
  6
Continuous
 62
    91
370
    18
100
AcDbCircle
 10
226.5737839303756
 20
44.49828746907394
 30
0.0
 40
57.5
100
AcDbArc
 50
142.4999999999999
 51
157.4999999999998
  0
ARC
  5
252
330
1F
100
AcDbEntity
  8
0
  6
Continuous
 62
    91
370
    18
100
AcDbCircle
 10
178.9725723825241
 20
81.0239718257634
 30
0.0
 40
2.5
100
AcDbArc
 50
322.4999999999998
 51
142.5000000000001
  0
ARC
  5
253
330
1F
100
AcDbEntity
  8
0
  6
Continuous
 62
    91
370
    18
100
AcDbCircle
 10
226.5737839303756
 20
44.49828746907394
 30
0.0
 40
62.49999999999999
100
AcDbArc
 50
142.4999999999999
 51
157.4999999999998
  0
ARC
  5
254
330
1F
100
AcDbEntity
  8
0
  6
Continuous
 62
    91
370
    18
100
AcDbCircle
 10
171.140998896196
 20
67.45929363362472
 30
0.0
 40
2.5
100
AcDbArc
 50
157.4999999999998
 51
337.4999999999997
  0
LINE
  5
255
330
1F
100
AcDbEntity
  8
0
  6
Continuous
 62
    91
370
    18
100
AcDbLine
 10
132.8822517953659
 20
56.83301952473812
 30
0.0
 11
178.014566269084
 21
50.89124171593838
 31
0.0
  0
ARC
  5
256
330
1F
100
AcDbEntity
  8
0
  6
Continuous
 62
    91
370
    18
100
AcDbCircle
 10
226.5737839303756
 20
44.49828746907394
 30
0.0
 40
57.5
100
AcDbArc
 50
262.4999999999997
 51
277.4999999999997
  0
ARC
  5
257
330
1F
100
AcDbEntity
  8
0
  6
Continuous
 62
    91
370
    18
100
AcDbCircle
 10
234.4053486999545
 20
-14.98841316062749
 30
0.0
 40
2.5
100
AcDbArc
 50
277.4999999999994
 51
97.49999999999963
  0
ARC
  5
258
330
1F
100
AcDbEntity
  8
0
  6
Continuous
 62
    91
370
    18
100
AcDbCircle
 10
226.5737839303756
 20
44.49828746907394
 30
0.0
 40
62.49999999999999
100
AcDbArc
 50
262.4999999999997
 51
277.4999999999995
  0
ARC
  5
259
330
1F
100
AcDbEntity
  8
0
  6
Continuous
 62
    91
370
    18
100
AcDbCircle
 10
218.7422060482376
 20
-14.98841565532291
 30
0.0
 40
2.5
100
AcDbArc
 50
82.49999999999982
 51
262.4999999999997
  0
LINE
  5
25A
330
1F
100
AcDbEntity
  8
0
  6
Continuous
 62
    91
370
    18
100
AcDbLine
 10
225.8237839303756
 20
153.4957071633034
 30
0.0
 11
225.8237839303756
 21
182.1507380305974
 31
0.0
  0
LINE
  5
25B
330
1F
100
AcDbEntity
  8
0
  6
Continuous
 62
    91
370
    18
100
AcDbLine
 10
223.3237839303756
 20
153.4498248607051
 30
0.0
 11
223.3237839303756
 21
182.1507380305974
 31
0.0
  0
LINE
  5
25C
330
1F
100
AcDbEntity
  8
0
  6
Continuous
 62
    91
370
    18
100
AcDbLine
 10
229.8237839303756
 20
153.4498248607051
 30
0.0
 11
229.8237839303756
 21
182.1507380305974
 31
0.0
  0
LINE
  5
25D
330
1F
100
AcDbEntity
  8
0
  6
Continuous
 62
    91
370
    18
100
AcDbLine
 10
227.3237839303756
 20
153.4957071633034
 30
0.0
 11
227.3237839303756
 21
182.1507380305974
 31
0.0
  0
CIRCLE
  5
25E
330
1F
100
AcDbEntity
  8
0
  6
Continuous
 62
    91
370
    18
100
AcDbCircle
 10
224.5737839303756
 20
182.1507380305974
 30
0.0
 40
1.25
  0
CIRCLE
  5
25F
330
1F
100
AcDbEntity
  8
0
  6
Continuous
 62
    91
370
    18
100
AcDbCircle
 10
228.5737839303756
 20
182.1507380305974
 30
0.0
 40
1.25
  0
LINE
  5
260
330
1F
100
AcDbEntity
  8
0
  6
Continuous
 62
    91
370
    18
100
AcDbLine
 10
225.8237839303756
 20
186.2972071468083
 30
0.0
 11
225.8237839303756
 21
196.972912102863
 31
0.0
  0
LINE
  5
261
330
1F
100
AcDbEntity
  8
0
  6
Continuous
 62
    91
370
    18
100
AcDbLine
 10
223.3237839303756
 20
186.2972071468083
 30
0.0
 11
223.3237839303756
 21
196.972912102863
 31
0.0
  0
LINE
  5
262
330
1F
100
AcDbEntity
  8
0
  6
Continuous
 62
    91
370
    18
100
AcDbLine
 10
223.3237839303756
 20
196.972912102863
 30
0.0
 11
225.8237839303756
 21
196.972912102863
 31
0.0
  0
ARC
  5
263
330
1F
100
AcDbEntity
  8
0
  6
Continuous
 62
    91
370
    18
100
AcDbCircle
 10
224.5737839303756
 20
186.2972071468083
 30
0.0
 40
1.249999999999993
100
AcDbArc
 50
179.9999999999998
 51
0.0
  0
LINE
  5
264
330
1F
100
AcDbEntity
  8
0
  6
Continuous
 62
    91
370
    18
100
AcDbLine
 10
229.8237839303756
 20
186.2972071468083
 30
0.0
 11
229.8237839303756
 21
196.972912102863
 31
0.0
  0
LINE
  5
265
330
1F
100
AcDbEntity
  8
0
  6
Continuous
 62
    91
370
    18
100
AcDbLine
 10
227.3237839303756
 20
186.2972071468083
 30
0.0
 11
227.3237839303756
 21
196.972912102863
 31
0.0
  0
LINE
  5
266
330
1F
100
AcDbEntity
  8
0
  6
Continuous
 62
    91
370
    18
100
AcDbLine
 10
227.3237839303756
 20
196.972912102863
 30
0.0
 11
229.8237839303756
 21
196.972912102863
 31
0.0
  0
ARC
  5
267
330
1F
100
AcDbEntity
  8
0
  6
Continuous
 62
    91
370
    18
100
AcDbCircle
 10
228.5737839303756
 20
186.2972071468083
 30
0.0
 40
1.249999999999993
100
AcDbArc
 50
179.9999999999998
 51
0.0
  0
LINE
  5
268
330
1F
100
AcDbEntity
  8
0
  6
Continuous
 62
    91
370
    18
100
AcDbLine
 10
225.1737839303757
 20
196.972912102863
 30
0.0
 11
225.1737839303757
 21
216.972912102863
 31
0.0
  0
LINE
  5
269
330
1F
100
AcDbEntity
  8
0
  6
Continuous
 62
    91
370
    18
100
AcDbLine
 10
223.9737839303756
 20
196.972912102863
 30
0.0
 11
223.9737839303756
 21
216.972912102863
 31
0.0
  0
LINE
  5
26A
330
1F
100
AcDbEntity
  8
0
  6
Continuous
 62
    91
370
    18
100
AcDbLine
 10
223.9737839303756
 20
216.972912102863
 30
0.0
 11
225.1737839303757
 21
216.972912102863
 31
0.0
  0
LINE
  5
26B
330
1F
100
AcDbEntity
  8
0
  6
Continuous
 62
    91
370
    18
100
AcDbLine
 10
229.1737839303757
 20
196.972912102863
 30
0.0
 11
229.1737839303757
 21
216.972912102863
 31
0.0
  0
LINE
  5
26C
330
1F
100
AcDbEntity
  8
0
  6
Continuous
 62
    91
370
    18
100
AcDbLine
 10
227.9737839303756
 20
196.972912102863
 30
0.0
 11
227.9737839303756
 21
216.972912102863
 31
0.0
  0
LINE
  5
26D
330
1F
100
AcDbEntity
  8
0
  6
Continuous
 62
    91
370
    18
100
AcDbLine
 10
227.9737839303756
 20
216.972912102863
 30
0.0
 11
229.1737839303757
 21
216.972912102863
 31
0.0
  0
CIRCLE
  5
26E
330
1F
100
AcDbEntity
  8
0
  6
Continuous
 62
    91
370
    18
100
AcDbCircle
 10
226.5737839303756
 20
44.49828746907394
 30
0.0
 40
104.0
  0
CIRCLE
  5
26F
330
1F
100
AcDbEntity
  8
0
  6
Continuous
 62
    91
370
    18
100
AcDbCircle
 10
226.5737839303756
 20
44.49828746907394
 30
0.0
 40
109.0
  0
LINE
  5
270
330
1F
100
AcDbEntity
  8
0
  6
Continuous
 62
    91
370
    18
100
AcDbLine
 10
-0.2262172140335323
 20
104.4982836543767
 30
0.0
 11
14.77378230912931
 21
104.4982836543767
 31
0.0
  0
LINE
  5
271
330
1F
100
AcDbEntity
  8
0
  6
Continuous
 62
    91
370
    18
100
AcDbLine
 10
44.77378278596647
 20
4.248286157771759
 30
0.0
 11
44.77378278596647
 21
82.58254161272038
 31
0.0
  0
ARC
  5
272
330
1F
100
AcDbEntity
  8
0
  6
Continuous
 62
    91
370
    18
100
AcDbCircle
 10
39.77378278596647
 20
82.58254161272038
 30
0.0
 40
5.0
100
AcDbArc
 50
0.0
 51
89.9999999999999
  0
ARC
  5
273
330
1F
100
AcDbEntity
  8
0
  6
Continuous
 62
    91
370
    18
100
AcDbCircle
 10
39.77378278596647
 20
4.248286157771759
 30
0.0
 40
5.0
100
AcDbArc
 50
269.9999999999997
 51
0.0
  0
LINE
  5
274
330
1F
100
AcDbEntity
  8
0
  6
Continuous
 62
    91
370
    18
100
AcDbLine
 10
14.77378230912931
 20
75.74828365437668
 30
0.0
 11
14.77378230912931
 21
104.4982836543767
 31
0.0
  0
LINE
  5
275
330
1F
100
AcDbEntity
  8
0
  6
Continuous
 62
    91
370
    18
100
AcDbLine
 10
39.77378278596647
 20
-0.751713961437531
 30
0.0
 11
-0.2262172140335323
 21
-0.751713961437531
 31
0.0
  0
LINE
  5
276
330
1F
100
AcDbEntity
  8
0
  6
Continuous
 62
    91
370
    18
100
AcDbLine
 10
-0.2262172140335323
 20
104.4982836543767
 30
0.0
 11
-0.2262172140335323
 21
-0.751713961437531
 31
0.0
  0
LINE
  5
277
330
1F
100
AcDbEntity
  8
0
  6
Continuous
 62
    91
370
    18
100
AcDbLine
 10
22.77378230912931
 20
0.248286038562469
 30
0.0
 11
22.77378230912931
 21
-0.751713961437531
 31
0.0
  0
LINE
  5
278
330
1F
100
AcDbEntity
  8
0
  6
Continuous
 62
    91
370
    18
100
AcDbLine
 10
14.77378230912931
 20
75.74828365437668
 30
0.0
 11
44.77378278596647
 21
75.74828365437668
 31
0.0
  0
LINE
  5
279
330
1F
100
AcDbEntity
  8
0
  6
Continuous
 62
    91
370
    18
100
AcDbLine
 10
39.77378278596647
 20
87.58254161272038
 30
0.0
 11
30.77378278596647
 21
87.5825416127204
 31
0.0
  0
LINE
  5
27A
330
1F
100
AcDbEntity
  8
0
  6
Continuous
 62
    91
370
    18
100
AcDbLine
 10
42.77378278596647
 20
0.248286038562469
 30
0.0
 11
36.53093415073309
 21
0.248286038562469
 31
0.0
  0
LINE
  5
27B
330
1F
100
AcDbEntity
  8
0
  6
Continuous
 62
    91
370
    18
100
AcDbLine
 10
29.01663142119984
 20
0.248286038562469
 30
0.0
 11
22.77378230912931
 21
0.248286038562469
 31
0.0
  0
ARC
  5
27C
330
1F
100
AcDbEntity
  8
0
  6
Continuous
 62
    91
370
    18
100
AcDbCircle
 10
226.5737839303769
 20
44.49828746907411
 30
0.0
 40
60.0
100
AcDbArc
 50
198.6422516682412
 51
221.3577483317573
  0
LINE
  5
27D
330
1F
100
AcDbEntity
  8
0
  6
Continuous
 62
    91
370
    18
100
AcDbLine
 10
194.7819290719785
 20
-0.7517139614373676
 30
0.0
 11
258.3656540475644
 21
-0.7517139614373676
 31
0.0
  0
LINE
  5
27E
330
1F
100
AcDbEntity
  8
0
  6
Continuous
 62
    91
370
    18
100
AcDbLine
 10
281.6573563180722
 20
39.59072521321474
 30
0.0
 11
249.8655014596738
 21
94.65584591023622
 31
0.0
  0
ARC
  5
27F
330
1F
100
AcDbEntity
  8
0
  6
Continuous
 62
    91
370
    18
100
AcDbCircle
 10
226.5737839303769
 20
89.74828365437685
 30
0.0
 40
14.0
100
AcDbArc
 50
188.8991733711884
 51
351.1008266288108
  0
ARC
  5
280
330
1F
100
AcDbEntity
  8
0
  6
Continuous
 62
    91
370
    18
100
AcDbCircle
 10
187.3861466012754
 20
21.8732865153998
 30
0.0
 40
14.0
100
AcDbArc
 50
308.8991733711878
 51
111.1008266288105
  0
ARC
  5
281
330
1F
100
AcDbEntity
  8
0
  6
Continuous
 62
    91
370
    18
100
AcDbCircle
 10
265.7614365182675
 20
21.8732865153998
 30
0.0
 40
14.0
100
AcDbArc
 50
68.899173371188
 51
231.1008266288102
  0
ARC
  5
282
330
1F
100
AcDbEntity
  8
0
  6
Continuous
 62
    91
370
    18
100
AcDbCircle
 10
226.5737839303769
 20
75.74828365437685
 30
0.0
 40
30.0
100
AcDbArc
 50
39.0687215460321
 51
66.80455675053487
  0
ARC
  5
283
330
1F
100
AcDbEntity
  8
0
  6
Continuous
 62
    91
370
    18
100
AcDbCircle
 10
226.5737839303769
 20
75.74828365437685
 30
0.0
 40
30.0
100
AcDbArc
 50
113.1954432494649
 51
140.9312784539662
  0
ARC
  5
284
330
1F
100
AcDbEntity
  8
0
  6
Continuous
 62
    91
370
    18
100
AcDbCircle
 10
199.5104904733457
 20
28.87328556172548
 30
0.0
 40
30.0
100
AcDbArc
 50
159.0687215460336
 51
186.8045567505342
  0
ARC
  5
285
330
1F
100
AcDbEntity
  8
0
  6
Continuous
 62
    91
370
    18
100
AcDbCircle
 10
253.6370773874082
 20
28.87328556172548
 30
0.0
 40
30.0
100
AcDbArc
 50
279.0687215460335
 51
306.804556750534
  0
ARC
  5
286
330
1F
100
AcDbEntity
  8
0
  6
Continuous
 62
    91
370
    18
100
AcDbCircle
 10
199.5104904733457
 20
28.87328556172548
 30
0.0
 40
30.0
100
AcDbArc
 50
233.1954432494645
 51
260.9312784539671
  0
ARC
  5
287
330
1F
100
AcDbEntity
  8
0
  6
Continuous
 62
    91
370
    18
100
AcDbCircle
 10
253.6370773874082
 20
28.87328556172548
 30
0.0
 40
30.0
100
AcDbArc
 50
353.1954432494641
 51
20.93127845396966
  0
ARC
  5
288
330
1F
100
AcDbEntity
  8
0
  6
Continuous
 62
    91
370
    18
100
AcDbCircle
 10
226.5737839303769
 20
44.49828746907411
 30
0.0
 40
60.0
100
AcDbArc
 50
318.6422516682407
 51
341.3577483317569
  0
ARC
  5
289
330
1F
100
AcDbEntity
  8
0
  6
Continuous
 62
    91
370
    18
100
AcDbCircle
 10
226.5737839303769
 20
44.49828746907411
 30
0.0
 40
60.0
100
AcDbArc
 50
78.6422516682419
 51
101.3577483317578
  0
ARC
  5
28A
330
1F
100
AcDbEntity
  8
0
  6
Continuous
 62
    91
370
    18
100
AcDbCircle
 10
226.5737839303769
 20
44.49828746907411
 30
0.0
 40
45.25
100
AcDbArc
 50
227.7983467423769
 51
312.2016532576215
  0
ARC
  5
28B
330
1F
100
AcDbEntity
  8
0
  6
Continuous
 62
    91
370
    18
100
AcDbCircle
 10
226.5737839303769
 20
44.49828746907411
 30
0.0
 40
45.25
100
AcDbArc
 50
347.7983467423766
 51
72.20165325762247
  0
LINE
  5
28C
330
1F
100
AcDbEntity
  8
0
  6
Continuous
 62
    91
370
    18
100
AcDbLine
 10
217.113349970416
 20
0.2482860385626324
 30
0.0
 11
236.0342212035548
 21
0.2482860385626324
 31
0.0
  0
LINE
  5
28D
330
1F
100
AcDbEntity
  8
0
  6
Continuous
 62
    91
370
    18
100
AcDbLine
 10
269.6256485544004
 20
58.43030193440615
 30
0.0
 11
260.1651840768613
 21
74.81626918904482
 31
0.0
  0
LINE
  5
28E
330
1F
100
AcDbEntity
  8
0
  6
Continuous
 62
    91
370
    18
100
AcDbLine
 10
192.9823837838925
 20
74.81626918904482
 30
0.0
 11
183.5219498239316
 21
58.43030193440615
 31
0.0
  0
CIRCLE
  5
28F
330
1F
100
AcDbEntity
  8
0
  6
Continuous
 62
    91
370
    18
100
AcDbCircle
 10
263.0737839303769
 20
44.49828746907411
 30
0.0
 40
3.3
  0
CIRCLE
  5
290
330
1F
100
AcDbEntity
  8
0
  6
Continuous
 62
    91
370
    18
100
AcDbCircle
 10
190.0737839303769
 20
44.49828746907411
 30
0.0
 40
3.3
  0
ARC
  5
291
330
1F
100
AcDbEntity
  8
0
  6
Continuous
 62
    91
370
    18
100
AcDbCircle
 10
226.5737839303769
 20
44.49828746907411
 30
0.0
 40
62.49999999999999
100
AcDbArc
 50
82.4999999999999
 51
97.50000199387496
  0
ARC
  5
292
330
1F
100
AcDbEntity
  8
0
  6
Continuous
 62
    91
370
    18
100
AcDbCircle
 10
234.405357416705
 20
103.9849779903143
 30
0.0
 40
2.5
100
AcDbArc
 50
351.306251562859
 51
82.4999999999999
  0
ARC
  5
293
330
1F
100
AcDbEntity
  8
0
  6
Continuous
 62
    91
370
    18
100
AcDbCircle
 10
265.7614365182675
 20
67.12328746907411
 30
0.0
 40
4.5
100
AcDbArc
 50
299.9999999999992
 51
119.9999999999998
  0
ARC
  5
294
330
1F
100
AcDbEntity
  8
0
  6
Continuous
 62
    91
370
    18
100
AcDbCircle
 10
178.9725723825252
 20
7.972603112384782
 30
0.0
 40
2.5
100
AcDbArc
 50
217.4999999999995
 51
308.693923868319
  0
ARC
  5
295
330
1F
100
AcDbEntity
  8
0
  6
Continuous
 62
    91
370
    18
100
AcDbCircle
 10
226.5737839303769
 20
44.49828746907411
 30
0.0
 40
62.49999999999999
100
AcDbArc
 50
202.4999999999998
 51
217.4999999999997
  0
ARC
  5
296
330
1F
100
AcDbEntity
  8
0
  6
Continuous
 62
    91
370
    18
100
AcDbCircle
 10
171.1409988961972
 20
21.5372813045235
 30
0.0
 40
2.5
100
AcDbArc
 50
111.3059681801428
 51
202.4999999999998
  0
ARC
  5
297
330
1F
100
AcDbEntity
  8
0
  6
Continuous
 62
    91
370
    18
100
AcDbCircle
 10
226.5737823970543
 20
-0.7517151867181866
 30
0.0
 40
4.5
100
AcDbArc
 50
179.9999999999993
 51
359.9999999999995
  0
ARC
  5
298
330
1F
100
AcDbEntity
  8
0
  6
Continuous
 62
    91
370
    18
100
AcDbCircle
 10
218.7422104440491
 20
103.9849779903143
 30
0.0
 40
2.5
100
AcDbArc
 50
97.50000199387506
 51
188.6937484371404
  0
ARC
  5
299
330
1F
100
AcDbEntity
  8
0
  6
Continuous
 62
    91
370
    18
100
AcDbCircle
 10
187.3861313424863
 20
67.12328746907411
 30
0.0
 40
4.5
100
AcDbArc
 50
60.00000000000001
 51
240.0000000000002
  0
ARC
  5
29A
330
1F
100
AcDbEntity
  8
0
  6
Continuous
 62
    91
370
    18
100
AcDbCircle
 10
282.0065602478075
 20
21.53727119606191
 30
0.0
 40
2.5
100
AcDbArc
 50
337.4999999999994
 51
68.69392386831846
  0
ARC
  5
29B
330
1F
100
AcDbEntity
  8
0
  6
Continuous
 62
    91
370
    18
100
AcDbCircle
 10
226.5737839303769
 20
44.49828746907411
 30
0.0
 40
62.49999999999999
100
AcDbArc
 50
322.4999999999997
 51
337.4999999999995
  0
ARC
  5
29C
330
1F
100
AcDbEntity
  8
0
  6
Continuous
 62
    91
370
    18
100
AcDbCircle
 10
274.1749910824187
 20
7.972590509227771
 30
0.0
 40
2.5
100
AcDbArc
 50
231.3059681801436
 51
322.4999999999997
  0
ARC
  5
29D
330
1F
100
AcDbEntity
  8
0
  6
Continuous
 62
    91
370
    18
100
AcDbCircle
 10
226.5737839303769
 20
44.49828746907411
 30
0.0
 40
45.25
100
AcDbArc
 50
107.7983467423773
 51
144.9285613733717
  0
ARC
  5
29E
330
1F
100
AcDbEntity
  8
0
  6
Continuous
 62
    91
370
    18
100
AcDbCircle
 10
226.5737839303769
 20
44.49828746907411
 30
0.0
 40
45.25
100
AcDbArc
 50
155.0714410112085
 51
192.2016532576218
  0
LINE
  5
29F
330
1F
100
AcDbEntity
  8
0
  6
Continuous
 62
    91
370
    18
100
AcDbLine
 10
203.28206640108
 20
94.65584591023622
 30
0.0
 11
189.3861378370917
 21
70.5873860175582
 31
0.0
  0
LINE
  5
2A0
330
1F
100
AcDbEntity
  8
0
  6
Continuous
 62
    91
370
    18
100
AcDbLine
 10
185.3861385352881
 20
63.65918238417885
 30
0.0
 11
171.4902115426816
 21
39.59072521321474
 31
0.0
  0
CIRCLE
  5
2A1
330
1F
100
AcDbEntity
  8
0
  6
Continuous
 62
    91
370
    25
100
AcDbCircle
 10
-233.4262160696244
 20
44.49828746907394
 30
0.0
 40
31.5
  0
LINE
  5
2A2
330
1F
100
AcDbEntity
  8
0
  6
Continuous
 62
    91
370
    25
100
AcDbLine
 10
-0.2262172140335394
 20
60.49828746907394
 30
0.0
 11
44.77378278596647
 21
60.49828746907394
 31
0.0
  0
LINE
  5
2A3
330
1F
100
AcDbEntity
  8
0
  6
Continuous
 62
    91
370
    25
100
AcDbLine
 10
-0.2262172140335394
 20
29.29960331550339
 30
0.0
 11
44.77378278596647
 21
29.29960331550339
 31
0.0
  0
LINE
  5
2A4
330
1F
100
AcDbEntity
  8
0
  6
Continuous
 62
    91
370
    25
100
AcDbLine
 10
-0.2262172140335394
 20
24.99828746907395
 30
0.0
 11
44.77378278596647
 21
24.99828746907395
 31
0.0
  0
LINE
  5
2A5
330
1F
100
AcDbEntity
  8
0
  6
Continuous
 62
    91
370
    25
100
AcDbLine
 10
-238.4262160696244
 20
24.99828746907411
 30
0.0
 11
-228.4262160696244
 21
24.99828746907411
 31
0.0
  0
LINE
  5
2A6
330
1F
100
AcDbEntity
  8
0
  6
Continuous
 62
    91
370
    25
100
AcDbLine
 10
-228.4262160696244
 20
24.99828746907411
 30
0.0
 11
-228.4262160696244
 21
29.29960331550356
 31
0.0
  0
LINE
  5
2A7
330
1F
100
AcDbEntity
  8
0
  6
Continuous
 62
    91
370
    25
100
AcDbLine
 10
-238.4262160696244
 20
24.99828746907411
 30
0.0
 11
-238.4262160696244
 21
29.29960331550356
 31
0.0
  0
ARC
  5
2A8
330
1F
100
AcDbEntity
  8
0
  6
Continuous
 62
    91
370
    25
100
AcDbCircle
 10
-233.4262160696244
 20
44.49828746907411
 30
0.0
 40
16.0
100
AcDbArc
 50
288.2099568642831
 51
251.7900431357168
  0
LINE
  5
2A9
330
1F
100
AcDbEntity
  8
0
  6
Continuous
 62
    91
370
    25
100
AcDbLine
 10
221.5737839303769
 20
24.99828746907411
 30
0.0
 11
231.5737839303769
 21
24.99828746907411
 31
0.0
  0
LINE
  5
2AA
330
1F
100
AcDbEntity
  8
0
  6
Continuous
 62
    91
370
    25
100
AcDbLine
 10
231.5737839303769
 20
24.99828746907411
 30
0.0
 11
231.5737839303769
 21
29.29960331550356
 31
0.0
  0
LINE
  5
2AB
330
1F
100
AcDbEntity
  8
0
  6
Continuous
 62
    91
370
    25
100
AcDbLine
 10
221.5737839303769
 20
24.99828746907411
 30
0.0
 11
221.5737839303769
 21
29.29960331550356
 31
0.0
  0
ARC
  5
2AC
330
1F
100
AcDbEntity
  8
0
  6
Continuous
 62
    91
370
    25
100
AcDbCircle
 10
226.5737839303769
 20
44.49828746907411
 30
0.0
 40
16.0
100
AcDbArc
 50
288.209956864283
 51
251.7900431357168
  0
CIRCLE
  5
2AD
330
1F
100
AcDbEntity
  8
0
  6
CENTER
 62
     4
370
    13
100
AcDbCircle
 10
-233.4262160696244
 20
44.49828746907394
 30
0.0
 40
54.0
  0
LINE
  5
2AE
330
1F
100
AcDbEntity
  8
0
  6
Continuous
 62
     9
370
    13
100
AcDbLine
 10
-15.62621873991244
 20
-77.70171627409775
 30
0.0
 11
-15.62621873991244
 21
-59.50171634562332
 31
0.0
  0
INSERT
  5
2AF
330
1F
100
AcDbEntity
  8
0
  6
Continuous
100
AcDbBlockReference
  2
DC_GROUP_DMB-80_1
 10
0.0
 20
0.0
 30
0.0
  0
INSERT
  5
2B0
330
1F
100
AcDbEntity
  8
0
  6
Continuous
100
AcDbBlockReference
  2
DC_GROUP_DMB-80_2
 10
0.0
 20
0.0
 30
0.0
  0
INSERT
  5
2B1
330
1F
100
AcDbEntity
  8
0
  6
Continuous
100
AcDbBlockReference
  2
DC_GROUP_DMB-80_3
 10
0.0
 20
0.0
 30
0.0
  0
INSERT
  5
2B2
330
1F
100
AcDbEntity
  8
0
  6
Continuous
100
AcDbBlockReference
  2
DC_GROUP_DMB-80_4
 10
0.0
 20
0.0
 30
0.0
  0
INSERT
  5
2B3
330
1F
100
AcDbEntity
  8
0
  6
Continuous
100
AcDbBlockReference
  2
DC_GROUP_DMB-80_5
 10
0.0
 20
0.0
 30
0.0
  0
INSERT
  5
2B4
330
1F
100
AcDbEntity
  8
0
  6
Continuous
100
AcDbBlockReference
  2
DC_GROUP_DMB-80_6
 10
0.0
 20
0.0
 30
0.0
  0
INSERT
  5
2B5
330
1F
100
AcDbEntity
  8
0
  6
Continuous
100
AcDbBlockReference
  2
DC_GROUP_DMB-80_7
 10
0.0
 20
0.0
 30
0.0
  0
INSERT
  5
2B6
330
1F
100
AcDbEntity
  8
0
  6
Continuous
100
AcDbBlockReference
  2
DC_GROUP_DMB-80_8
 10
0.0
 20
0.0
 30
0.0
  0
INSERT
  5
2B7
330
1F
100
AcDbEntity
  8
0
  6
Continuous
100
AcDbBlockReference
  2
DC_GROUP_DMB-80_9
 10
0.0
 20
0.0
 30
0.0
  0
VIEWPORT
  5
B1
330
1B
100
AcDbEntity
 67
     1
  8
0
100
AcDbViewport
 10
-1.054756435781997
 20
60.91076853070646
 30
0.0
 40
2067.030058033764
 41
959.1543359986845
 68
     1
 69
     1
 12
-1.054756435781997
 22
60.91076853070646
 13
0.0
 23
0.0
 14
0.5
 24
0.5
 15
0.0
 25
0.0
 16
0.0
 26
0.0
 36
1.0
 17
0.0
 27
0.0
 37
0.0
 42
50.0
 43
0.0
 44
0.0
 45
959.1543359986845
 50
0.0
 51
0.0
 72
   100
 90
   557152
  1

281
     0
 71
     1
 74
     0
110
0.0
120
0.0
130
0.0
111
1.0
121
0.0
131
0.0
112
0.0
122
1.0
132
0.0
 79
     0
146
0.0
170
     0
 61
     5
348
2F
292
     1
282
     1
141
0.0
142
0.0
 63
   256
  0
ENDSEC
  0
SECTION
  2
OBJECTS
  0
DICTIONARY
  5
C
330
0
100
AcDbDictionary
281
     1
  3
ACAD_DETAILVIEWSTYLE
350
2EF
  3
ACAD_GROUP
350
D
  3
ACAD_LAYOUT
350
1A
  3
ACAD_MATERIAL
350
43
  3
ACAD_MLEADERSTYLE
350
6B
  3
ACAD_MLINESTYLE
350
17
  3
ACAD_PLOTSETTINGS
350
19
  3
ACAD_PLOTSTYLENAME
350
E
  3
ACAD_SCALELIST
350
47
  3
ACAD_SECTIONVIEWSTYLE
350
2F0
  3
ACAD_TABLESTYLE
350
69
  3
ACAD_VISUALSTYLE
350
2A
  3
ACDB_RECOMPOSE_DATA
350
2EC
  3
AcDbVariableDictionary
350
2B8
  0
SUN
  5
6D
330
29
100
AcDbSun
 90
        1
290
     0
 63
     7
421
 16777215
 40
1.0
291
     1
 91
  2455826
 92
 54000000
292
     0
 70
     2
 71
   256
280
     1
  0
DICTIONARY
  5
2EF
102
{ACAD_REACTORS
330
C
102
}
330
C
100
AcDbDictionary
281
     1
  0
DICTIONARY
  5
D
102
{ACAD_REACTORS
330
C
102
}
330
C
100
AcDbDictionary
281
     1
  0
DICTIONARY
  5
1A
102
{ACAD_REACTORS
330
C
102
}
330
C
100
AcDbDictionary
281
     1
  3
Layout1
350
1E
  3
Layout2
350
26
  3
Model
350
22
  0
DICTIONARY
  5
43
102
{ACAD_REACTORS
330
C
102
}
330
C
100
AcDbDictionary
281
     1
  3
ByBlock
350
45
  3
ByLayer
350
44
  3
Global
350
46
  0
DICTIONARY
  5
6B
102
{ACAD_REACTORS
330
C
102
}
330
C
100
AcDbDictionary
281
     1
  3
Standard
350
6C
  0
DICTIONARY
  5
17
102
{ACAD_REACTORS
330
C
102
}
330
C
100
AcDbDictionary
281
     1
  3
Standard
350
18
  0
DICTIONARY
  5
19
102
{ACAD_REACTORS
330
C
102
}
330
C
100
AcDbDictionary
281
     1
  0
ACDBDICTIONARYWDFLT
  5
E
102
{ACAD_REACTORS
330
C
102
}
330
C
100
AcDbDictionary
281
     1
  3
Normal
350
F
100
AcDbDictionaryWithDefault
340
F
  0
DICTIONARY
  5
47
102
{ACAD_REACTORS
330
C
102
}
330
C
100
AcDbDictionary
281
     1
  3
A0
350
48
  3
A1
350
49
  3
A2
350
4A
  3
A3
350
4B
  3
A4
350
4C
  3
A5
350
4D
  3
A6
350
4E
  3
A7
350
4F
  3
A8
350
50
  3
A9
350
51
  3
B0
350
52
  3
B1
350
53
  3
B2
350
54
  3
B3
350
55
  3
B4
350
56
  3
B5
350
57
  3
B6
350
58
  3
B7
350
59
  3
B8
350
5A
  3
B9
350
5B
  3
C0
350
5C
  3
C1
350
5D
  3
C2
350
5E
  3
C3
350
5F
  3
C4
350
60
  3
C5
350
61
  3
C6
350
62
  3
C7
350
63
  3
C8
350
64
  3
C9
350
65
  3
D0
350
66
  3
D1
350
67
  3
D2
350
68
  0
DICTIONARY
  5
2F0
102
{ACAD_REACTORS
330
C
102
}
330
C
100
AcDbDictionary
281
     1
  0
DICTIONARY
  5
69
102
{ACAD_REACTORS
330
C
102
}
330
C
100
AcDbDictionary
281
     1
  3
Standard
350
6A
  0
DICTIONARY
  5
2A
102
{ACAD_REACTORS
330
C
102
}
330
C
100
AcDbDictionary
281
     1
  3
2dWireframe
350
2F
  3
Basic
350
32
  3
Brighten
350
36
  3
ColorChange
350
3A
  3
Conceptual
350
34
  3
Dim
350
35
  3
EdgeColorOff
350
3D
  3
Facepattern
350
39
  3
Flat
350
2B
  3
FlatWithEdges
350
2C
  3
Gouraud
350
2D
  3
GouraudWithEdges
350
2E
  3
Hidden
350
31
  3
JitterOff
350
3B
  3
Linepattern
350
38
  3
OverhangOff
350
3C
  3
Realistic
350
33
  3
Shaded
350
42
  3
Shaded with edges
350
41
  3
Shades of Gray
350
3E
  3
Sketchy
350
3F
  3
Thicken
350
37
  3
Wireframe
350
30
  3
X-Ray
350
40
  0
XRECORD
  5
2EC
102
{ACAD_REACTORS
330
C
102
}
330
C
100
AcDbXrecord
280
     1
 90
        1
330
6A
  0
DICTIONARY
  5
2B8
102
{ACAD_REACTORS
330
C
102
}
330
C
100
AcDbDictionary
281
     1
  3
CANNOSCALE
350
2B9
  3
CMLEADERSTYLE
350
2EE
  3
CTABLESTYLE
350
2ED
  0
LAYOUT
  5
1E
102
{ACAD_REACTORS
330
1A
102
}
330
1A
100
AcDbPlotSettings
  1

  2
none_device
  4

  6

 40
0.0
 41
0.0
 42
0.0
 43
0.0
 44
0.0
 45
0.0
 46
0.0
 47
0.0
 48
0.0
 49
0.0
140
0.0
141
0.0
142
1.0
143
1.0
 70
   688
 72
     0
 73
     0
 74
     5
  7

 75
    16
 76
     0
 77
     2
 78
   300
147
1.0
148
0.0
149
0.0
100
AcDbLayout
  1
Layout1
 70
     0
 71
     1
 10
0.0
 20
0.0
 11
12.0
 21
9.0
 12
0.0
 22
0.0
 32
0.0
 14
1.000000000000000E+20
 24
1.000000000000000E+20
 34
1.000000000000000E+20
 15
-1.000000000000000E+20
 25
-1.000000000000000E+20
 35
-1.000000000000000E+20
146
0.0
 13
0.0
 23
0.0
 33
0.0
 16
1.0
 26
0.0
 36
0.0
 17
0.0
 27
1.0
 37
0.0
 76
     0
330
1B
331
B1
  0
LAYOUT
  5
26
102
{ACAD_REACTORS
330
1A
102
}
330
1A
100
AcDbPlotSettings
  1

  2
none_device
  4

  6

 40
0.0
 41
0.0
 42
0.0
 43
0.0
 44
0.0
 45
0.0
 46
0.0
 47
0.0
 48
0.0
 49
0.0
140
0.0
141
0.0
142
1.0
143
1.0
 70
   688
 72
     0
 73
     0
 74
     5
  7

 75
    16
 76
     0
 77
     2
 78
   300
147
1.0
148
0.0
149
0.0
100
AcDbLayout
  1
Layout2
 70
     1
 71
     2
 10
0.0
 20
0.0
 11
0.0
 21
0.0
 12
0.0
 22
0.0
 32
0.0
 14
0.0
 24
0.0
 34
0.0
 15
0.0
 25
0.0
 35
0.0
146
0.0
 13
0.0
 23
0.0
 33
0.0
 16
1.0
 26
0.0
 36
0.0
 17
0.0
 27
1.0
 37
0.0
 76
     0
330
23
  0
LAYOUT
  5
22
102
{ACAD_REACTORS
330
1A
102
}
330
1A
100
AcDbPlotSettings
  1

  2
DWG to PDF.pc3
  4
ISO_A3_(297.00_x_420.00_MM)
  6

 40
5.0
 41
17.0
 42
5.0
 43
17.0
 44
297.0
 45
420.0
 46
0.0
 47
0.0
 48
0.0
 49
0.0
140
0.0
141
0.0
142
1.0
143
2.0
 70
  1712
 72
     1
 73
     1
 74
     1
  7

 75
    17
 76
     0
 77
     2
 78
   300
147
0.5
148
0.0
149
0.0
100
AcDbLayout
  1
Model
 70
     1
 71
     0
 10
-420.0
 20
-297.0
 11
420.0
 21
297.0
 12
0.0
 22
0.0
 32
0.0
 14
-1034.569785452664
 24
-418.6663994686358
 34
0.0
 15
1032.4602725811
 25
540.4879365300487
 35
0.0
146
0.0
 13
0.0
 23
0.0
 33
0.0
 16
1.0
 26
0.0
 36
0.0
 17
0.0
 27
1.0
 37
0.0
 76
     0
330
1F
331
29
  0
MATERIAL
  5
45
102
{ACAD_REACTORS
330
43
102
}
330
43
100
AcDbMaterial
  1
ByBlock
 72
     1
 94
      127
  0
MATERIAL
  5
44
102
{ACAD_REACTORS
330
43
102
}
330
43
100
AcDbMaterial
  1
ByLayer
 72
     1
 94
      127
  0
MATERIAL
  5
46
102
{ACAD_REACTORS
330
43
102
}
330
43
100
AcDbMaterial
  1
Global
 72
     1
 94
      127
  0
MLEADERSTYLE
  5
6C
102
{ACAD_REACTORS
330
6B
102
}
330
6B
100
AcDbMLeaderStyle
179
     2
170
     2
171
     1
172
     0
 90
        2
 40
0.0
 41
0.0
173
     1
 91
-1056964608
340
14
 92
       -2
290
     1
 42
0.09
291
     1
 43
0.36
  3
Standard
341
0
 44
0.18
300

342
11
174
     1
178
     6
175
     1
176
     0
 93
-1056964608
 45
0.18
292
     0
297
     0
 46
0.18
343
0
 94
-1056964608
 47
1.0
 49
1.0
140
1.0
293
     1
141
0.0
294
     1
177
     0
142
1.0
295
     0
296
     0
143
0.125
271
     0
272
     9
273
     9
  0
MLINESTYLE
  5
18
102
{ACAD_REACTORS
330
17
102
}
330
17
100
AcDbMlineStyle
  2
Standard
 70
     0
  3

 62
   256
 51
90.0
 52
90.0
 71
     2
 49
0.5
 62
   256
  6
BYLAYER
 49
-0.5
 62
   256
  6
BYLAYER
  0
ACDBPLACEHOLDER
  5
F
102
{ACAD_REACTORS
330
E
102
}
330
E
  0
SCALE
  5
48
102
{ACAD_REACTORS
330
47
102
}
330
47
100
AcDbScale
 70
     0
300
1:1
140
1.0
141
1.0
290
     1
  0
SCALE
  5
49
102
{ACAD_REACTORS
330
47
102
}
330
47
100
AcDbScale
 70
     0
300
1:2
140
1.0
141
2.0
290
     0
  0
SCALE
  5
4A
102
{ACAD_REACTORS
330
47
102
}
330
47
100
AcDbScale
 70
     0
300
1:4
140
1.0
141
4.0
290
     0
  0
SCALE
  5
4B
102
{ACAD_REACTORS
330
47
102
}
330
47
100
AcDbScale
 70
     0
300
1:5
140
1.0
141
5.0
290
     0
  0
SCALE
  5
4C
102
{ACAD_REACTORS
330
47
102
}
330
47
100
AcDbScale
 70
     0
300
1:8
140
1.0
141
8.0
290
     0
  0
SCALE
  5
4D
102
{ACAD_REACTORS
330
47
102
}
330
47
100
AcDbScale
 70
     0
300
1:10
140
1.0
141
10.0
290
     0
  0
SCALE
  5
4E
102
{ACAD_REACTORS
330
47
102
}
330
47
100
AcDbScale
 70
     0
300
1:16
140
1.0
141
16.0
290
     0
  0
SCALE
  5
4F
102
{ACAD_REACTORS
330
47
102
}
330
47
100
AcDbScale
 70
     0
300
1:20
140
1.0
141
20.0
290
     0
  0
SCALE
  5
50
102
{ACAD_REACTORS
330
47
102
}
330
47
100
AcDbScale
 70
     0
300
1:30
140
1.0
141
30.0
290
     0
  0
SCALE
  5
51
102
{ACAD_REACTORS
330
47
102
}
330
47
100
AcDbScale
 70
     0
300
1:40
140
1.0
141
40.0
290
     0
  0
SCALE
  5
52
102
{ACAD_REACTORS
330
47
102
}
330
47
100
AcDbScale
 70
     0
300
1:50
140
1.0
141
50.0
290
     0
  0
SCALE
  5
53
102
{ACAD_REACTORS
330
47
102
}
330
47
100
AcDbScale
 70
     0
300
1:100
140
1.0
141
100.0
290
     0
  0
SCALE
  5
54
102
{ACAD_REACTORS
330
47
102
}
330
47
100
AcDbScale
 70
     0
300
2:1
140
2.0
141
1.0
290
     0
  0
SCALE
  5
55
102
{ACAD_REACTORS
330
47
102
}
330
47
100
AcDbScale
 70
     0
300
4:1
140
4.0
141
1.0
290
     0
  0
SCALE
  5
56
102
{ACAD_REACTORS
330
47
102
}
330
47
100
AcDbScale
 70
     0
300
8:1
140
8.0
141
1.0
290
     0
  0
SCALE
  5
57
102
{ACAD_REACTORS
330
47
102
}
330
47
100
AcDbScale
 70
     0
300
10:1
140
10.0
141
1.0
290
     0
  0
SCALE
  5
58
102
{ACAD_REACTORS
330
47
102
}
330
47
100
AcDbScale
 70
     0
300
100:1
140
100.0
141
1.0
290
     0
  0
SCALE
  5
59
102
{ACAD_REACTORS
330
47
102
}
330
47
100
AcDbScale
 70
     0
300
1/128" = 1'-0"
140
0.0078125
141
12.0
290
     0
  0
SCALE
  5
5A
102
{ACAD_REACTORS
330
47
102
}
330
47
100
AcDbScale
 70
     0
300
1/64" = 1'-0"
140
0.015625
141
12.0
290
     0
  0
SCALE
  5
5B
102
{ACAD_REACTORS
330
47
102
}
330
47
100
AcDbScale
 70
     0
300
1/32" = 1'-0"
140
0.03125
141
12.0
290
     0
  0
SCALE
  5
5C
102
{ACAD_REACTORS
330
47
102
}
330
47
100
AcDbScale
 70
     0
300
1/16" = 1'-0"
140
0.0625
141
12.0
290
     0
  0
SCALE
  5
5D
102
{ACAD_REACTORS
330
47
102
}
330
47
100
AcDbScale
 70
     0
300
3/32" = 1'-0"
140
0.09375
141
12.0
290
     0
  0
SCALE
  5
5E
102
{ACAD_REACTORS
330
47
102
}
330
47
100
AcDbScale
 70
     0
300
1/8" = 1'-0"
140
0.125
141
12.0
290
     0
  0
SCALE
  5
5F
102
{ACAD_REACTORS
330
47
102
}
330
47
100
AcDbScale
 70
     0
300
3/16" = 1'-0"
140
0.1875
141
12.0
290
     0
  0
SCALE
  5
60
102
{ACAD_REACTORS
330
47
102
}
330
47
100
AcDbScale
 70
     0
300
1/4" = 1'-0"
140
0.25
141
12.0
290
     0
  0
SCALE
  5
61
102
{ACAD_REACTORS
330
47
102
}
330
47
100
AcDbScale
 70
     0
300
3/8" = 1'-0"
140
0.375
141
12.0
290
     0
  0
SCALE
  5
62
102
{ACAD_REACTORS
330
47
102
}
330
47
100
AcDbScale
 70
     0
300
1/2" = 1'-0"
140
0.5
141
12.0
290
     0
  0
SCALE
  5
63
102
{ACAD_REACTORS
330
47
102
}
330
47
100
AcDbScale
 70
     0
300
3/4" = 1'-0"
140
0.75
141
12.0
290
     0
  0
SCALE
  5
64
102
{ACAD_REACTORS
330
47
102
}
330
47
100
AcDbScale
 70
     0
300
1" = 1'-0"
140
1.0
141
12.0
290
     0
  0
SCALE
  5
65
102
{ACAD_REACTORS
330
47
102
}
330
47
100
AcDbScale
 70
     0
300
1-1/2" = 1'-0"
140
1.5
141
12.0
290
     0
  0
SCALE
  5
66
102
{ACAD_REACTORS
330
47
102
}
330
47
100
AcDbScale
 70
     0
300
3" = 1'-0"
140
3.0
141
12.0
290
     0
  0
SCALE
  5
67
102
{ACAD_REACTORS
330
47
102
}
330
47
100
AcDbScale
 70
     0
300
6" = 1'-0"
140
6.0
141
12.0
290
     0
  0
SCALE
  5
68
102
{ACAD_REACTORS
330
47
102
}
330
47
100
AcDbScale
 70
     0
300
1'-0" = 1'-0"
140
12.0
141
12.0
290
     0
  0
TABLESTYLE
  5
6A
102
{ACAD_REACTORS
330
69
102
}
102
{ACAD_XDICTIONARY
360
2EA
102
}
330
69
100
AcDbTableStyle
  3
Standard
 70
     0
 71
     0
 40
0.06
 41
0.06
280
     0
281
     0
  7
Standard
140
0.18
170
     2
 62
     0
 63
   257
283
     0
 90
        4
 91
        0
  1

274
    -2
284
     1
 64
     0
275
    -2
285
     1
 65
     0
276
    -2
286
     1
 66
     0
277
    -2
287
     1
 67
     0
278
    -2
288
     1
 68
     0
279
    -2
289
     1
 69
     0
  7
Standard
140
0.25
170
     5
 62
     0
 63
   257
283
     0
 90
        4
 91
        0
  1

274
    -2
284
     1
 64
     0
275
    -2
285
     1
 65
     0
276
    -2
286
     1
 66
     0
277
    -2
287
     1
 67
     0
278
    -2
288
     1
 68
     0
279
    -2
289
     1
 69
     0
  7
Standard
140
0.18
170
     5
 62
     0
 63
   257
283
     0
 90
        4
 91
        0
  1

274
    -2
284
     1
 64
     0
275
    -2
285
     1
 65
     0
276
    -2
286
     1
 66
     0
277
    -2
287
     1
 67
     0
278
    -2
288
     1
 68
     0
279
    -2
289
     1
 69
     0
  0
VISUALSTYLE
  5
2F
102
{ACAD_REACTORS
330
2A
102
}
102
{ACAD_XDICTIONARY
360
2C2
102
}
330
2A
100
AcDbVisualStyle
  2
2dWireframe
 70
     4
177
     2
291
     0
 71
     0
176
     1
 72
     2
176
     1
 73
     0
176
     1
 90
        0
176
     1
 40
0.6
176
     1
 41
30.0
176
     1
 62
     5
 63
     7
421
 16777215
176
     1
 74
     1
176
     1
 91
        4
176
     1
 64
     7
176
     1
 65
   257
176
     1
 75
     1
176
     1
175
     1
176
     1
 42
1.0
176
     1
 92
        0
176
     1
 66
   257
176
     1
 43
1.0
176
     1
 76
     1
176
     1
 77
     6
176
     1
 78
     2
176
     1
 67
     7
176
     1
 79
     5
176
     1
170
     0
176
     1
171
     0
176
     1
290
     0
176
     1
 93
        1
176
     1
 44
0.0
176
     1
173
     0
176
     1
  0
VISUALSTYLE
  5
32
102
{ACAD_REACTORS
330
2A
102
}
102
{ACAD_XDICTIONARY
360
2C8
102
}
330
2A
100
AcDbVisualStyle
  2
Basic
 70
     7
177
     2
291
     1
 71
     1
176
     1
 72
     0
176
     1
 73
     1
176
     1
 90
        0
176
     1
 40
0.6
176
     1
 41
30.0
176
     1
 62
     5
 63
     7
421
 16777215
176
     1
 74
     0
176
     1
 91
        4
176
     1
 64
     7
176
     1
 65
   257
176
     1
 75
     1
176
     1
175
     1
176
     1
 42
1.0
176
     1
 92
        8
176
     1
 66
     7
176
     1
 43
1.0
176
     1
 76
     1
176
     1
 77
     6
176
     1
 78
     2
176
     1
 67
     7
176
     1
 79
     5
176
     1
170
     0
176
     1
171
     0
176
     1
290
     0
176
     1
 93
        1
176
     1
 44
0.0
176
     1
173
     0
176
     1
  0
VISUALSTYLE
  5
36
102
{ACAD_REACTORS
330
2A
102
}
102
{ACAD_XDICTIONARY
360
2D0
102
}
330
2A
100
AcDbVisualStyle
  2
Brighten
 70
    12
177
     2
291
     1
 71
     2
176
     1
 72
     2
176
     1
 73
     0
176
     1
 90
        0
176
     1
 40
0.6
176
     1
 41
30.0
176
     1
 62
     5
 63
     7
421
 16777215
176
     1
 74
     1
176
     1
 91
        4
176
     1
 64
     7
176
     1
 65
   257
176
     1
 75
     1
176
     1
175
     1
176
     1
 42
1.0
176
     1
 92
        8
176
     1
 66
     7
176
     1
 43
1.0
176
     1
 76
     1
176
     1
 77
     6
176
     1
 78
     2
176
     1
 67
     7
176
     1
 79
     5
176
     1
170
     0
176
     1
171
     0
176
     1
290
     0
176
     1
 93
        1
176
     1
 44
50.0
176
     1
173
     0
176
     1
  0
VISUALSTYLE
  5
3A
102
{ACAD_REACTORS
330
2A
102
}
102
{ACAD_XDICTIONARY
360
2D8
102
}
330
2A
100
AcDbVisualStyle
  2
ColorChange
 70
    16
177
     2
291
     1
 71
     2
176
     1
 72
     2
176
     1
 73
     3
176
     1
 90
        0
176
     1
 40
0.6
176
     1
 41
30.0
176
     1
 62
     5
 63
     8
421
  8421504
176
     1
 74
     1
176
     1
 91
        4
176
     1
 64
     7
176
     1
 65
   257
176
     1
 75
     1
176
     1
175
     1
176
     1
 42
1.0
176
     1
 92
        8
176
     1
 66
     8
424
  8421504
176
     1
 43
1.0
176
     1
 76
     1
176
     1
 77
     6
176
     1
 78
     2
176
     1
 67
     7
176
     1
 79
     5
176
     1
170
     0
176
     1
171
     0
176
     1
290
     0
176
     1
 93
        1
176
     1
 44
0.0
176
     1
173
     0
176
     1
  0
VISUALSTYLE
  5
34
102
{ACAD_REACTORS
330
2A
102
}
102
{ACAD_XDICTIONARY
360
2CC
102
}
330
2A
100
AcDbVisualStyle
  2
Conceptual
 70
     9
177
     2
291
     0
 71
     3
176
     1
 72
     2
176
     1
 73
     0
176
     1
 90
        0
176
     1
 40
0.6
176
     1
 41
30.0
176
     1
 62
     5
 63
     7
421
 16777215
176
     1
 74
     2
176
     1
 91
        2
176
     1
 64
     7
176
     1
 65
   257
176
     1
 75
     1
176
     1
175
     1
176
     1
 42
179.0
176
     1
 92
        8
176
     1
 66
     7
176
     1
 43
1.0
176
     1
 76
     1
176
     1
 77
     6
176
     1
 78
     2
176
     1
 67
     7
176
     1
 79
     3
176
     1
170
     0
176
     1
171
     0
176
     1
290
     0
176
     1
 93
        1
176
     1
 44
0.0
176
     1
173
     0
176
     1
  0
VISUALSTYLE
  5
35
102
{ACAD_REACTORS
330
2A
102
}
102
{ACAD_XDICTIONARY
360
2CE
102
}
330
2A
100
AcDbVisualStyle
  2
Dim
 70
    11
177
     2
291
     1
 71
     2
176
     1
 72
     2
176
     1
 73
     0
176
     1
 90
        0
176
     1
 40
0.6
176
     1
 41
30.0
176
     1
 62
     5
 63
     7
421
 16777215
176
     1
 74
     1
176
     1
 91
        4
176
     1
 64
     7
176
     1
 65
   257
176
     1
 75
     1
176
     1
175
     1
176
     1
 42
1.0
176
     1
 92
        8
176
     1
 66
     7
176
     1
 43
1.0
176
     1
 76
     1
176
     1
 77
     6
176
     1
 78
     2
176
     1
 67
     7
176
     1
 79
     5
176
     1
170
     0
176
     1
171
     0
176
     1
290
     0
176
     1
 93
        1
176
     1
 44
-50.0
176
     1
173
     0
176
     1
  0
VISUALSTYLE
  5
3D
102
{ACAD_REACTORS
330
2A
102
}
102
{ACAD_XDICTIONARY
360
2DE
102
}
330
2A
100
AcDbVisualStyle
  2
EdgeColorOff
 70
    22
177
     2
291
     1
 71
     2
176
     0
 72
     2
176
     0
 73
     0
176
     0
 90
        0
176
     0
 40
0.6
176
     0
 41
30.0
176
     0
 62
     5
 63
     7
421
 16777215
176
     0
 74
     1
176
     0
 91
        4
176
     0
 64
     7
176
     0
 65
   257
176
     0
 75
     1
176
     0
175
     1
176
     0
 42
1.0
176
     0
 92
        8
176
     2
 66
     7
176
     0
 43
1.0
176
     0
 76
     1
176
     0
 77
     6
176
     0
 78
     2
176
     0
 67
     7
176
     0
 79
     5
176
     0
170
     0
176
     0
171
     0
176
     0
290
     0
176
     0
 93
        1
176
     0
 44
0.0
176
     0
173
     0
176
     0
  0
VISUALSTYLE
  5
39
102
{ACAD_REACTORS
330
2A
102
}
102
{ACAD_XDICTIONARY
360
2D6
102
}
330
2A
100
AcDbVisualStyle
  2
Facepattern
 70
    15
177
     2
291
     1
 71
     2
176
     1
 72
     2
176
     1
 73
     0
176
     1
 90
        0
176
     1
 40
0.6
176
     1
 41
30.0
176
     1
 62
     5
 63
     7
421
 16777215
176
     1
 74
     1
176
     1
 91
        4
176
     1
 64
     7
176
     1
 65
   257
176
     1
 75
     1
176
     1
175
     1
176
     1
 42
1.0
176
     1
 92
        8
176
     1
 66
     7
176
     1
 43
1.0
176
     1
 76
     1
176
     1
 77
     6
176
     1
 78
     2
176
     1
 67
     7
176
     1
 79
     5
176
     1
170
     0
176
     1
171
     0
176
     1
290
     0
176
     1
 93
        1
176
     1
 44
0.0
176
     1
173
     0
176
     1
  0
VISUALSTYLE
  5
2B
102
{ACAD_REACTORS
330
2A
102
}
102
{ACAD_XDICTIONARY
360
2BA
102
}
330
2A
100
AcDbVisualStyle
  2
Flat
 70
     0
177
     2
291
     1
 71
     2
176
     1
 72
     1
176
     1
 73
     1
176
     1
 90
        2
176
     1
 40
0.6
176
     1
 41
30.0
176
     1
 62
     5
 63
     7
421
 16777215
176
     1
 74
     0
176
     1
 91
        0
176
     1
 64
     7
176
     1
 65
   257
176
     1
 75
     1
176
     1
175
     1
176
     1
 42
1.0
176
     1
 92
        8
176
     1
 66
     7
176
     1
 43
1.0
176
     1
 76
     1
176
     1
 77
     6
176
     1
 78
     2
176
     1
 67
     7
176
     1
 79
     5
176
     1
170
     0
176
     1
171
     0
176
     1
290
     0
176
     1
 93
       13
176
     1
 44
0.0
176
     1
173
     0
176
     1
  0
VISUALSTYLE
  5
2C
102
{ACAD_REACTORS
330
2A
102
}
102
{ACAD_XDICTIONARY
360
2BC
102
}
330
2A
100
AcDbVisualStyle
  2
FlatWithEdges
 70
     1
177
     2
291
     1
 71
     2
176
     1
 72
     1
176
     1
 73
     1
176
     1
 90
        2
176
     1
 40
0.6
176
     1
 41
30.0
176
     1
 62
     5
 63
     7
421
 16777215
176
     1
 74
     1
176
     1
 91
        0
176
     1
 64
     7
176
     1
 65
   257
176
     1
 75
     1
176
     1
175
     1
176
     1
 42
1.0
176
     1
 92
        0
176
     1
 66
   257
176
     1
 43
1.0
176
     1
 76
     1
176
     1
 77
     6
176
     1
 78
     2
176
     1
 67
     7
176
     1
 79
     5
176
     1
170
     0
176
     1
171
     0
176
     1
290
     0
176
     1
 93
       13
176
     1
 44
0.0
176
     1
173
     0
176
     1
  0
VISUALSTYLE
  5
2D
102
{ACAD_REACTORS
330
2A
102
}
102
{ACAD_XDICTIONARY
360
2BE
102
}
330
2A
100
AcDbVisualStyle
  2
Gouraud
 70
     2
177
     2
291
     1
 71
     2
176
     1
 72
     2
176
     1
 73
     1
176
     1
 90
        2
176
     1
 40
0.6
176
     1
 41
30.0
176
     1
 62
     5
 63
     7
421
 16777215
176
     1
 74
     0
176
     1
 91
        0
176
     1
 64
     7
176
     1
 65
   257
176
     1
 75
     1
176
     1
175
     1
176
     1
 42
1.0
176
     1
 92
        0
176
     1
 66
     7
176
     1
 43
1.0
176
     1
 76
     1
176
     1
 77
     6
176
     1
 78
     2
176
     1
 67
     7
176
     1
 79
     5
176
     1
170
     0
176
     1
171
     0
176
     1
290
     0
176
     1
 93
       13
176
     1
 44
0.0
176
     1
173
     0
176
     1
  0
VISUALSTYLE
  5
2E
102
{ACAD_REACTORS
330
2A
102
}
102
{ACAD_XDICTIONARY
360
2C0
102
}
330
2A
100
AcDbVisualStyle
  2
GouraudWithEdges
 70
     3
177
     2
291
     1
 71
     2
176
     1
 72
     2
176
     1
 73
     1
176
     1
 90
        2
176
     1
 40
0.6
176
     1
 41
30.0
176
     1
 62
     5
 63
     7
421
 16777215
176
     1
 74
     1
176
     1
 91
        0
176
     1
 64
     7
176
     1
 65
   257
176
     1
 75
     1
176
     1
175
     1
176
     1
 42
1.0
176
     1
 92
        0
176
     1
 66
   257
176
     1
 43
1.0
176
     1
 76
     1
176
     1
 77
     6
176
     1
 78
     2
176
     1
 67
     7
176
     1
 79
     5
176
     1
170
     0
176
     1
171
     0
176
     1
290
     0
176
     1
 93
       13
176
     1
 44
0.0
176
     1
173
     0
176
     1
  0
VISUALSTYLE
  5
31
102
{ACAD_REACTORS
330
2A
102
}
102
{ACAD_XDICTIONARY
360
2C6
102
}
330
2A
100
AcDbVisualStyle
  2
Hidden
 70
     6
177
     2
291
     0
 71
     1
176
     1
 72
     2
176
     1
 73
     2
176
     1
 90
        0
176
     1
 40
0.6
176
     1
 41
30.0
176
     1
 62
     5
 63
     7
421
 16777215
176
     1
 74
     2
176
     1
 91
        2
176
     1
 64
     7
176
     1
 65
   257
176
     1
 75
     2
176
     1
175
     1
176
     1
 42
40.0
176
     1
 92
        0
176
     1
 66
   257
176
     1
 43
1.0
176
     1
 76
     1
176
     1
 77
     6
176
     1
 78
     2
176
     1
 67
     7
176
     1
 79
     3
176
     1
170
     0
176
     1
171
     0
176
     1
290
     0
176
     1
 93
        1
176
     1
 44
0.0
176
     1
173
     0
176
     1
  0
VISUALSTYLE
  5
3B
102
{ACAD_REACTORS
330
2A
102
}
102
{ACAD_XDICTIONARY
360
2DA
102
}
330
2A
100
AcDbVisualStyle
  2
JitterOff
 70
    20
177
     2
291
     1
 71
     2
176
     0
 72
     2
176
     0
 73
     0
176
     0
 90
        0
176
     0
 40
0.6
176
     0
 41
30.0
176
     0
 62
     5
 63
     7
421
 16777215
176
     0
 74
     1
176
     0
 91
        4
176
     0
 64
     7
176
     0
 65
   257
176
     0
 75
     1
176
     0
175
     1
176
     0
 42
1.0
176
     0
 92
       10
176
     2
 66
     7
176
     0
 43
1.0
176
     0
 76
     1
176
     0
 77
     6
176
     0
 78
     2
176
     0
 67
     7
176
     0
 79
     5
176
     0
170
     0
176
     0
171
     0
176
     0
290
     0
176
     0
 93
        1
176
     0
 44
0.0
176
     0
173
     0
176
     0
  0
VISUALSTYLE
  5
38
102
{ACAD_REACTORS
330
2A
102
}
102
{ACAD_XDICTIONARY
360
2D4
102
}
330
2A
100
AcDbVisualStyle
  2
Linepattern
 70
    14
177
     2
291
     1
 71
     2
176
     1
 72
     2
176
     1
 73
     0
176
     1
 90
        0
176
     1
 40
0.6
176
     1
 41
30.0
176
     1
 62
     5
 63
     7
421
 16777215
176
     1
 74
     1
176
     1
 91
        4
176
     1
 64
     7
176
     1
 65
   257
176
     1
 75
     7
176
     1
175
     7
176
     1
 42
1.0
176
     1
 92
        8
176
     1
 66
     7
176
     1
 43
1.0
176
     1
 76
     1
176
     1
 77
     6
176
     1
 78
     2
176
     1
 67
     7
176
     1
 79
     5
176
     1
170
     0
176
     1
171
     0
176
     1
290
     0
176
     1
 93
        1
176
     1
 44
0.0
176
     1
173
     0
176
     1
  0
VISUALSTYLE
  5
3C
102
{ACAD_REACTORS
330
2A
102
}
102
{ACAD_XDICTIONARY
360
2DC
102
}
330
2A
100
AcDbVisualStyle
  2
OverhangOff
 70
    21
177
     2
291
     1
 71
     2
176
     0
 72
     2
176
     0
 73
     0
176
     0
 90
        0
176
     0
 40
0.6
176
     0
 41
30.0
176
     0
 62
     5
 63
     7
421
 16777215
176
     0
 74
     1
176
     0
 91
        4
176
     0
 64
     7
176
     0
 65
   257
176
     0
 75
     1
176
     0
175
     1
176
     0
 42
1.0
176
     0
 92
        9
176
     2
 66
     7
176
     0
 43
1.0
176
     0
 76
     1
176
     0
 77
     6
176
     0
 78
     2
176
     0
 67
     7
176
     0
 79
     5
176
     0
170
     0
176
     0
171
     0
176
     0
290
     0
176
     0
 93
        1
176
     0
 44
0.0
176
     0
173
     0
176
     0
  0
VISUALSTYLE
  5
33
102
{ACAD_REACTORS
330
2A
102
}
102
{ACAD_XDICTIONARY
360
2CA
102
}
330
2A
100
AcDbVisualStyle
  2
Realistic
 70
     8
177
     2
291
     0
 71
     2
176
     1
 72
     3
176
     1
 73
     0
176
     1
 90
        2
176
     1
 40
0.6
176
     1
 41
30.0
176
     1
 62
     5
 63
     7
421
 16777215
176
     1
 74
     0
176
     1
 91
        0
176
     1
 64
     7
176
     1
 65
   257
176
     1
 75
     1
176
     1
175
     1
176
     1
 42
1.0
176
     1
 92
        8
176
     1
 66
   257
176
     1
 43
1.0
176
     1
 76
     1
176
     1
 77
     6
176
     1
 78
     2
176
     1
 67
     7
176
     1
 79
     3
176
     1
170
     0
176
     1
171
     0
176
     1
290
     0
176
     1
 93
       13
176
     1
 44
0.0
176
     1
173
     0
176
     1
  0
VISUALSTYLE
  5
42
102
{ACAD_REACTORS
330
2A
102
}
102
{ACAD_XDICTIONARY
360
2E8
102
}
330
2A
100
AcDbVisualStyle
  2
Shaded
 70
    27
177
     2
291
     0
 71
     2
176
     1
 72
     2
176
     1
 73
     1
176
     1
 90
        2
176
     1
 40
0.6
176
     1
 41
30.0
176
     1
 62
     5
 63
     7
421
 16777215
176
     1
 74
     0
176
     1
 91
        4
176
     1
 64
     7
176
     1
 65
   257
176
     1
 75
     1
176
     1
175
     1
176
     1
 42
1.0
176
     1
 92
        8
176
     1
 66
   257
176
     1
 43
1.0
176
     1
 76
     1
176
     1
 77
     6
176
     1
 78
     2
176
     1
 67
     8
425
  7895160
176
     1
 79
     3
176
     1
170
     0
176
     1
171
     0
176
     1
290
     0
176
     1
 93
        5
176
     1
 44
0.0
176
     1
173
     0
176
     1
  0
VISUALSTYLE
  5
41
102
{ACAD_REACTORS
330
2A
102
}
102
{ACAD_XDICTIONARY
360
2E6
102
}
330
2A
100
AcDbVisualStyle
  2
Shaded with edges
 70
    26
177
     2
291
     0
 71
     2
176
     1
 72
     2
176
     1
 73
     1
176
     1
 90
        2
176
     1
 40
0.6
176
     1
 41
30.0
176
     1
 62
     5
 63
     7
421
 16777215
176
     1
 74
     1
176
     1
 91
       10
176
     1
 64
     7
176
     1
 65
   257
176
     1
 75
     2
176
     1
175
     1
176
     1
 42
1.0
176
     1
 92
        8
176
     1
 66
   257
176
     1
 43
1.0
176
     1
 76
     1
176
     1
 77
     6
176
     1
 78
     2
176
     1
 67
     7
176
     1
 79
     3
176
     1
170
     0
176
     1
171
     0
176
     1
290
     0
176
     1
 93
        5
176
     1
 44
0.0
176
     1
173
     0
176
     1
  0
VISUALSTYLE
  5
3E
102
{ACAD_REACTORS
330
2A
102
}
102
{ACAD_XDICTIONARY
360
2E0
102
}
330
2A
100
AcDbVisualStyle
  2
Shades of Gray
 70
    23
177
     2
291
     0
 71
     2
176
     1
 72
     2
176
     1
 73
     3
176
     1
 90
        0
176
     1
 40
0.6
176
     1
 41
30.0
176
     1
 62
     5
 63
     7
421
 16777215
176
     1
 74
     2
176
     1
 91
        2
176
     1
 64
     7
176
     1
 65
     7
176
     1
 75
     1
176
     1
175
     1
176
     1
 42
40.0
176
     1
 92
        8
176
     1
 66
     7
176
     1
 43
1.0
176
     1
 76
     1
176
     1
 77
     6
176
     1
 78
     2
176
     1
 67
     7
176
     1
 79
     3
176
     1
170
     0
176
     1
171
     0
176
     1
290
     0
176
     1
 93
        1
176
     1
 44
0.0
176
     1
173
     0
176
     1
  0
VISUALSTYLE
  5
3F
102
{ACAD_REACTORS
330
2A
102
}
102
{ACAD_XDICTIONARY
360
2E2
102
}
330
2A
100
AcDbVisualStyle
  2
Sketchy
 70
    24
177
     2
291
     0
 71
     1
176
     1
 72
     2
176
     1
 73
     2
176
     1
 90
        0
176
     1
 40
0.6
176
     1
 41
30.0
176
     1
 62
     5
 63
     7
421
 16777215
176
     1
 74
     2
176
     1
 91
        2
176
     1
 64
     7
176
     1
 65
     7
176
     1
 75
     1
176
     1
175
     1
176
     1
 42
40.0
176
     1
 92
       11
176
     1
 66
     7
176
     1
 43
1.0
176
     1
 76
     1
176
     1
 77
     6
176
     1
 78
     2
176
     1
 67
     7
176
     1
 79
     6
176
     1
170
     0
176
     1
171
     0
176
     1
290
     0
176
     1
 93
        1
176
     1
 44
0.0
176
     1
173
     0
176
     1
  0
VISUALSTYLE
  5
37
102
{ACAD_REACTORS
330
2A
102
}
102
{ACAD_XDICTIONARY
360
2D2
102
}
330
2A
100
AcDbVisualStyle
  2
Thicken
 70
    13
177
     2
291
     1
 71
     2
176
     1
 72
     2
176
     1
 73
     0
176
     1
 90
        0
176
     1
 40
0.6
176
     1
 41
30.0
176
     1
 62
     5
 63
     7
421
 16777215
176
     1
 74
     1
176
     1
 91
        4
176
     1
 64
     7
176
     1
 65
   257
176
     1
 75
     1
176
     1
175
     1
176
     1
 42
1.0
176
     1
 92
       12
176
     1
 66
     7
176
     1
 43
1.0
176
     1
 76
     1
176
     1
 77
     6
176
     1
 78
     2
176
     1
 67
     7
176
     1
 79
     5
176
     1
170
     0
176
     1
171
     0
176
     1
290
     0
176
     1
 93
        1
176
     1
 44
0.0
176
     1
173
     0
176
     1
  0
VISUALSTYLE
  5
30
102
{ACAD_REACTORS
330
2A
102
}
102
{ACAD_XDICTIONARY
360
2C4
102
}
330
2A
100
AcDbVisualStyle
  2
Wireframe
 70
     5
177
     2
291
     0
 71
     0
176
     1
 72
     2
176
     1
 73
     0
176
     1
 90
        0
176
     1
 40
0.6
176
     1
 41
30.0
176
     1
 62
     5
 63
     7
421
 16777215
176
     1
 74
     1
176
     1
 91
        4
176
     1
 64
     7
176
     1
 65
   257
176
     1
 75
     1
176
     1
175
     1
176
     1
 42
1.0
176
     1
 92
        0
176
     1
 66
   257
176
     1
 43
1.0
176
     1
 76
     1
176
     1
 77
     6
176
     1
 78
     2
176
     1
 67
     7
176
     1
 79
     3
176
     1
170
     0
176
     1
171
     0
176
     1
290
     0
176
     1
 93
        1
176
     1
 44
0.0
176
     1
173
     0
176
     1
  0
VISUALSTYLE
  5
40
102
{ACAD_REACTORS
330
2A
102
}
102
{ACAD_XDICTIONARY
360
2E4
102
}
330
2A
100
AcDbVisualStyle
  2
X-Ray
 70
    25
177
     2
291
     0
 71
     2
176
     1
 72
     2
176
     1
 73
     1
176
     1
 90
        1
176
     1
 40
0.5
176
     1
 41
30.0
176
     1
 62
     5
 63
     7
421
 16777215
176
     1
 74
     1
176
     1
 91
        0
176
     1
 64
     7
176
     1
 65
   257
176
     1
 75
     1
176
     1
175
     1
176
     1
 42
1.0
176
     1
 92
        8
176
     1
 66
     7
176
     1
 43
1.0
176
     1
 76
     1
176
     1
 77
     6
176
     1
 78
     2
176
     1
 67
     7
176
     1
 79
     3
176
     1
170
     0
176
     1
171
     0
176
     1
290
     0
176
     1
 93
       13
176
     1
 44
0.0
176
     1
173
     0
176
     1
  0
DICTIONARYVAR
  5
2B9
102
{ACAD_REACTORS
330
2B8
102
}
330
2B8
100
DictionaryVariables
280
     0
  1
1:1
  0
DICTIONARYVAR
  5
2EE
102
{ACAD_REACTORS
330
2B8
102
}
330
2B8
100
DictionaryVariables
280
     0
  1
Standard
  0
DICTIONARYVAR
  5
2ED
102
{ACAD_REACTORS
330
2B8
102
}
330
2B8
100
DictionaryVariables
280
     0
  1
Standard
  0
DICTIONARY
  5
2EA
330
6A
100
AcDbDictionary
280
     1
281
     1
  3
ACAD_ROUNDTRIP_2008_TABLESTYLE_CELLSTYLEMAP
360
2EB
  0
DICTIONARY
  5
2C2
330
2F
100
AcDbDictionary
280
     1
281
     1
  3
ACAD_XREC_ROUNDTRIP
360
2C3
  0
DICTIONARY
  5
2C8
330
32
100
AcDbDictionary
280
     1
281
     1
  3
ACAD_XREC_ROUNDTRIP
360
2C9
  0
DICTIONARY
  5
2D0
330
36
100
AcDbDictionary
280
     1
281
     1
  3
ACAD_XREC_ROUNDTRIP
360
2D1
  0
DICTIONARY
  5
2D8
330
3A
100
AcDbDictionary
280
     1
281
     1
  3
ACAD_XREC_ROUNDTRIP
360
2D9
  0
DICTIONARY
  5
2CC
330
34
100
AcDbDictionary
280
     1
281
     1
  3
ACAD_XREC_ROUNDTRIP
360
2CD
  0
DICTIONARY
  5
2CE
330
35
100
AcDbDictionary
280
     1
281
     1
  3
ACAD_XREC_ROUNDTRIP
360
2CF
  0
DICTIONARY
  5
2DE
330
3D
100
AcDbDictionary
280
     1
281
     1
  3
ACAD_XREC_ROUNDTRIP
360
2DF
  0
DICTIONARY
  5
2D6
330
39
100
AcDbDictionary
280
     1
281
     1
  3
ACAD_XREC_ROUNDTRIP
360
2D7
  0
DICTIONARY
  5
2BA
330
2B
100
AcDbDictionary
280
     1
281
     1
  3
ACAD_XREC_ROUNDTRIP
360
2BB
  0
DICTIONARY
  5
2BC
330
2C
100
AcDbDictionary
280
     1
281
     1
  3
ACAD_XREC_ROUNDTRIP
360
2BD
  0
DICTIONARY
  5
2BE
330
2D
100
AcDbDictionary
280
     1
281
     1
  3
ACAD_XREC_ROUNDTRIP
360
2BF
  0
DICTIONARY
  5
2C0
330
2E
100
AcDbDictionary
280
     1
281
     1
  3
ACAD_XREC_ROUNDTRIP
360
2C1
  0
DICTIONARY
  5
2C6
330
31
100
AcDbDictionary
280
     1
281
     1
  3
ACAD_XREC_ROUNDTRIP
360
2C7
  0
DICTIONARY
  5
2DA
330
3B
100
AcDbDictionary
280
     1
281
     1
  3
ACAD_XREC_ROUNDTRIP
360
2DB
  0
DICTIONARY
  5
2D4
330
38
100
AcDbDictionary
280
     1
281
     1
  3
ACAD_XREC_ROUNDTRIP
360
2D5
  0
DICTIONARY
  5
2DC
330
3C
100
AcDbDictionary
280
     1
281
     1
  3
ACAD_XREC_ROUNDTRIP
360
2DD
  0
DICTIONARY
  5
2CA
330
33
100
AcDbDictionary
280
     1
281
     1
  3
ACAD_XREC_ROUNDTRIP
360
2CB
  0
DICTIONARY
  5
2E8
330
42
100
AcDbDictionary
280
     1
281
     1
  3
ACAD_XREC_ROUNDTRIP
360
2E9
  0
DICTIONARY
  5
2E6
330
41
100
AcDbDictionary
280
     1
281
     1
  3
ACAD_XREC_ROUNDTRIP
360
2E7
  0
DICTIONARY
  5
2E0
330
3E
100
AcDbDictionary
280
     1
281
     1
  3
ACAD_XREC_ROUNDTRIP
360
2E1
  0
DICTIONARY
  5
2E2
330
3F
100
AcDbDictionary
280
     1
281
     1
  3
ACAD_XREC_ROUNDTRIP
360
2E3
  0
DICTIONARY
  5
2D2
330
37
100
AcDbDictionary
280
     1
281
     1
  3
ACAD_XREC_ROUNDTRIP
360
2D3
  0
DICTIONARY
  5
2C4
330
30
100
AcDbDictionary
280
     1
281
     1
  3
ACAD_XREC_ROUNDTRIP
360
2C5
  0
DICTIONARY
  5
2E4
330
40
100
AcDbDictionary
280
     1
281
     1
  3
ACAD_XREC_ROUNDTRIP
360
2E5
  0
CELLSTYLEMAP
  5
2EB
102
{ACAD_REACTORS
330
2EA
102
}
330
2EA
100
AcDbCellStyleMap
 90
        3
300
CELLSTYLE
  1
TABLEFORMAT_BEGIN
 90
        5
170
     1
 91
        0
 92
    32768
 62
   257
 93
        1
300
CONTENTFORMAT
  1
CONTENTFORMAT_BEGIN
 90
        0
 91
        0
 92
        4
 93
        0
300

 40
0.0
140
1.0
 94
        5
 62
     0
340
11
144
0.25
309
CONTENTFORMAT_END
171
     1
301
MARGIN
  1
CELLMARGIN_BEGIN
 40
0.06
 40
0.06
 40
0.06
 40
0.06
 40
0.06
 40
0.06
309
CELLMARGIN_END
 94
        6
 95
        1
302
GRIDFORMAT
  1
GRIDFORMAT_BEGIN
 90
        0
 91
        1
 62
     0
 92
       -2
340
14
 93
        0
 40
0.045
309
GRIDFORMAT_END
 95
        2
302
GRIDFORMAT
  1
GRIDFORMAT_BEGIN
 90
        0
 91
        1
 62
     0
 92
       -2
340
14
 93
        0
 40
0.045
309
GRIDFORMAT_END
 95
        4
302
GRIDFORMAT
  1
GRIDFORMAT_BEGIN
 90
        0
 91
        1
 62
     0
 92
       -2
340
14
 93
        0
 40
0.045
309
GRIDFORMAT_END
 95
        8
302
GRIDFORMAT
  1
GRIDFORMAT_BEGIN
 90
        0
 91
        1
 62
     0
 92
       -2
340
14
 93
        0
 40
0.045
309
GRIDFORMAT_END
 95
       16
302
GRIDFORMAT
  1
GRIDFORMAT_BEGIN
 90
        0
 91
        1
 62
     0
 92
       -2
340
14
 93
        0
 40
0.045
309
GRIDFORMAT_END
 95
       32
302
GRIDFORMAT
  1
GRIDFORMAT_BEGIN
 90
        0
 91
        1
 62
     0
 92
       -2
340
14
 93
        0
 40
0.045
309
GRIDFORMAT_END
309
TABLEFORMAT_END
  1
CELLSTYLE_BEGIN
 90
        1
 91
        1
300
_TITLE
309
CELLSTYLE_END
300
CELLSTYLE
  1
TABLEFORMAT_BEGIN
 90
        5
170
     1
 91
        0
 92
        0
 62
   257
 93
        1
300
CONTENTFORMAT
  1
CONTENTFORMAT_BEGIN
 90
        0
 91
        0
 92
        4
 93
        0
300

 40
0.0
140
1.0
 94
        5
 62
     0
340
11
144
0.18
309
CONTENTFORMAT_END
171
     1
301
MARGIN
  1
CELLMARGIN_BEGIN
 40
0.06
 40
0.06
 40
0.06
 40
0.06
 40
0.06
 40
0.06
309
CELLMARGIN_END
 94
        6
 95
        1
302
GRIDFORMAT
  1
GRIDFORMAT_BEGIN
 90
        0
 91
        1
 62
     0
 92
       -2
340
14
 93
        0
 40
0.045
309
GRIDFORMAT_END
 95
        2
302
GRIDFORMAT
  1
GRIDFORMAT_BEGIN
 90
        0
 91
        1
 62
     0
 92
       -2
340
14
 93
        0
 40
0.045
309
GRIDFORMAT_END
 95
        4
302
GRIDFORMAT
  1
GRIDFORMAT_BEGIN
 90
        0
 91
        1
 62
     0
 92
       -2
340
14
 93
        0
 40
0.045
309
GRIDFORMAT_END
 95
        8
302
GRIDFORMAT
  1
GRIDFORMAT_BEGIN
 90
        0
 91
        1
 62
     0
 92
       -2
340
14
 93
        0
 40
0.045
309
GRIDFORMAT_END
 95
       16
302
GRIDFORMAT
  1
GRIDFORMAT_BEGIN
 90
        0
 91
        1
 62
     0
 92
       -2
340
14
 93
        0
 40
0.045
309
GRIDFORMAT_END
 95
       32
302
GRIDFORMAT
  1
GRIDFORMAT_BEGIN
 90
        0
 91
        1
 62
     0
 92
       -2
340
14
 93
        0
 40
0.045
309
GRIDFORMAT_END
309
TABLEFORMAT_END
  1
CELLSTYLE_BEGIN
 90
        2
 91
        1
300
_HEADER
309
CELLSTYLE_END
300
CELLSTYLE
  1
TABLEFORMAT_BEGIN
 90
        5
170
     1
 91
        0
 92
        0
 62
   257
 93
        1
300
CONTENTFORMAT
  1
CONTENTFORMAT_BEGIN
 90
        0
 91
        0
 92
        4
 93
        0
300

 40
0.0
140
1.0
 94
        2
 62
     0
340
11
144
0.18
309
CONTENTFORMAT_END
171
     1
301
MARGIN
  1
CELLMARGIN_BEGIN
 40
0.06
 40
0.06
 40
0.06
 40
0.06
 40
0.06
 40
0.06
309
CELLMARGIN_END
 94
        6
 95
        1
302
GRIDFORMAT
  1
GRIDFORMAT_BEGIN
 90
        0
 91
        1
 62
     0
 92
       -2
340
14
 93
        0
 40
0.045
309
GRIDFORMAT_END
 95
        2
302
GRIDFORMAT
  1
GRIDFORMAT_BEGIN
 90
        0
 91
        1
 62
     0
 92
       -2
340
14
 93
        0
 40
0.045
309
GRIDFORMAT_END
 95
        4
302
GRIDFORMAT
  1
GRIDFORMAT_BEGIN
 90
        0
 91
        1
 62
     0
 92
       -2
340
14
 93
        0
 40
0.045
309
GRIDFORMAT_END
 95
        8
302
GRIDFORMAT
  1
GRIDFORMAT_BEGIN
 90
        0
 91
        1
 62
     0
 92
       -2
340
14
 93
        0
 40
0.045
309
GRIDFORMAT_END
 95
       16
302
GRIDFORMAT
  1
GRIDFORMAT_BEGIN
 90
        0
 91
        1
 62
     0
 92
       -2
340
14
 93
        0
 40
0.045
309
GRIDFORMAT_END
 95
       32
302
GRIDFORMAT
  1
GRIDFORMAT_BEGIN
 90
        0
 91
        1
 62
     0
 92
       -2
340
14
 93
        0
 40
0.045
309
GRIDFORMAT_END
309
TABLEFORMAT_END
  1
CELLSTYLE_BEGIN
 90
        3
 91
        2
300
_DATA
309
CELLSTYLE_END
  0
XRECORD
  5
2C3
102
{ACAD_REACTORS
330
2C2
102
}
330
2C2
100
AcDbXrecord
280
     1
102
RTVSPost2010Prop28
280
     1
102
RTVSPost2010PropOp28
 70
     1
102
RTVSPost2010Prop29
280
     1
102
RTVSPost2010PropOp29
 70
     1
102
RTVSPost2010Prop30
280
     0
102
RTVSPost2010PropOp30
 70
     1
102
RTVSPost2010Prop31
280
     0
102
RTVSPost2010PropOp31
 70
     1
102
RTVSPost2010Prop32
280
     0
102
RTVSPost2010PropOp32
 70
     1
102
RTVSPost2010Prop33
280
     0
102
RTVSPost2010PropOp33
 70
     1
102
RTVSPost2010Prop34
280
     0
102
RTVSPost2010PropOp34
 70
     1
102
RTVSPost2010Prop35
280
     0
102
RTVSPost2010PropOp35
 70
     1
102
RTVSPost2010Prop36
280
     0
102
RTVSPost2010PropOp36
 70
     1
102
RTVSPost2010Prop37
 90
       50
102
RTVSPost2010PropOp37
 70
     1
102
RTVSPost2010Prop38
140
0.0
102
RTVSPost2010PropOp38
 70
     1
102
RTVSPost2010Prop39
140
1.0
102
RTVSPost2010PropOp39
 70
     1
102
RTVSPost2010Prop40
 90
        0
102
RTVSPost2010PropOp40
 70
     1
102
RTVSPost2010Prop41ColorIndex
 90
       18
102
RTVSPost2010Prop41ColorRGB
 90
        0
102
RTVSPost2010PropOp41
 70
     1
102
RTVSPost2010Prop42
 90
       50
102
RTVSPost2010PropOp42
 70
     1
102
RTVSPost2010Prop43
 90
        3
102
RTVSPost2010PropOp43
 70
     1
102
RTVSPost2010Prop44ColorIndex
 90
        5
102
RTVSPost2010Prop44ColorRGB
 90
      255
102
RTVSPost2010PropOp44
 70
     1
102
RTVSPost2010Prop45
280
     0
102
RTVSPost2010PropOp45
 70
     1
102
RTVSPost2010Prop46
 90
       50
102
RTVSPost2010PropOp46
 70
     1
102
RTVSPost2010Prop47
 90
       50
102
RTVSPost2010PropOp47
 70
     1
102
RTVSPost2010Prop48
 90
       50
102
RTVSPost2010PropOp48
 70
     1
102
RTVSPost2010Prop49
280
     0
102
RTVSPost2010PropOp49
 70
     1
102
RTVSPost2010Prop50
 90
       50
102
RTVSPost2010PropOp50
 70
     1
102
RTVSPost2010Prop51ColorIndex
 90
      256
102
RTVSPost2010Prop51ColorRGB
 90
-16777216
102
RTVSPost2010PropOp51
 70
     0
102
RTVSPost2010Prop52
140
1.0
102
RTVSPost2010PropOp52
 70
     0
102
RTVSPost2010Prop53
 90
        2
102
RTVSPost2010PropOp53
 70
     1
102
RTVSPost2010Prop54
  1
strokes_ogs.tif
102
RTVSPost2010PropOp54
 70
     1
102
RTVSPost2010Prop55
280
     0
102
RTVSPost2010PropOp55
 70
     1
102
RTVSPost2010Prop56
140
1.0
102
RTVSPost2010PropOp56
 70
     1
102
RTVSPost2010Prop57
140
1.0
102
RTVSPost2010PropOp57
 70
     1
  0
XRECORD
  5
2C9
102
{ACAD_REACTORS
330
2C8
102
}
330
2C8
100
AcDbXrecord
280
     1
102
RTVSPost2010Prop28
280
     0
102
RTVSPost2010PropOp28
 70
     1
102
RTVSPost2010Prop29
280
     1
102
RTVSPost2010PropOp29
 70
     1
102
RTVSPost2010Prop30
280
     1
102
RTVSPost2010PropOp30
 70
     1
102
RTVSPost2010Prop31
280
     0
102
RTVSPost2010PropOp31
 70
     1
102
RTVSPost2010Prop32
280
     0
102
RTVSPost2010PropOp32
 70
     1
102
RTVSPost2010Prop33
280
     0
102
RTVSPost2010PropOp33
 70
     1
102
RTVSPost2010Prop34
280
     0
102
RTVSPost2010PropOp34
 70
     1
102
RTVSPost2010Prop35
280
     0
102
RTVSPost2010PropOp35
 70
     1
102
RTVSPost2010Prop36
280
     0
102
RTVSPost2010PropOp36
 70
     1
102
RTVSPost2010Prop37
 90
       50
102
RTVSPost2010PropOp37
 70
     1
102
RTVSPost2010Prop38
140
0.0
102
RTVSPost2010PropOp38
 70
     1
102
RTVSPost2010Prop39
140
1.0
102
RTVSPost2010PropOp39
 70
     1
102
RTVSPost2010Prop40
 90
        0
102
RTVSPost2010PropOp40
 70
     1
102
RTVSPost2010Prop41ColorIndex
 90
       18
102
RTVSPost2010Prop41ColorRGB
 90
        0
102
RTVSPost2010PropOp41
 70
     1
102
RTVSPost2010Prop42
 90
       50
102
RTVSPost2010PropOp42
 70
     1
102
RTVSPost2010Prop43
 90
        3
102
RTVSPost2010PropOp43
 70
     1
102
RTVSPost2010Prop44ColorIndex
 90
        5
102
RTVSPost2010Prop44ColorRGB
 90
      255
102
RTVSPost2010PropOp44
 70
     1
102
RTVSPost2010Prop45
280
     0
102
RTVSPost2010PropOp45
 70
     1
102
RTVSPost2010Prop46
 90
       50
102
RTVSPost2010PropOp46
 70
     1
102
RTVSPost2010Prop47
 90
       50
102
RTVSPost2010PropOp47
 70
     1
102
RTVSPost2010Prop48
 90
       50
102
RTVSPost2010PropOp48
 70
     1
102
RTVSPost2010Prop49
280
     0
102
RTVSPost2010PropOp49
 70
     1
102
RTVSPost2010Prop50
 90
       50
102
RTVSPost2010PropOp50
 70
     1
102
RTVSPost2010Prop51ColorIndex
 90
      256
102
RTVSPost2010Prop51ColorRGB
 90
-16777216
102
RTVSPost2010PropOp51
 70
     0
102
RTVSPost2010Prop52
140
1.0
102
RTVSPost2010PropOp52
 70
     0
102
RTVSPost2010Prop53
 90
        2
102
RTVSPost2010PropOp53
 70
     1
102
RTVSPost2010Prop54
  1
strokes_ogs.tif
102
RTVSPost2010PropOp54
 70
     1
102
RTVSPost2010Prop55
280
     0
102
RTVSPost2010PropOp55
 70
     1
102
RTVSPost2010Prop56
140
1.0
102
RTVSPost2010PropOp56
 70
     1
102
RTVSPost2010Prop57
140
1.0
102
RTVSPost2010PropOp57
 70
     1
  0
XRECORD
  5
2D1
102
{ACAD_REACTORS
330
2D0
102
}
330
2D0
100
AcDbXrecord
280
     1
102
RTVSPost2010Prop28
280
     0
102
RTVSPost2010PropOp28
 70
     1
102
RTVSPost2010Prop29
280
     1
102
RTVSPost2010PropOp29
 70
     1
102
RTVSPost2010Prop30
280
     1
102
RTVSPost2010PropOp30
 70
     1
102
RTVSPost2010Prop31
280
     0
102
RTVSPost2010PropOp31
 70
     1
102
RTVSPost2010Prop32
280
     0
102
RTVSPost2010PropOp32
 70
     1
102
RTVSPost2010Prop33
280
     0
102
RTVSPost2010PropOp33
 70
     1
102
RTVSPost2010Prop34
280
     0
102
RTVSPost2010PropOp34
 70
     1
102
RTVSPost2010Prop35
280
     0
102
RTVSPost2010PropOp35
 70
     1
102
RTVSPost2010Prop36
280
     0
102
RTVSPost2010PropOp36
 70
     1
102
RTVSPost2010Prop37
 90
       50
102
RTVSPost2010PropOp37
 70
     1
102
RTVSPost2010Prop38
140
0.0
102
RTVSPost2010PropOp38
 70
     1
102
RTVSPost2010Prop39
140
1.0
102
RTVSPost2010PropOp39
 70
     1
102
RTVSPost2010Prop40
 90
        0
102
RTVSPost2010PropOp40
 70
     1
102
RTVSPost2010Prop41ColorIndex
 90
       18
102
RTVSPost2010Prop41ColorRGB
 90
        0
102
RTVSPost2010PropOp41
 70
     1
102
RTVSPost2010Prop42
 90
       50
102
RTVSPost2010PropOp42
 70
     1
102
RTVSPost2010Prop43
 90
        3
102
RTVSPost2010PropOp43
 70
     1
102
RTVSPost2010Prop44ColorIndex
 90
        5
102
RTVSPost2010Prop44ColorRGB
 90
      255
102
RTVSPost2010PropOp44
 70
     1
102
RTVSPost2010Prop45
280
     0
102
RTVSPost2010PropOp45
 70
     1
102
RTVSPost2010Prop46
 90
       50
102
RTVSPost2010PropOp46
 70
     1
102
RTVSPost2010Prop47
 90
       50
102
RTVSPost2010PropOp47
 70
     1
102
RTVSPost2010Prop48
 90
       50
102
RTVSPost2010PropOp48
 70
     1
102
RTVSPost2010Prop49
280
     0
102
RTVSPost2010PropOp49
 70
     1
102
RTVSPost2010Prop50
 90
       50
102
RTVSPost2010PropOp50
 70
     1
102
RTVSPost2010Prop51ColorIndex
 90
      256
102
RTVSPost2010Prop51ColorRGB
 90
-16777216
102
RTVSPost2010PropOp51
 70
     0
102
RTVSPost2010Prop52
140
1.0
102
RTVSPost2010PropOp52
 70
     0
102
RTVSPost2010Prop53
 90
        2
102
RTVSPost2010PropOp53
 70
     1
102
RTVSPost2010Prop54
  1
strokes_ogs.tif
102
RTVSPost2010PropOp54
 70
     1
102
RTVSPost2010Prop55
280
     0
102
RTVSPost2010PropOp55
 70
     1
102
RTVSPost2010Prop56
140
1.0
102
RTVSPost2010PropOp56
 70
     1
102
RTVSPost2010Prop57
140
1.0
102
RTVSPost2010PropOp57
 70
     1
  0
XRECORD
  5
2D9
102
{ACAD_REACTORS
330
2D8
102
}
330
2D8
100
AcDbXrecord
280
     1
102
RTVSPost2010Prop28
280
     0
102
RTVSPost2010PropOp28
 70
     1
102
RTVSPost2010Prop29
280
     1
102
RTVSPost2010PropOp29
 70
     1
102
RTVSPost2010Prop30
280
     1
102
RTVSPost2010PropOp30
 70
     1
102
RTVSPost2010Prop31
280
     0
102
RTVSPost2010PropOp31
 70
     1
102
RTVSPost2010Prop32
280
     0
102
RTVSPost2010PropOp32
 70
     1
102
RTVSPost2010Prop33
280
     0
102
RTVSPost2010PropOp33
 70
     1
102
RTVSPost2010Prop34
280
     0
102
RTVSPost2010PropOp34
 70
     1
102
RTVSPost2010Prop35
280
     0
102
RTVSPost2010PropOp35
 70
     1
102
RTVSPost2010Prop36
280
     0
102
RTVSPost2010PropOp36
 70
     1
102
RTVSPost2010Prop37
 90
       50
102
RTVSPost2010PropOp37
 70
     1
102
RTVSPost2010Prop38
140
0.0
102
RTVSPost2010PropOp38
 70
     1
102
RTVSPost2010Prop39
140
1.0
102
RTVSPost2010PropOp39
 70
     1
102
RTVSPost2010Prop40
 90
        0
102
RTVSPost2010PropOp40
 70
     1
102
RTVSPost2010Prop41ColorIndex
 90
       18
102
RTVSPost2010Prop41ColorRGB
 90
        0
102
RTVSPost2010PropOp41
 70
     1
102
RTVSPost2010Prop42
 90
       50
102
RTVSPost2010PropOp42
 70
     1
102
RTVSPost2010Prop43
 90
        3
102
RTVSPost2010PropOp43
 70
     1
102
RTVSPost2010Prop44ColorIndex
 90
        5
102
RTVSPost2010Prop44ColorRGB
 90
      255
102
RTVSPost2010PropOp44
 70
     1
102
RTVSPost2010Prop45
280
     0
102
RTVSPost2010PropOp45
 70
     1
102
RTVSPost2010Prop46
 90
       50
102
RTVSPost2010PropOp46
 70
     1
102
RTVSPost2010Prop47
 90
       50
102
RTVSPost2010PropOp47
 70
     1
102
RTVSPost2010Prop48
 90
       50
102
RTVSPost2010PropOp48
 70
     1
102
RTVSPost2010Prop49
280
     0
102
RTVSPost2010PropOp49
 70
     1
102
RTVSPost2010Prop50
 90
       50
102
RTVSPost2010PropOp50
 70
     1
102
RTVSPost2010Prop51ColorIndex
 90
      256
102
RTVSPost2010Prop51ColorRGB
 90
-16777216
102
RTVSPost2010PropOp51
 70
     0
102
RTVSPost2010Prop52
140
1.0
102
RTVSPost2010PropOp52
 70
     0
102
RTVSPost2010Prop53
 90
        2
102
RTVSPost2010PropOp53
 70
     1
102
RTVSPost2010Prop54
  1
strokes_ogs.tif
102
RTVSPost2010PropOp54
 70
     1
102
RTVSPost2010Prop55
280
     0
102
RTVSPost2010PropOp55
 70
     1
102
RTVSPost2010Prop56
140
1.0
102
RTVSPost2010PropOp56
 70
     1
102
RTVSPost2010Prop57
140
1.0
102
RTVSPost2010PropOp57
 70
     1
  0
XRECORD
  5
2CD
102
{ACAD_REACTORS
330
2CC
102
}
330
2CC
100
AcDbXrecord
280
     1
102
RTVSPost2010Prop28
280
     0
102
RTVSPost2010PropOp28
 70
     1
102
RTVSPost2010Prop29
280
     1
102
RTVSPost2010PropOp29
 70
     1
102
RTVSPost2010Prop30
280
     1
102
RTVSPost2010PropOp30
 70
     1
102
RTVSPost2010Prop31
280
     0
102
RTVSPost2010PropOp31
 70
     1
102
RTVSPost2010Prop32
280
     0
102
RTVSPost2010PropOp32
 70
     1
102
RTVSPost2010Prop33
280
     0
102
RTVSPost2010PropOp33
 70
     1
102
RTVSPost2010Prop34
280
     0
102
RTVSPost2010PropOp34
 70
     1
102
RTVSPost2010Prop35
280
     0
102
RTVSPost2010PropOp35
 70
     1
102
RTVSPost2010Prop36
280
     0
102
RTVSPost2010PropOp36
 70
     1
102
RTVSPost2010Prop37
 90
       50
102
RTVSPost2010PropOp37
 70
     1
102
RTVSPost2010Prop38
140
0.0
102
RTVSPost2010PropOp38
 70
     1
102
RTVSPost2010Prop39
140
1.0
102
RTVSPost2010PropOp39
 70
     1
102
RTVSPost2010Prop40
 90
        0
102
RTVSPost2010PropOp40
 70
     1
102
RTVSPost2010Prop41ColorIndex
 90
       18
102
RTVSPost2010Prop41ColorRGB
 90
        0
102
RTVSPost2010PropOp41
 70
     1
102
RTVSPost2010Prop42
 90
       50
102
RTVSPost2010PropOp42
 70
     1
102
RTVSPost2010Prop43
 90
        3
102
RTVSPost2010PropOp43
 70
     1
102
RTVSPost2010Prop44ColorIndex
 90
        5
102
RTVSPost2010Prop44ColorRGB
 90
      255
102
RTVSPost2010PropOp44
 70
     1
102
RTVSPost2010Prop45
280
     0
102
RTVSPost2010PropOp45
 70
     1
102
RTVSPost2010Prop46
 90
       50
102
RTVSPost2010PropOp46
 70
     1
102
RTVSPost2010Prop47
 90
       50
102
RTVSPost2010PropOp47
 70
     1
102
RTVSPost2010Prop48
 90
       50
102
RTVSPost2010PropOp48
 70
     1
102
RTVSPost2010Prop49
280
     0
102
RTVSPost2010PropOp49
 70
     1
102
RTVSPost2010Prop50
 90
       50
102
RTVSPost2010PropOp50
 70
     1
102
RTVSPost2010Prop51ColorIndex
 90
      256
102
RTVSPost2010Prop51ColorRGB
 90
-16777216
102
RTVSPost2010PropOp51
 70
     0
102
RTVSPost2010Prop52
140
1.0
102
RTVSPost2010PropOp52
 70
     0
102
RTVSPost2010Prop53
 90
        2
102
RTVSPost2010PropOp53
 70
     1
102
RTVSPost2010Prop54
  1
strokes_ogs.tif
102
RTVSPost2010PropOp54
 70
     1
102
RTVSPost2010Prop55
280
     0
102
RTVSPost2010PropOp55
 70
     1
102
RTVSPost2010Prop56
140
1.0
102
RTVSPost2010PropOp56
 70
     1
102
RTVSPost2010Prop57
140
1.0
102
RTVSPost2010PropOp57
 70
     1
  0
XRECORD
  5
2CF
102
{ACAD_REACTORS
330
2CE
102
}
330
2CE
100
AcDbXrecord
280
     1
102
RTVSPost2010Prop28
280
     0
102
RTVSPost2010PropOp28
 70
     1
102
RTVSPost2010Prop29
280
     1
102
RTVSPost2010PropOp29
 70
     1
102
RTVSPost2010Prop30
280
     1
102
RTVSPost2010PropOp30
 70
     1
102
RTVSPost2010Prop31
280
     0
102
RTVSPost2010PropOp31
 70
     1
102
RTVSPost2010Prop32
280
     0
102
RTVSPost2010PropOp32
 70
     1
102
RTVSPost2010Prop33
280
     0
102
RTVSPost2010PropOp33
 70
     1
102
RTVSPost2010Prop34
280
     0
102
RTVSPost2010PropOp34
 70
     1
102
RTVSPost2010Prop35
280
     0
102
RTVSPost2010PropOp35
 70
     1
102
RTVSPost2010Prop36
280
     0
102
RTVSPost2010PropOp36
 70
     1
102
RTVSPost2010Prop37
 90
       50
102
RTVSPost2010PropOp37
 70
     1
102
RTVSPost2010Prop38
140
0.0
102
RTVSPost2010PropOp38
 70
     1
102
RTVSPost2010Prop39
140
1.0
102
RTVSPost2010PropOp39
 70
     1
102
RTVSPost2010Prop40
 90
        0
102
RTVSPost2010PropOp40
 70
     1
102
RTVSPost2010Prop41ColorIndex
 90
       18
102
RTVSPost2010Prop41ColorRGB
 90
        0
102
RTVSPost2010PropOp41
 70
     1
102
RTVSPost2010Prop42
 90
       50
102
RTVSPost2010PropOp42
 70
     1
102
RTVSPost2010Prop43
 90
        3
102
RTVSPost2010PropOp43
 70
     1
102
RTVSPost2010Prop44ColorIndex
 90
        5
102
RTVSPost2010Prop44ColorRGB
 90
      255
102
RTVSPost2010PropOp44
 70
     1
102
RTVSPost2010Prop45
280
     0
102
RTVSPost2010PropOp45
 70
     1
102
RTVSPost2010Prop46
 90
       50
102
RTVSPost2010PropOp46
 70
     1
102
RTVSPost2010Prop47
 90
       50
102
RTVSPost2010PropOp47
 70
     1
102
RTVSPost2010Prop48
 90
       50
102
RTVSPost2010PropOp48
 70
     1
102
RTVSPost2010Prop49
280
     0
102
RTVSPost2010PropOp49
 70
     1
102
RTVSPost2010Prop50
 90
       50
102
RTVSPost2010PropOp50
 70
     1
102
RTVSPost2010Prop51ColorIndex
 90
      256
102
RTVSPost2010Prop51ColorRGB
 90
-16777216
102
RTVSPost2010PropOp51
 70
     0
102
RTVSPost2010Prop52
140
1.0
102
RTVSPost2010PropOp52
 70
     0
102
RTVSPost2010Prop53
 90
        2
102
RTVSPost2010PropOp53
 70
     1
102
RTVSPost2010Prop54
  1
strokes_ogs.tif
102
RTVSPost2010PropOp54
 70
     1
102
RTVSPost2010Prop55
280
     0
102
RTVSPost2010PropOp55
 70
     1
102
RTVSPost2010Prop56
140
1.0
102
RTVSPost2010PropOp56
 70
     1
102
RTVSPost2010Prop57
140
1.0
102
RTVSPost2010PropOp57
 70
     1
  0
XRECORD
  5
2DF
102
{ACAD_REACTORS
330
2DE
102
}
330
2DE
100
AcDbXrecord
280
     1
102
RTVSPost2010Prop28
280
     0
102
RTVSPost2010PropOp28
 70
     0
102
RTVSPost2010Prop29
280
     1
102
RTVSPost2010PropOp29
 70
     0
102
RTVSPost2010Prop30
280
     1
102
RTVSPost2010PropOp30
 70
     0
102
RTVSPost2010Prop31
280
     0
102
RTVSPost2010PropOp31
 70
     0
102
RTVSPost2010Prop32
280
     0
102
RTVSPost2010PropOp32
 70
     0
102
RTVSPost2010Prop33
280
     0
102
RTVSPost2010PropOp33
 70
     0
102
RTVSPost2010Prop34
280
     0
102
RTVSPost2010PropOp34
 70
     0
102
RTVSPost2010Prop35
280
     0
102
RTVSPost2010PropOp35
 70
     0
102
RTVSPost2010Prop36
280
     0
102
RTVSPost2010PropOp36
 70
     0
102
RTVSPost2010Prop37
 90
       50
102
RTVSPost2010PropOp37
 70
     0
102
RTVSPost2010Prop38
140
0.0
102
RTVSPost2010PropOp38
 70
     0
102
RTVSPost2010Prop39
140
1.0
102
RTVSPost2010PropOp39
 70
     0
102
RTVSPost2010Prop40
 90
        0
102
RTVSPost2010PropOp40
 70
     0
102
RTVSPost2010Prop41ColorIndex
 90
       18
102
RTVSPost2010Prop41ColorRGB
 90
        0
102
RTVSPost2010PropOp41
 70
     0
102
RTVSPost2010Prop42
 90
       50
102
RTVSPost2010PropOp42
 70
     0
102
RTVSPost2010Prop43
 90
        3
102
RTVSPost2010PropOp43
 70
     0
102
RTVSPost2010Prop44ColorIndex
 90
        5
102
RTVSPost2010Prop44ColorRGB
 90
      255
102
RTVSPost2010PropOp44
 70
     0
102
RTVSPost2010Prop45
280
     0
102
RTVSPost2010PropOp45
 70
     0
102
RTVSPost2010Prop46
 90
       50
102
RTVSPost2010PropOp46
 70
     0
102
RTVSPost2010Prop47
 90
       50
102
RTVSPost2010PropOp47
 70
     0
102
RTVSPost2010Prop48
 90
       50
102
RTVSPost2010PropOp48
 70
     0
102
RTVSPost2010Prop49
280
     0
102
RTVSPost2010PropOp49
 70
     0
102
RTVSPost2010Prop50
 90
       50
102
RTVSPost2010PropOp50
 70
     0
102
RTVSPost2010Prop51ColorIndex
 90
      256
102
RTVSPost2010Prop51ColorRGB
 90
-16777216
102
RTVSPost2010PropOp51
 70
     0
102
RTVSPost2010Prop52
140
1.0
102
RTVSPost2010PropOp52
 70
     0
102
RTVSPost2010Prop53
 90
        2
102
RTVSPost2010PropOp53
 70
     0
102
RTVSPost2010Prop54
  1
strokes_ogs.tif
102
RTVSPost2010PropOp54
 70
     0
102
RTVSPost2010Prop55
280
     0
102
RTVSPost2010PropOp55
 70
     0
102
RTVSPost2010Prop56
140
1.0
102
RTVSPost2010PropOp56
 70
     0
102
RTVSPost2010Prop57
140
1.0
102
RTVSPost2010PropOp57
 70
     0
  0
XRECORD
  5
2D7
102
{ACAD_REACTORS
330
2D6
102
}
330
2D6
100
AcDbXrecord
280
     1
102
RTVSPost2010Prop28
280
     0
102
RTVSPost2010PropOp28
 70
     1
102
RTVSPost2010Prop29
280
     1
102
RTVSPost2010PropOp29
 70
     1
102
RTVSPost2010Prop30
280
     1
102
RTVSPost2010PropOp30
 70
     1
102
RTVSPost2010Prop31
280
     0
102
RTVSPost2010PropOp31
 70
     1
102
RTVSPost2010Prop32
280
     0
102
RTVSPost2010PropOp32
 70
     1
102
RTVSPost2010Prop33
280
     0
102
RTVSPost2010PropOp33
 70
     1
102
RTVSPost2010Prop34
280
     0
102
RTVSPost2010PropOp34
 70
     1
102
RTVSPost2010Prop35
280
     0
102
RTVSPost2010PropOp35
 70
     1
102
RTVSPost2010Prop36
280
     0
102
RTVSPost2010PropOp36
 70
     1
102
RTVSPost2010Prop37
 90
       50
102
RTVSPost2010PropOp37
 70
     1
102
RTVSPost2010Prop38
140
0.0
102
RTVSPost2010PropOp38
 70
     1
102
RTVSPost2010Prop39
140
1.0
102
RTVSPost2010PropOp39
 70
     1
102
RTVSPost2010Prop40
 90
        0
102
RTVSPost2010PropOp40
 70
     1
102
RTVSPost2010Prop41ColorIndex
 90
       18
102
RTVSPost2010Prop41ColorRGB
 90
        0
102
RTVSPost2010PropOp41
 70
     1
102
RTVSPost2010Prop42
 90
       50
102
RTVSPost2010PropOp42
 70
     1
102
RTVSPost2010Prop43
 90
        3
102
RTVSPost2010PropOp43
 70
     1
102
RTVSPost2010Prop44ColorIndex
 90
        5
102
RTVSPost2010Prop44ColorRGB
 90
      255
102
RTVSPost2010PropOp44
 70
     1
102
RTVSPost2010Prop45
280
     0
102
RTVSPost2010PropOp45
 70
     1
102
RTVSPost2010Prop46
 90
       50
102
RTVSPost2010PropOp46
 70
     1
102
RTVSPost2010Prop47
 90
       50
102
RTVSPost2010PropOp47
 70
     1
102
RTVSPost2010Prop48
 90
       50
102
RTVSPost2010PropOp48
 70
     1
102
RTVSPost2010Prop49
280
     0
102
RTVSPost2010PropOp49
 70
     1
102
RTVSPost2010Prop50
 90
       50
102
RTVSPost2010PropOp50
 70
     1
102
RTVSPost2010Prop51ColorIndex
 90
      256
102
RTVSPost2010Prop51ColorRGB
 90
-16777216
102
RTVSPost2010PropOp51
 70
     0
102
RTVSPost2010Prop52
140
1.0
102
RTVSPost2010PropOp52
 70
     0
102
RTVSPost2010Prop53
 90
        2
102
RTVSPost2010PropOp53
 70
     1
102
RTVSPost2010Prop54
  1
strokes_ogs.tif
102
RTVSPost2010PropOp54
 70
     1
102
RTVSPost2010Prop55
280
     0
102
RTVSPost2010PropOp55
 70
     1
102
RTVSPost2010Prop56
140
1.0
102
RTVSPost2010PropOp56
 70
     1
102
RTVSPost2010Prop57
140
1.0
102
RTVSPost2010PropOp57
 70
     1
  0
XRECORD
  5
2BB
102
{ACAD_REACTORS
330
2BA
102
}
330
2BA
100
AcDbXrecord
280
     1
102
RTVSPost2010Prop28
280
     0
102
RTVSPost2010PropOp28
 70
     1
102
RTVSPost2010Prop29
280
     1
102
RTVSPost2010PropOp29
 70
     1
102
RTVSPost2010Prop30
280
     1
102
RTVSPost2010PropOp30
 70
     1
102
RTVSPost2010Prop31
280
     0
102
RTVSPost2010PropOp31
 70
     1
102
RTVSPost2010Prop32
280
     0
102
RTVSPost2010PropOp32
 70
     1
102
RTVSPost2010Prop33
280
     0
102
RTVSPost2010PropOp33
 70
     1
102
RTVSPost2010Prop34
280
     0
102
RTVSPost2010PropOp34
 70
     1
102
RTVSPost2010Prop35
280
     0
102
RTVSPost2010PropOp35
 70
     1
102
RTVSPost2010Prop36
280
     0
102
RTVSPost2010PropOp36
 70
     1
102
RTVSPost2010Prop37
 90
       50
102
RTVSPost2010PropOp37
 70
     1
102
RTVSPost2010Prop38
140
0.0
102
RTVSPost2010PropOp38
 70
     1
102
RTVSPost2010Prop39
140
1.0
102
RTVSPost2010PropOp39
 70
     1
102
RTVSPost2010Prop40
 90
        0
102
RTVSPost2010PropOp40
 70
     1
102
RTVSPost2010Prop41ColorIndex
 90
       18
102
RTVSPost2010Prop41ColorRGB
 90
        0
102
RTVSPost2010PropOp41
 70
     1
102
RTVSPost2010Prop42
 90
       50
102
RTVSPost2010PropOp42
 70
     1
102
RTVSPost2010Prop43
 90
        3
102
RTVSPost2010PropOp43
 70
     1
102
RTVSPost2010Prop44ColorIndex
 90
        5
102
RTVSPost2010Prop44ColorRGB
 90
      255
102
RTVSPost2010PropOp44
 70
     1
102
RTVSPost2010Prop45
280
     0
102
RTVSPost2010PropOp45
 70
     1
102
RTVSPost2010Prop46
 90
       50
102
RTVSPost2010PropOp46
 70
     1
102
RTVSPost2010Prop47
 90
       50
102
RTVSPost2010PropOp47
 70
     1
102
RTVSPost2010Prop48
 90
       50
102
RTVSPost2010PropOp48
 70
     1
102
RTVSPost2010Prop49
280
     0
102
RTVSPost2010PropOp49
 70
     1
102
RTVSPost2010Prop50
 90
       50
102
RTVSPost2010PropOp50
 70
     1
102
RTVSPost2010Prop51ColorIndex
 90
      256
102
RTVSPost2010Prop51ColorRGB
 90
-16777216
102
RTVSPost2010PropOp51
 70
     0
102
RTVSPost2010Prop52
140
1.0
102
RTVSPost2010PropOp52
 70
     0
102
RTVSPost2010Prop53
 90
        2
102
RTVSPost2010PropOp53
 70
     1
102
RTVSPost2010Prop54
  1
strokes_ogs.tif
102
RTVSPost2010PropOp54
 70
     1
102
RTVSPost2010Prop55
280
     0
102
RTVSPost2010PropOp55
 70
     1
102
RTVSPost2010Prop56
140
1.0
102
RTVSPost2010PropOp56
 70
     1
102
RTVSPost2010Prop57
140
1.0
102
RTVSPost2010PropOp57
 70
     1
  0
XRECORD
  5
2BD
102
{ACAD_REACTORS
330
2BC
102
}
330
2BC
100
AcDbXrecord
280
     1
102
RTVSPost2010Prop28
280
     0
102
RTVSPost2010PropOp28
 70
     1
102
RTVSPost2010Prop29
280
     1
102
RTVSPost2010PropOp29
 70
     1
102
RTVSPost2010Prop30
280
     1
102
RTVSPost2010PropOp30
 70
     1
102
RTVSPost2010Prop31
280
     0
102
RTVSPost2010PropOp31
 70
     1
102
RTVSPost2010Prop32
280
     0
102
RTVSPost2010PropOp32
 70
     1
102
RTVSPost2010Prop33
280
     0
102
RTVSPost2010PropOp33
 70
     1
102
RTVSPost2010Prop34
280
     0
102
RTVSPost2010PropOp34
 70
     1
102
RTVSPost2010Prop35
280
     0
102
RTVSPost2010PropOp35
 70
     1
102
RTVSPost2010Prop36
280
     0
102
RTVSPost2010PropOp36
 70
     1
102
RTVSPost2010Prop37
 90
       50
102
RTVSPost2010PropOp37
 70
     1
102
RTVSPost2010Prop38
140
0.0
102
RTVSPost2010PropOp38
 70
     1
102
RTVSPost2010Prop39
140
1.0
102
RTVSPost2010PropOp39
 70
     1
102
RTVSPost2010Prop40
 90
        0
102
RTVSPost2010PropOp40
 70
     1
102
RTVSPost2010Prop41ColorIndex
 90
       18
102
RTVSPost2010Prop41ColorRGB
 90
        0
102
RTVSPost2010PropOp41
 70
     1
102
RTVSPost2010Prop42
 90
       50
102
RTVSPost2010PropOp42
 70
     1
102
RTVSPost2010Prop43
 90
        3
102
RTVSPost2010PropOp43
 70
     1
102
RTVSPost2010Prop44ColorIndex
 90
        5
102
RTVSPost2010Prop44ColorRGB
 90
      255
102
RTVSPost2010PropOp44
 70
     1
102
RTVSPost2010Prop45
280
     0
102
RTVSPost2010PropOp45
 70
     1
102
RTVSPost2010Prop46
 90
       50
102
RTVSPost2010PropOp46
 70
     1
102
RTVSPost2010Prop47
 90
       50
102
RTVSPost2010PropOp47
 70
     1
102
RTVSPost2010Prop48
 90
       50
102
RTVSPost2010PropOp48
 70
     1
102
RTVSPost2010Prop49
280
     0
102
RTVSPost2010PropOp49
 70
     1
102
RTVSPost2010Prop50
 90
       50
102
RTVSPost2010PropOp50
 70
     1
102
RTVSPost2010Prop51ColorIndex
 90
      256
102
RTVSPost2010Prop51ColorRGB
 90
-16777216
102
RTVSPost2010PropOp51
 70
     0
102
RTVSPost2010Prop52
140
1.0
102
RTVSPost2010PropOp52
 70
     0
102
RTVSPost2010Prop53
 90
        2
102
RTVSPost2010PropOp53
 70
     1
102
RTVSPost2010Prop54
  1
strokes_ogs.tif
102
RTVSPost2010PropOp54
 70
     1
102
RTVSPost2010Prop55
280
     0
102
RTVSPost2010PropOp55
 70
     1
102
RTVSPost2010Prop56
140
1.0
102
RTVSPost2010PropOp56
 70
     1
102
RTVSPost2010Prop57
140
1.0
102
RTVSPost2010PropOp57
 70
     1
  0
XRECORD
  5
2BF
102
{ACAD_REACTORS
330
2BE
102
}
330
2BE
100
AcDbXrecord
280
     1
102
RTVSPost2010Prop28
280
     0
102
RTVSPost2010PropOp28
 70
     1
102
RTVSPost2010Prop29
280
     1
102
RTVSPost2010PropOp29
 70
     1
102
RTVSPost2010Prop30
280
     1
102
RTVSPost2010PropOp30
 70
     1
102
RTVSPost2010Prop31
280
     0
102
RTVSPost2010PropOp31
 70
     1
102
RTVSPost2010Prop32
280
     0
102
RTVSPost2010PropOp32
 70
     1
102
RTVSPost2010Prop33
280
     0
102
RTVSPost2010PropOp33
 70
     1
102
RTVSPost2010Prop34
280
     0
102
RTVSPost2010PropOp34
 70
     1
102
RTVSPost2010Prop35
280
     0
102
RTVSPost2010PropOp35
 70
     1
102
RTVSPost2010Prop36
280
     0
102
RTVSPost2010PropOp36
 70
     1
102
RTVSPost2010Prop37
 90
       50
102
RTVSPost2010PropOp37
 70
     1
102
RTVSPost2010Prop38
140
0.0
102
RTVSPost2010PropOp38
 70
     1
102
RTVSPost2010Prop39
140
1.0
102
RTVSPost2010PropOp39
 70
     1
102
RTVSPost2010Prop40
 90
        0
102
RTVSPost2010PropOp40
 70
     1
102
RTVSPost2010Prop41ColorIndex
 90
       18
102
RTVSPost2010Prop41ColorRGB
 90
        0
102
RTVSPost2010PropOp41
 70
     1
102
RTVSPost2010Prop42
 90
       50
102
RTVSPost2010PropOp42
 70
     1
102
RTVSPost2010Prop43
 90
        3
102
RTVSPost2010PropOp43
 70
     1
102
RTVSPost2010Prop44ColorIndex
 90
        5
102
RTVSPost2010Prop44ColorRGB
 90
      255
102
RTVSPost2010PropOp44
 70
     1
102
RTVSPost2010Prop45
280
     0
102
RTVSPost2010PropOp45
 70
     1
102
RTVSPost2010Prop46
 90
       50
102
RTVSPost2010PropOp46
 70
     1
102
RTVSPost2010Prop47
 90
       50
102
RTVSPost2010PropOp47
 70
     1
102
RTVSPost2010Prop48
 90
       50
102
RTVSPost2010PropOp48
 70
     1
102
RTVSPost2010Prop49
280
     0
102
RTVSPost2010PropOp49
 70
     1
102
RTVSPost2010Prop50
 90
       50
102
RTVSPost2010PropOp50
 70
     1
102
RTVSPost2010Prop51ColorIndex
 90
      256
102
RTVSPost2010Prop51ColorRGB
 90
-16777216
102
RTVSPost2010PropOp51
 70
     0
102
RTVSPost2010Prop52
140
1.0
102
RTVSPost2010PropOp52
 70
     0
102
RTVSPost2010Prop53
 90
        2
102
RTVSPost2010PropOp53
 70
     1
102
RTVSPost2010Prop54
  1
strokes_ogs.tif
102
RTVSPost2010PropOp54
 70
     1
102
RTVSPost2010Prop55
280
     0
102
RTVSPost2010PropOp55
 70
     1
102
RTVSPost2010Prop56
140
1.0
102
RTVSPost2010PropOp56
 70
     1
102
RTVSPost2010Prop57
140
1.0
102
RTVSPost2010PropOp57
 70
     1
  0
XRECORD
  5
2C1
102
{ACAD_REACTORS
330
2C0
102
}
330
2C0
100
AcDbXrecord
280
     1
102
RTVSPost2010Prop28
280
     0
102
RTVSPost2010PropOp28
 70
     1
102
RTVSPost2010Prop29
280
     1
102
RTVSPost2010PropOp29
 70
     1
102
RTVSPost2010Prop30
280
     1
102
RTVSPost2010PropOp30
 70
     1
102
RTVSPost2010Prop31
280
     0
102
RTVSPost2010PropOp31
 70
     1
102
RTVSPost2010Prop32
280
     0
102
RTVSPost2010PropOp32
 70
     1
102
RTVSPost2010Prop33
280
     0
102
RTVSPost2010PropOp33
 70
     1
102
RTVSPost2010Prop34
280
     0
102
RTVSPost2010PropOp34
 70
     1
102
RTVSPost2010Prop35
280
     0
102
RTVSPost2010PropOp35
 70
     1
102
RTVSPost2010Prop36
280
     0
102
RTVSPost2010PropOp36
 70
     1
102
RTVSPost2010Prop37
 90
       50
102
RTVSPost2010PropOp37
 70
     1
102
RTVSPost2010Prop38
140
0.0
102
RTVSPost2010PropOp38
 70
     1
102
RTVSPost2010Prop39
140
1.0
102
RTVSPost2010PropOp39
 70
     1
102
RTVSPost2010Prop40
 90
        0
102
RTVSPost2010PropOp40
 70
     1
102
RTVSPost2010Prop41ColorIndex
 90
       18
102
RTVSPost2010Prop41ColorRGB
 90
        0
102
RTVSPost2010PropOp41
 70
     1
102
RTVSPost2010Prop42
 90
       50
102
RTVSPost2010PropOp42
 70
     1
102
RTVSPost2010Prop43
 90
        3
102
RTVSPost2010PropOp43
 70
     1
102
RTVSPost2010Prop44ColorIndex
 90
        5
102
RTVSPost2010Prop44ColorRGB
 90
      255
102
RTVSPost2010PropOp44
 70
     1
102
RTVSPost2010Prop45
280
     0
102
RTVSPost2010PropOp45
 70
     1
102
RTVSPost2010Prop46
 90
       50
102
RTVSPost2010PropOp46
 70
     1
102
RTVSPost2010Prop47
 90
       50
102
RTVSPost2010PropOp47
 70
     1
102
RTVSPost2010Prop48
 90
       50
102
RTVSPost2010PropOp48
 70
     1
102
RTVSPost2010Prop49
280
     0
102
RTVSPost2010PropOp49
 70
     1
102
RTVSPost2010Prop50
 90
       50
102
RTVSPost2010PropOp50
 70
     1
102
RTVSPost2010Prop51ColorIndex
 90
      256
102
RTVSPost2010Prop51ColorRGB
 90
-16777216
102
RTVSPost2010PropOp51
 70
     0
102
RTVSPost2010Prop52
140
1.0
102
RTVSPost2010PropOp52
 70
     0
102
RTVSPost2010Prop53
 90
        2
102
RTVSPost2010PropOp53
 70
     1
102
RTVSPost2010Prop54
  1
strokes_ogs.tif
102
RTVSPost2010PropOp54
 70
     1
102
RTVSPost2010Prop55
280
     0
102
RTVSPost2010PropOp55
 70
     1
102
RTVSPost2010Prop56
140
1.0
102
RTVSPost2010PropOp56
 70
     1
102
RTVSPost2010Prop57
140
1.0
102
RTVSPost2010PropOp57
 70
     1
  0
XRECORD
  5
2C7
102
{ACAD_REACTORS
330
2C6
102
}
330
2C6
100
AcDbXrecord
280
     1
102
RTVSPost2010Prop28
280
     0
102
RTVSPost2010PropOp28
 70
     1
102
RTVSPost2010Prop29
280
     1
102
RTVSPost2010PropOp29
 70
     1
102
RTVSPost2010Prop30
280
     1
102
RTVSPost2010PropOp30
 70
     1
102
RTVSPost2010Prop31
280
     0
102
RTVSPost2010PropOp31
 70
     1
102
RTVSPost2010Prop32
280
     0
102
RTVSPost2010PropOp32
 70
     1
102
RTVSPost2010Prop33
280
     0
102
RTVSPost2010PropOp33
 70
     1
102
RTVSPost2010Prop34
280
     0
102
RTVSPost2010PropOp34
 70
     1
102
RTVSPost2010Prop35
280
     0
102
RTVSPost2010PropOp35
 70
     1
102
RTVSPost2010Prop36
280
     0
102
RTVSPost2010PropOp36
 70
     1
102
RTVSPost2010Prop37
 90
       50
102
RTVSPost2010PropOp37
 70
     1
102
RTVSPost2010Prop38
140
0.0
102
RTVSPost2010PropOp38
 70
     1
102
RTVSPost2010Prop39
140
1.0
102
RTVSPost2010PropOp39
 70
     1
102
RTVSPost2010Prop40
 90
        0
102
RTVSPost2010PropOp40
 70
     1
102
RTVSPost2010Prop41ColorIndex
 90
       18
102
RTVSPost2010Prop41ColorRGB
 90
        0
102
RTVSPost2010PropOp41
 70
     1
102
RTVSPost2010Prop42
 90
       50
102
RTVSPost2010PropOp42
 70
     1
102
RTVSPost2010Prop43
 90
        3
102
RTVSPost2010PropOp43
 70
     1
102
RTVSPost2010Prop44ColorIndex
 90
        5
102
RTVSPost2010Prop44ColorRGB
 90
      255
102
RTVSPost2010PropOp44
 70
     1
102
RTVSPost2010Prop45
280
     0
102
RTVSPost2010PropOp45
 70
     1
102
RTVSPost2010Prop46
 90
       50
102
RTVSPost2010PropOp46
 70
     1
102
RTVSPost2010Prop47
 90
       50
102
RTVSPost2010PropOp47
 70
     1
102
RTVSPost2010Prop48
 90
       50
102
RTVSPost2010PropOp48
 70
     1
102
RTVSPost2010Prop49
280
     0
102
RTVSPost2010PropOp49
 70
     1
102
RTVSPost2010Prop50
 90
       50
102
RTVSPost2010PropOp50
 70
     1
102
RTVSPost2010Prop51ColorIndex
 90
      256
102
RTVSPost2010Prop51ColorRGB
 90
-16777216
102
RTVSPost2010PropOp51
 70
     0
102
RTVSPost2010Prop52
140
1.0
102
RTVSPost2010PropOp52
 70
     0
102
RTVSPost2010Prop53
 90
        2
102
RTVSPost2010PropOp53
 70
     1
102
RTVSPost2010Prop54
  1
strokes_ogs.tif
102
RTVSPost2010PropOp54
 70
     1
102
RTVSPost2010Prop55
280
     0
102
RTVSPost2010PropOp55
 70
     1
102
RTVSPost2010Prop56
140
1.0
102
RTVSPost2010PropOp56
 70
     1
102
RTVSPost2010Prop57
140
1.0
102
RTVSPost2010PropOp57
 70
     1
  0
XRECORD
  5
2DB
102
{ACAD_REACTORS
330
2DA
102
}
330
2DA
100
AcDbXrecord
280
     1
102
RTVSPost2010Prop28
280
     0
102
RTVSPost2010PropOp28
 70
     0
102
RTVSPost2010Prop29
280
     1
102
RTVSPost2010PropOp29
 70
     0
102
RTVSPost2010Prop30
280
     1
102
RTVSPost2010PropOp30
 70
     0
102
RTVSPost2010Prop31
280
     0
102
RTVSPost2010PropOp31
 70
     0
102
RTVSPost2010Prop32
280
     0
102
RTVSPost2010PropOp32
 70
     0
102
RTVSPost2010Prop33
280
     0
102
RTVSPost2010PropOp33
 70
     0
102
RTVSPost2010Prop34
280
     0
102
RTVSPost2010PropOp34
 70
     0
102
RTVSPost2010Prop35
280
     0
102
RTVSPost2010PropOp35
 70
     0
102
RTVSPost2010Prop36
280
     0
102
RTVSPost2010PropOp36
 70
     0
102
RTVSPost2010Prop37
 90
       50
102
RTVSPost2010PropOp37
 70
     0
102
RTVSPost2010Prop38
140
0.0
102
RTVSPost2010PropOp38
 70
     0
102
RTVSPost2010Prop39
140
1.0
102
RTVSPost2010PropOp39
 70
     0
102
RTVSPost2010Prop40
 90
        0
102
RTVSPost2010PropOp40
 70
     0
102
RTVSPost2010Prop41ColorIndex
 90
       18
102
RTVSPost2010Prop41ColorRGB
 90
        0
102
RTVSPost2010PropOp41
 70
     0
102
RTVSPost2010Prop42
 90
       50
102
RTVSPost2010PropOp42
 70
     0
102
RTVSPost2010Prop43
 90
        3
102
RTVSPost2010PropOp43
 70
     0
102
RTVSPost2010Prop44ColorIndex
 90
        5
102
RTVSPost2010Prop44ColorRGB
 90
      255
102
RTVSPost2010PropOp44
 70
     0
102
RTVSPost2010Prop45
280
     0
102
RTVSPost2010PropOp45
 70
     0
102
RTVSPost2010Prop46
 90
       50
102
RTVSPost2010PropOp46
 70
     0
102
RTVSPost2010Prop47
 90
       50
102
RTVSPost2010PropOp47
 70
     0
102
RTVSPost2010Prop48
 90
       50
102
RTVSPost2010PropOp48
 70
     0
102
RTVSPost2010Prop49
280
     0
102
RTVSPost2010PropOp49
 70
     0
102
RTVSPost2010Prop50
 90
       50
102
RTVSPost2010PropOp50
 70
     0
102
RTVSPost2010Prop51ColorIndex
 90
      256
102
RTVSPost2010Prop51ColorRGB
 90
-16777216
102
RTVSPost2010PropOp51
 70
     0
102
RTVSPost2010Prop52
140
1.0
102
RTVSPost2010PropOp52
 70
     0
102
RTVSPost2010Prop53
 90
        2
102
RTVSPost2010PropOp53
 70
     0
102
RTVSPost2010Prop54
  1
strokes_ogs.tif
102
RTVSPost2010PropOp54
 70
     0
102
RTVSPost2010Prop55
280
     0
102
RTVSPost2010PropOp55
 70
     0
102
RTVSPost2010Prop56
140
1.0
102
RTVSPost2010PropOp56
 70
     0
102
RTVSPost2010Prop57
140
1.0
102
RTVSPost2010PropOp57
 70
     0
  0
XRECORD
  5
2D5
102
{ACAD_REACTORS
330
2D4
102
}
330
2D4
100
AcDbXrecord
280
     1
102
RTVSPost2010Prop28
280
     0
102
RTVSPost2010PropOp28
 70
     1
102
RTVSPost2010Prop29
280
     1
102
RTVSPost2010PropOp29
 70
     1
102
RTVSPost2010Prop30
280
     1
102
RTVSPost2010PropOp30
 70
     1
102
RTVSPost2010Prop31
280
     0
102
RTVSPost2010PropOp31
 70
     1
102
RTVSPost2010Prop32
280
     0
102
RTVSPost2010PropOp32
 70
     1
102
RTVSPost2010Prop33
280
     0
102
RTVSPost2010PropOp33
 70
     1
102
RTVSPost2010Prop34
280
     0
102
RTVSPost2010PropOp34
 70
     1
102
RTVSPost2010Prop35
280
     0
102
RTVSPost2010PropOp35
 70
     1
102
RTVSPost2010Prop36
280
     0
102
RTVSPost2010PropOp36
 70
     1
102
RTVSPost2010Prop37
 90
       50
102
RTVSPost2010PropOp37
 70
     1
102
RTVSPost2010Prop38
140
0.0
102
RTVSPost2010PropOp38
 70
     1
102
RTVSPost2010Prop39
140
1.0
102
RTVSPost2010PropOp39
 70
     1
102
RTVSPost2010Prop40
 90
        0
102
RTVSPost2010PropOp40
 70
     1
102
RTVSPost2010Prop41ColorIndex
 90
       18
102
RTVSPost2010Prop41ColorRGB
 90
        0
102
RTVSPost2010PropOp41
 70
     1
102
RTVSPost2010Prop42
 90
       50
102
RTVSPost2010PropOp42
 70
     1
102
RTVSPost2010Prop43
 90
        3
102
RTVSPost2010PropOp43
 70
     1
102
RTVSPost2010Prop44ColorIndex
 90
        5
102
RTVSPost2010Prop44ColorRGB
 90
      255
102
RTVSPost2010PropOp44
 70
     1
102
RTVSPost2010Prop45
280
     0
102
RTVSPost2010PropOp45
 70
     1
102
RTVSPost2010Prop46
 90
       50
102
RTVSPost2010PropOp46
 70
     1
102
RTVSPost2010Prop47
 90
       50
102
RTVSPost2010PropOp47
 70
     1
102
RTVSPost2010Prop48
 90
       50
102
RTVSPost2010PropOp48
 70
     1
102
RTVSPost2010Prop49
280
     0
102
RTVSPost2010PropOp49
 70
     1
102
RTVSPost2010Prop50
 90
       50
102
RTVSPost2010PropOp50
 70
     1
102
RTVSPost2010Prop51ColorIndex
 90
      256
102
RTVSPost2010Prop51ColorRGB
 90
-16777216
102
RTVSPost2010PropOp51
 70
     0
102
RTVSPost2010Prop52
140
1.0
102
RTVSPost2010PropOp52
 70
     0
102
RTVSPost2010Prop53
 90
        2
102
RTVSPost2010PropOp53
 70
     1
102
RTVSPost2010Prop54
  1
strokes_ogs.tif
102
RTVSPost2010PropOp54
 70
     1
102
RTVSPost2010Prop55
280
     0
102
RTVSPost2010PropOp55
 70
     1
102
RTVSPost2010Prop56
140
1.0
102
RTVSPost2010PropOp56
 70
     1
102
RTVSPost2010Prop57
140
1.0
102
RTVSPost2010PropOp57
 70
     1
  0
XRECORD
  5
2DD
102
{ACAD_REACTORS
330
2DC
102
}
330
2DC
100
AcDbXrecord
280
     1
102
RTVSPost2010Prop28
280
     0
102
RTVSPost2010PropOp28
 70
     0
102
RTVSPost2010Prop29
280
     1
102
RTVSPost2010PropOp29
 70
     0
102
RTVSPost2010Prop30
280
     1
102
RTVSPost2010PropOp30
 70
     0
102
RTVSPost2010Prop31
280
     0
102
RTVSPost2010PropOp31
 70
     0
102
RTVSPost2010Prop32
280
     0
102
RTVSPost2010PropOp32
 70
     0
102
RTVSPost2010Prop33
280
     0
102
RTVSPost2010PropOp33
 70
     0
102
RTVSPost2010Prop34
280
     0
102
RTVSPost2010PropOp34
 70
     0
102
RTVSPost2010Prop35
280
     0
102
RTVSPost2010PropOp35
 70
     0
102
RTVSPost2010Prop36
280
     0
102
RTVSPost2010PropOp36
 70
     0
102
RTVSPost2010Prop37
 90
       50
102
RTVSPost2010PropOp37
 70
     0
102
RTVSPost2010Prop38
140
0.0
102
RTVSPost2010PropOp38
 70
     0
102
RTVSPost2010Prop39
140
1.0
102
RTVSPost2010PropOp39
 70
     0
102
RTVSPost2010Prop40
 90
        0
102
RTVSPost2010PropOp40
 70
     0
102
RTVSPost2010Prop41ColorIndex
 90
       18
102
RTVSPost2010Prop41ColorRGB
 90
        0
102
RTVSPost2010PropOp41
 70
     0
102
RTVSPost2010Prop42
 90
       50
102
RTVSPost2010PropOp42
 70
     0
102
RTVSPost2010Prop43
 90
        3
102
RTVSPost2010PropOp43
 70
     0
102
RTVSPost2010Prop44ColorIndex
 90
        5
102
RTVSPost2010Prop44ColorRGB
 90
      255
102
RTVSPost2010PropOp44
 70
     0
102
RTVSPost2010Prop45
280
     0
102
RTVSPost2010PropOp45
 70
     0
102
RTVSPost2010Prop46
 90
       50
102
RTVSPost2010PropOp46
 70
     0
102
RTVSPost2010Prop47
 90
       50
102
RTVSPost2010PropOp47
 70
     0
102
RTVSPost2010Prop48
 90
       50
102
RTVSPost2010PropOp48
 70
     0
102
RTVSPost2010Prop49
280
     0
102
RTVSPost2010PropOp49
 70
     0
102
RTVSPost2010Prop50
 90
       50
102
RTVSPost2010PropOp50
 70
     0
102
RTVSPost2010Prop51ColorIndex
 90
      256
102
RTVSPost2010Prop51ColorRGB
 90
-16777216
102
RTVSPost2010PropOp51
 70
     0
102
RTVSPost2010Prop52
140
1.0
102
RTVSPost2010PropOp52
 70
     0
102
RTVSPost2010Prop53
 90
        2
102
RTVSPost2010PropOp53
 70
     0
102
RTVSPost2010Prop54
  1
strokes_ogs.tif
102
RTVSPost2010PropOp54
 70
     0
102
RTVSPost2010Prop55
280
     0
102
RTVSPost2010PropOp55
 70
     0
102
RTVSPost2010Prop56
140
1.0
102
RTVSPost2010PropOp56
 70
     0
102
RTVSPost2010Prop57
140
1.0
102
RTVSPost2010PropOp57
 70
     0
  0
XRECORD
  5
2CB
102
{ACAD_REACTORS
330
2CA
102
}
330
2CA
100
AcDbXrecord
280
     1
102
RTVSPost2010Prop28
280
     0
102
RTVSPost2010PropOp28
 70
     1
102
RTVSPost2010Prop29
280
     1
102
RTVSPost2010PropOp29
 70
     1
102
RTVSPost2010Prop30
280
     1
102
RTVSPost2010PropOp30
 70
     1
102
RTVSPost2010Prop31
280
     0
102
RTVSPost2010PropOp31
 70
     1
102
RTVSPost2010Prop32
280
     0
102
RTVSPost2010PropOp32
 70
     1
102
RTVSPost2010Prop33
280
     0
102
RTVSPost2010PropOp33
 70
     1
102
RTVSPost2010Prop34
280
     0
102
RTVSPost2010PropOp34
 70
     1
102
RTVSPost2010Prop35
280
     0
102
RTVSPost2010PropOp35
 70
     1
102
RTVSPost2010Prop36
280
     0
102
RTVSPost2010PropOp36
 70
     1
102
RTVSPost2010Prop37
 90
       50
102
RTVSPost2010PropOp37
 70
     1
102
RTVSPost2010Prop38
140
0.0
102
RTVSPost2010PropOp38
 70
     1
102
RTVSPost2010Prop39
140
1.0
102
RTVSPost2010PropOp39
 70
     1
102
RTVSPost2010Prop40
 90
        0
102
RTVSPost2010PropOp40
 70
     1
102
RTVSPost2010Prop41ColorIndex
 90
       18
102
RTVSPost2010Prop41ColorRGB
 90
        0
102
RTVSPost2010PropOp41
 70
     1
102
RTVSPost2010Prop42
 90
       50
102
RTVSPost2010PropOp42
 70
     1
102
RTVSPost2010Prop43
 90
        3
102
RTVSPost2010PropOp43
 70
     1
102
RTVSPost2010Prop44ColorIndex
 90
        5
102
RTVSPost2010Prop44ColorRGB
 90
      255
102
RTVSPost2010PropOp44
 70
     1
102
RTVSPost2010Prop45
280
     0
102
RTVSPost2010PropOp45
 70
     1
102
RTVSPost2010Prop46
 90
       50
102
RTVSPost2010PropOp46
 70
     1
102
RTVSPost2010Prop47
 90
       50
102
RTVSPost2010PropOp47
 70
     1
102
RTVSPost2010Prop48
 90
       50
102
RTVSPost2010PropOp48
 70
     1
102
RTVSPost2010Prop49
280
     0
102
RTVSPost2010PropOp49
 70
     1
102
RTVSPost2010Prop50
 90
       50
102
RTVSPost2010PropOp50
 70
     1
102
RTVSPost2010Prop51ColorIndex
 90
      256
102
RTVSPost2010Prop51ColorRGB
 90
-16777216
102
RTVSPost2010PropOp51
 70
     0
102
RTVSPost2010Prop52
140
1.0
102
RTVSPost2010PropOp52
 70
     0
102
RTVSPost2010Prop53
 90
        2
102
RTVSPost2010PropOp53
 70
     1
102
RTVSPost2010Prop54
  1
strokes_ogs.tif
102
RTVSPost2010PropOp54
 70
     1
102
RTVSPost2010Prop55
280
     0
102
RTVSPost2010PropOp55
 70
     1
102
RTVSPost2010Prop56
140
1.0
102
RTVSPost2010PropOp56
 70
     1
102
RTVSPost2010Prop57
140
1.0
102
RTVSPost2010PropOp57
 70
     1
  0
XRECORD
  5
2E9
102
{ACAD_REACTORS
330
2E8
102
}
330
2E8
100
AcDbXrecord
280
     1
102
RTVSPost2010Prop28
280
     0
102
RTVSPost2010PropOp28
 70
     1
102
RTVSPost2010Prop29
280
     1
102
RTVSPost2010PropOp29
 70
     1
102
RTVSPost2010Prop30
280
     1
102
RTVSPost2010PropOp30
 70
     1
102
RTVSPost2010Prop31
280
     0
102
RTVSPost2010PropOp31
 70
     1
102
RTVSPost2010Prop32
280
     0
102
RTVSPost2010PropOp32
 70
     1
102
RTVSPost2010Prop33
280
     0
102
RTVSPost2010PropOp33
 70
     1
102
RTVSPost2010Prop34
280
     0
102
RTVSPost2010PropOp34
 70
     1
102
RTVSPost2010Prop35
280
     0
102
RTVSPost2010PropOp35
 70
     1
102
RTVSPost2010Prop36
280
     0
102
RTVSPost2010PropOp36
 70
     1
102
RTVSPost2010Prop37
 90
       50
102
RTVSPost2010PropOp37
 70
     1
102
RTVSPost2010Prop38
140
0.0
102
RTVSPost2010PropOp38
 70
     1
102
RTVSPost2010Prop39
140
1.0
102
RTVSPost2010PropOp39
 70
     1
102
RTVSPost2010Prop40
 90
        0
102
RTVSPost2010PropOp40
 70
     1
102
RTVSPost2010Prop41ColorIndex
 90
       18
102
RTVSPost2010Prop41ColorRGB
 90
        0
102
RTVSPost2010PropOp41
 70
     1
102
RTVSPost2010Prop42
 90
       50
102
RTVSPost2010PropOp42
 70
     1
102
RTVSPost2010Prop43
 90
        3
102
RTVSPost2010PropOp43
 70
     1
102
RTVSPost2010Prop44ColorIndex
 90
        5
102
RTVSPost2010Prop44ColorRGB
 90
      255
102
RTVSPost2010PropOp44
 70
     1
102
RTVSPost2010Prop45
280
     0
102
RTVSPost2010PropOp45
 70
     1
102
RTVSPost2010Prop46
 90
       50
102
RTVSPost2010PropOp46
 70
     1
102
RTVSPost2010Prop47
 90
       50
102
RTVSPost2010PropOp47
 70
     1
102
RTVSPost2010Prop48
 90
       50
102
RTVSPost2010PropOp48
 70
     1
102
RTVSPost2010Prop49
280
     0
102
RTVSPost2010PropOp49
 70
     1
102
RTVSPost2010Prop50
 90
       50
102
RTVSPost2010PropOp50
 70
     1
102
RTVSPost2010Prop51ColorIndex
 90
      256
102
RTVSPost2010Prop51ColorRGB
 90
-16777216
102
RTVSPost2010PropOp51
 70
     0
102
RTVSPost2010Prop52
140
1.0
102
RTVSPost2010PropOp52
 70
     0
102
RTVSPost2010Prop53
 90
        2
102
RTVSPost2010PropOp53
 70
     1
102
RTVSPost2010Prop54
  1
strokes_ogs.tif
102
RTVSPost2010PropOp54
 70
     1
102
RTVSPost2010Prop55
280
     0
102
RTVSPost2010PropOp55
 70
     1
102
RTVSPost2010Prop56
140
1.0
102
RTVSPost2010PropOp56
 70
     1
102
RTVSPost2010Prop57
140
1.0
102
RTVSPost2010PropOp57
 70
     1
  0
XRECORD
  5
2E7
102
{ACAD_REACTORS
330
2E6
102
}
330
2E6
100
AcDbXrecord
280
     1
102
RTVSPost2010Prop28
280
     0
102
RTVSPost2010PropOp28
 70
     1
102
RTVSPost2010Prop29
280
     1
102
RTVSPost2010PropOp29
 70
     1
102
RTVSPost2010Prop30
280
     1
102
RTVSPost2010PropOp30
 70
     1
102
RTVSPost2010Prop31
280
     0
102
RTVSPost2010PropOp31
 70
     1
102
RTVSPost2010Prop32
280
     0
102
RTVSPost2010PropOp32
 70
     1
102
RTVSPost2010Prop33
280
     0
102
RTVSPost2010PropOp33
 70
     1
102
RTVSPost2010Prop34
280
     0
102
RTVSPost2010PropOp34
 70
     1
102
RTVSPost2010Prop35
280
     0
102
RTVSPost2010PropOp35
 70
     1
102
RTVSPost2010Prop36
280
     0
102
RTVSPost2010PropOp36
 70
     1
102
RTVSPost2010Prop37
 90
       50
102
RTVSPost2010PropOp37
 70
     1
102
RTVSPost2010Prop38
140
0.0
102
RTVSPost2010PropOp38
 70
     1
102
RTVSPost2010Prop39
140
1.0
102
RTVSPost2010PropOp39
 70
     1
102
RTVSPost2010Prop40
 90
        0
102
RTVSPost2010PropOp40
 70
     1
102
RTVSPost2010Prop41ColorIndex
 90
       18
102
RTVSPost2010Prop41ColorRGB
 90
        0
102
RTVSPost2010PropOp41
 70
     1
102
RTVSPost2010Prop42
 90
       50
102
RTVSPost2010PropOp42
 70
     1
102
RTVSPost2010Prop43
 90
        3
102
RTVSPost2010PropOp43
 70
     1
102
RTVSPost2010Prop44ColorIndex
 90
        5
102
RTVSPost2010Prop44ColorRGB
 90
      255
102
RTVSPost2010PropOp44
 70
     1
102
RTVSPost2010Prop45
280
     0
102
RTVSPost2010PropOp45
 70
     1
102
RTVSPost2010Prop46
 90
       50
102
RTVSPost2010PropOp46
 70
     1
102
RTVSPost2010Prop47
 90
       50
102
RTVSPost2010PropOp47
 70
     1
102
RTVSPost2010Prop48
 90
       50
102
RTVSPost2010PropOp48
 70
     1
102
RTVSPost2010Prop49
280
     0
102
RTVSPost2010PropOp49
 70
     1
102
RTVSPost2010Prop50
 90
       50
102
RTVSPost2010PropOp50
 70
     1
102
RTVSPost2010Prop51ColorIndex
 90
      256
102
RTVSPost2010Prop51ColorRGB
 90
-16777216
102
RTVSPost2010PropOp51
 70
     0
102
RTVSPost2010Prop52
140
1.0
102
RTVSPost2010PropOp52
 70
     0
102
RTVSPost2010Prop53
 90
        2
102
RTVSPost2010PropOp53
 70
     1
102
RTVSPost2010Prop54
  1
strokes_ogs.tif
102
RTVSPost2010PropOp54
 70
     1
102
RTVSPost2010Prop55
280
     0
102
RTVSPost2010PropOp55
 70
     1
102
RTVSPost2010Prop56
140
1.0
102
RTVSPost2010PropOp56
 70
     1
102
RTVSPost2010Prop57
140
1.0
102
RTVSPost2010PropOp57
 70
     1
  0
XRECORD
  5
2E1
102
{ACAD_REACTORS
330
2E0
102
}
330
2E0
100
AcDbXrecord
280
     1
102
RTVSPost2010Prop28
280
     0
102
RTVSPost2010PropOp28
 70
     1
102
RTVSPost2010Prop29
280
     1
102
RTVSPost2010PropOp29
 70
     1
102
RTVSPost2010Prop30
280
     1
102
RTVSPost2010PropOp30
 70
     1
102
RTVSPost2010Prop31
280
     0
102
RTVSPost2010PropOp31
 70
     1
102
RTVSPost2010Prop32
280
     0
102
RTVSPost2010PropOp32
 70
     1
102
RTVSPost2010Prop33
280
     0
102
RTVSPost2010PropOp33
 70
     1
102
RTVSPost2010Prop34
280
     0
102
RTVSPost2010PropOp34
 70
     1
102
RTVSPost2010Prop35
280
     0
102
RTVSPost2010PropOp35
 70
     1
102
RTVSPost2010Prop36
280
     0
102
RTVSPost2010PropOp36
 70
     1
102
RTVSPost2010Prop37
 90
       50
102
RTVSPost2010PropOp37
 70
     1
102
RTVSPost2010Prop38
140
0.0
102
RTVSPost2010PropOp38
 70
     1
102
RTVSPost2010Prop39
140
1.0
102
RTVSPost2010PropOp39
 70
     1
102
RTVSPost2010Prop40
 90
        0
102
RTVSPost2010PropOp40
 70
     1
102
RTVSPost2010Prop41ColorIndex
 90
       18
102
RTVSPost2010Prop41ColorRGB
 90
        0
102
RTVSPost2010PropOp41
 70
     1
102
RTVSPost2010Prop42
 90
       50
102
RTVSPost2010PropOp42
 70
     1
102
RTVSPost2010Prop43
 90
        3
102
RTVSPost2010PropOp43
 70
     1
102
RTVSPost2010Prop44ColorIndex
 90
        5
102
RTVSPost2010Prop44ColorRGB
 90
      255
102
RTVSPost2010PropOp44
 70
     1
102
RTVSPost2010Prop45
280
     0
102
RTVSPost2010PropOp45
 70
     1
102
RTVSPost2010Prop46
 90
       50
102
RTVSPost2010PropOp46
 70
     1
102
RTVSPost2010Prop47
 90
       50
102
RTVSPost2010PropOp47
 70
     1
102
RTVSPost2010Prop48
 90
       50
102
RTVSPost2010PropOp48
 70
     1
102
RTVSPost2010Prop49
280
     0
102
RTVSPost2010PropOp49
 70
     1
102
RTVSPost2010Prop50
 90
       50
102
RTVSPost2010PropOp50
 70
     1
102
RTVSPost2010Prop51ColorIndex
 90
      256
102
RTVSPost2010Prop51ColorRGB
 90
-16777216
102
RTVSPost2010PropOp51
 70
     0
102
RTVSPost2010Prop52
140
1.0
102
RTVSPost2010PropOp52
 70
     0
102
RTVSPost2010Prop53
 90
        2
102
RTVSPost2010PropOp53
 70
     1
102
RTVSPost2010Prop54
  1
strokes_ogs.tif
102
RTVSPost2010PropOp54
 70
     1
102
RTVSPost2010Prop55
280
     0
102
RTVSPost2010PropOp55
 70
     1
102
RTVSPost2010Prop56
140
1.0
102
RTVSPost2010PropOp56
 70
     1
102
RTVSPost2010Prop57
140
1.0
102
RTVSPost2010PropOp57
 70
     1
  0
XRECORD
  5
2E3
102
{ACAD_REACTORS
330
2E2
102
}
330
2E2
100
AcDbXrecord
280
     1
102
RTVSPost2010Prop28
280
     0
102
RTVSPost2010PropOp28
 70
     1
102
RTVSPost2010Prop29
280
     1
102
RTVSPost2010PropOp29
 70
     1
102
RTVSPost2010Prop30
280
     1
102
RTVSPost2010PropOp30
 70
     1
102
RTVSPost2010Prop31
280
     0
102
RTVSPost2010PropOp31
 70
     1
102
RTVSPost2010Prop32
280
     0
102
RTVSPost2010PropOp32
 70
     1
102
RTVSPost2010Prop33
280
     0
102
RTVSPost2010PropOp33
 70
     1
102
RTVSPost2010Prop34
280
     0
102
RTVSPost2010PropOp34
 70
     1
102
RTVSPost2010Prop35
280
     0
102
RTVSPost2010PropOp35
 70
     1
102
RTVSPost2010Prop36
280
     0
102
RTVSPost2010PropOp36
 70
     1
102
RTVSPost2010Prop37
 90
       50
102
RTVSPost2010PropOp37
 70
     1
102
RTVSPost2010Prop38
140
0.0
102
RTVSPost2010PropOp38
 70
     1
102
RTVSPost2010Prop39
140
1.0
102
RTVSPost2010PropOp39
 70
     1
102
RTVSPost2010Prop40
 90
        0
102
RTVSPost2010PropOp40
 70
     1
102
RTVSPost2010Prop41ColorIndex
 90
       18
102
RTVSPost2010Prop41ColorRGB
 90
        0
102
RTVSPost2010PropOp41
 70
     1
102
RTVSPost2010Prop42
 90
       50
102
RTVSPost2010PropOp42
 70
     1
102
RTVSPost2010Prop43
 90
        3
102
RTVSPost2010PropOp43
 70
     1
102
RTVSPost2010Prop44ColorIndex
 90
        5
102
RTVSPost2010Prop44ColorRGB
 90
      255
102
RTVSPost2010PropOp44
 70
     1
102
RTVSPost2010Prop45
280
     0
102
RTVSPost2010PropOp45
 70
     1
102
RTVSPost2010Prop46
 90
       50
102
RTVSPost2010PropOp46
 70
     1
102
RTVSPost2010Prop47
 90
       50
102
RTVSPost2010PropOp47
 70
     1
102
RTVSPost2010Prop48
 90
       50
102
RTVSPost2010PropOp48
 70
     1
102
RTVSPost2010Prop49
280
     0
102
RTVSPost2010PropOp49
 70
     1
102
RTVSPost2010Prop50
 90
       50
102
RTVSPost2010PropOp50
 70
     1
102
RTVSPost2010Prop51ColorIndex
 90
      256
102
RTVSPost2010Prop51ColorRGB
 90
-16777216
102
RTVSPost2010PropOp51
 70
     0
102
RTVSPost2010Prop52
140
1.0
102
RTVSPost2010PropOp52
 70
     0
102
RTVSPost2010Prop53
 90
        2
102
RTVSPost2010PropOp53
 70
     1
102
RTVSPost2010Prop54
  1
strokes_ogs.tif
102
RTVSPost2010PropOp54
 70
     1
102
RTVSPost2010Prop55
280
     0
102
RTVSPost2010PropOp55
 70
     1
102
RTVSPost2010Prop56
140
1.0
102
RTVSPost2010PropOp56
 70
     1
102
RTVSPost2010Prop57
140
1.0
102
RTVSPost2010PropOp57
 70
     1
  0
XRECORD
  5
2D3
102
{ACAD_REACTORS
330
2D2
102
}
330
2D2
100
AcDbXrecord
280
     1
102
RTVSPost2010Prop28
280
     0
102
RTVSPost2010PropOp28
 70
     1
102
RTVSPost2010Prop29
280
     1
102
RTVSPost2010PropOp29
 70
     1
102
RTVSPost2010Prop30
280
     1
102
RTVSPost2010PropOp30
 70
     1
102
RTVSPost2010Prop31
280
     0
102
RTVSPost2010PropOp31
 70
     1
102
RTVSPost2010Prop32
280
     0
102
RTVSPost2010PropOp32
 70
     1
102
RTVSPost2010Prop33
280
     0
102
RTVSPost2010PropOp33
 70
     1
102
RTVSPost2010Prop34
280
     0
102
RTVSPost2010PropOp34
 70
     1
102
RTVSPost2010Prop35
280
     0
102
RTVSPost2010PropOp35
 70
     1
102
RTVSPost2010Prop36
280
     0
102
RTVSPost2010PropOp36
 70
     1
102
RTVSPost2010Prop37
 90
       50
102
RTVSPost2010PropOp37
 70
     1
102
RTVSPost2010Prop38
140
0.0
102
RTVSPost2010PropOp38
 70
     1
102
RTVSPost2010Prop39
140
1.0
102
RTVSPost2010PropOp39
 70
     1
102
RTVSPost2010Prop40
 90
        0
102
RTVSPost2010PropOp40
 70
     1
102
RTVSPost2010Prop41ColorIndex
 90
       18
102
RTVSPost2010Prop41ColorRGB
 90
        0
102
RTVSPost2010PropOp41
 70
     1
102
RTVSPost2010Prop42
 90
       50
102
RTVSPost2010PropOp42
 70
     1
102
RTVSPost2010Prop43
 90
        3
102
RTVSPost2010PropOp43
 70
     1
102
RTVSPost2010Prop44ColorIndex
 90
        5
102
RTVSPost2010Prop44ColorRGB
 90
      255
102
RTVSPost2010PropOp44
 70
     1
102
RTVSPost2010Prop45
280
     0
102
RTVSPost2010PropOp45
 70
     1
102
RTVSPost2010Prop46
 90
       50
102
RTVSPost2010PropOp46
 70
     1
102
RTVSPost2010Prop47
 90
       50
102
RTVSPost2010PropOp47
 70
     1
102
RTVSPost2010Prop48
 90
       50
102
RTVSPost2010PropOp48
 70
     1
102
RTVSPost2010Prop49
280
     0
102
RTVSPost2010PropOp49
 70
     1
102
RTVSPost2010Prop50
 90
       50
102
RTVSPost2010PropOp50
 70
     1
102
RTVSPost2010Prop51ColorIndex
 90
      256
102
RTVSPost2010Prop51ColorRGB
 90
-16777216
102
RTVSPost2010PropOp51
 70
     0
102
RTVSPost2010Prop52
140
1.0
102
RTVSPost2010PropOp52
 70
     0
102
RTVSPost2010Prop53
 90
        2
102
RTVSPost2010PropOp53
 70
     1
102
RTVSPost2010Prop54
  1
strokes_ogs.tif
102
RTVSPost2010PropOp54
 70
     1
102
RTVSPost2010Prop55
280
     0
102
RTVSPost2010PropOp55
 70
     1
102
RTVSPost2010Prop56
140
1.0
102
RTVSPost2010PropOp56
 70
     1
102
RTVSPost2010Prop57
140
1.0
102
RTVSPost2010PropOp57
 70
     1
  0
XRECORD
  5
2C5
102
{ACAD_REACTORS
330
2C4
102
}
330
2C4
100
AcDbXrecord
280
     1
102
RTVSPost2010Prop28
280
     0
102
RTVSPost2010PropOp28
 70
     1
102
RTVSPost2010Prop29
280
     1
102
RTVSPost2010PropOp29
 70
     1
102
RTVSPost2010Prop30
280
     1
102
RTVSPost2010PropOp30
 70
     1
102
RTVSPost2010Prop31
280
     0
102
RTVSPost2010PropOp31
 70
     1
102
RTVSPost2010Prop32
280
     0
102
RTVSPost2010PropOp32
 70
     1
102
RTVSPost2010Prop33
280
     0
102
RTVSPost2010PropOp33
 70
     1
102
RTVSPost2010Prop34
280
     0
102
RTVSPost2010PropOp34
 70
     1
102
RTVSPost2010Prop35
280
     0
102
RTVSPost2010PropOp35
 70
     1
102
RTVSPost2010Prop36
280
     0
102
RTVSPost2010PropOp36
 70
     1
102
RTVSPost2010Prop37
 90
       50
102
RTVSPost2010PropOp37
 70
     1
102
RTVSPost2010Prop38
140
0.0
102
RTVSPost2010PropOp38
 70
     1
102
RTVSPost2010Prop39
140
1.0
102
RTVSPost2010PropOp39
 70
     1
102
RTVSPost2010Prop40
 90
        0
102
RTVSPost2010PropOp40
 70
     1
102
RTVSPost2010Prop41ColorIndex
 90
       18
102
RTVSPost2010Prop41ColorRGB
 90
        0
102
RTVSPost2010PropOp41
 70
     1
102
RTVSPost2010Prop42
 90
       50
102
RTVSPost2010PropOp42
 70
     1
102
RTVSPost2010Prop43
 90
        3
102
RTVSPost2010PropOp43
 70
     1
102
RTVSPost2010Prop44ColorIndex
 90
        5
102
RTVSPost2010Prop44ColorRGB
 90
      255
102
RTVSPost2010PropOp44
 70
     1
102
RTVSPost2010Prop45
280
     0
102
RTVSPost2010PropOp45
 70
     1
102
RTVSPost2010Prop46
 90
       50
102
RTVSPost2010PropOp46
 70
     1
102
RTVSPost2010Prop47
 90
       50
102
RTVSPost2010PropOp47
 70
     1
102
RTVSPost2010Prop48
 90
       50
102
RTVSPost2010PropOp48
 70
     1
102
RTVSPost2010Prop49
280
     0
102
RTVSPost2010PropOp49
 70
     1
102
RTVSPost2010Prop50
 90
       50
102
RTVSPost2010PropOp50
 70
     1
102
RTVSPost2010Prop51ColorIndex
 90
      256
102
RTVSPost2010Prop51ColorRGB
 90
-16777216
102
RTVSPost2010PropOp51
 70
     0
102
RTVSPost2010Prop52
140
1.0
102
RTVSPost2010PropOp52
 70
     0
102
RTVSPost2010Prop53
 90
        2
102
RTVSPost2010PropOp53
 70
     1
102
RTVSPost2010Prop54
  1
strokes_ogs.tif
102
RTVSPost2010PropOp54
 70
     1
102
RTVSPost2010Prop55
280
     0
102
RTVSPost2010PropOp55
 70
     1
102
RTVSPost2010Prop56
140
1.0
102
RTVSPost2010PropOp56
 70
     1
102
RTVSPost2010Prop57
140
1.0
102
RTVSPost2010PropOp57
 70
     1
  0
XRECORD
  5
2E5
102
{ACAD_REACTORS
330
2E4
102
}
330
2E4
100
AcDbXrecord
280
     1
102
RTVSPost2010Prop28
280
     0
102
RTVSPost2010PropOp28
 70
     1
102
RTVSPost2010Prop29
280
     1
102
RTVSPost2010PropOp29
 70
     1
102
RTVSPost2010Prop30
280
     1
102
RTVSPost2010PropOp30
 70
     1
102
RTVSPost2010Prop31
280
     0
102
RTVSPost2010PropOp31
 70
     1
102
RTVSPost2010Prop32
280
     0
102
RTVSPost2010PropOp32
 70
     1
102
RTVSPost2010Prop33
280
     0
102
RTVSPost2010PropOp33
 70
     1
102
RTVSPost2010Prop34
280
     0
102
RTVSPost2010PropOp34
 70
     1
102
RTVSPost2010Prop35
280
     0
102
RTVSPost2010PropOp35
 70
     1
102
RTVSPost2010Prop36
280
     0
102
RTVSPost2010PropOp36
 70
     1
102
RTVSPost2010Prop37
 90
       50
102
RTVSPost2010PropOp37
 70
     1
102
RTVSPost2010Prop38
140
0.0
102
RTVSPost2010PropOp38
 70
     1
102
RTVSPost2010Prop39
140
1.0
102
RTVSPost2010PropOp39
 70
     1
102
RTVSPost2010Prop40
 90
        0
102
RTVSPost2010PropOp40
 70
     1
102
RTVSPost2010Prop41ColorIndex
 90
       18
102
RTVSPost2010Prop41ColorRGB
 90
        0
102
RTVSPost2010PropOp41
 70
     1
102
RTVSPost2010Prop42
 90
       50
102
RTVSPost2010PropOp42
 70
     1
102
RTVSPost2010Prop43
 90
        3
102
RTVSPost2010PropOp43
 70
     1
102
RTVSPost2010Prop44ColorIndex
 90
        5
102
RTVSPost2010Prop44ColorRGB
 90
      255
102
RTVSPost2010PropOp44
 70
     1
102
RTVSPost2010Prop45
280
     0
102
RTVSPost2010PropOp45
 70
     1
102
RTVSPost2010Prop46
 90
       50
102
RTVSPost2010PropOp46
 70
     1
102
RTVSPost2010Prop47
 90
       50
102
RTVSPost2010PropOp47
 70
     1
102
RTVSPost2010Prop48
 90
       50
102
RTVSPost2010PropOp48
 70
     1
102
RTVSPost2010Prop49
280
     0
102
RTVSPost2010PropOp49
 70
     1
102
RTVSPost2010Prop50
 90
       50
102
RTVSPost2010PropOp50
 70
     1
102
RTVSPost2010Prop51ColorIndex
 90
      256
102
RTVSPost2010Prop51ColorRGB
 90
-16777216
102
RTVSPost2010PropOp51
 70
     0
102
RTVSPost2010Prop52
140
1.0
102
RTVSPost2010PropOp52
 70
     0
102
RTVSPost2010Prop53
 90
        2
102
RTVSPost2010PropOp53
 70
     1
102
RTVSPost2010Prop54
  1
strokes_ogs.tif
102
RTVSPost2010PropOp54
 70
     1
102
RTVSPost2010Prop55
280
     0
102
RTVSPost2010PropOp55
 70
     1
102
RTVSPost2010Prop56
140
1.0
102
RTVSPost2010PropOp56
 70
     1
102
RTVSPost2010Prop57
140
1.0
102
RTVSPost2010PropOp57
 70
     1
  0
ENDSEC
  0
EOF
